999
unknown String-ID: 20550
0
SECTION
2
HEADER
9
$ACADVER
1
AC1009
9
$DWGCODEPAGE
3
unknown String-ID: 20561
0
ENDSEC
0
SECTION
2
TABLES
0
TABLE
2
LAYER
70
1
0
LAYER
2
0
70
0
62
7
6
CONTINUOUS
0
ENDTAB
0
ENDSEC
0
SECTION
2
ENTITIES
0
LINE
8
0
6
CONTINUOUS
10
0.010914
20
0.008044
30
0.0
11
0.015579
21
0.008044
31
0.0
0
LINE
8
0
6
CONTINUOUS
10
0.015579
20
0.008044
30
0.0
11
0.019099
21
0.008044
31
0.0
0
LINE
8
0
6
CONTINUOUS
10
0.019099
20
0.008044
30
0.0
11
0.021212
21
0.008044
31
0.0
0
LINE
8
0
6
CONTINUOUS
10
0.022004
20
0.008044
30
0.0
11
0.022004
21
0.008288
31
0.0
0
LINE
8
0
6
CONTINUOUS
10
0.021212
20
0.008044
30
0.0
11
0.022004
21
0.008044
31
0.0
0
LINE
8
0
6
CONTINUOUS
10
-0.015579
20
0.008044
30
0.0
11
-0.010914
21
0.008044
31
0.0
0
LINE
8
0
6
CONTINUOUS
10
-0.019099
20
0.008044
30
0.0
11
-0.015579
21
0.008044
31
0.0
0
LINE
8
0
6
CONTINUOUS
10
-0.021212
20
0.008044
30
0.0
11
-0.019099
21
0.008044
31
0.0
0
LINE
8
0
6
CONTINUOUS
10
-0.022004
20
0.008044
30
0.0
11
-0.021212
21
0.008044
31
0.0
0
LINE
8
0
6
CONTINUOUS
10
-0.022004
20
0.008288
30
0.0
11
-0.022004
21
0.008044
31
0.0
0
LINE
8
0
6
CONTINUOUS
10
0.016791
20
-0.027555
30
0.0
11
0.017930
21
-0.027555
31
0.0
0
LINE
8
0
6
CONTINUOUS
10
0.020512
20
-0.027555
30
0.0
11
0.020988
21
-0.027555
31
0.0
0
LINE
8
0
6
CONTINUOUS
10
-0.017929
20
-0.027555
30
0.0
11
-0.016790
21
-0.027555
31
0.0
0
LINE
8
0
6
CONTINUOUS
10
-0.016790
20
-0.027555
30
0.0
11
-0.015072
21
-0.027555
31
0.0
0
LINE
8
0
6
CONTINUOUS
10
-0.021711
20
-0.027470
30
0.0
11
-0.021514
21
-0.027555
31
0.0
0
LINE
8
0
6
CONTINUOUS
10
-0.021514
20
-0.027555
30
0.0
11
-0.021397
21
-0.027555
31
0.0
0
LINE
8
0
6
CONTINUOUS
10
-0.018899
20
-0.027555
30
0.0
11
-0.017929
21
-0.027555
31
0.0
0
LINE
8
0
6
CONTINUOUS
10
0.015073
20
-0.027555
30
0.0
11
0.016791
21
-0.027555
31
0.0
0
LINE
8
0
6
CONTINUOUS
10
-0.020988
20
-0.027555
30
0.0
11
-0.020512
21
-0.027555
31
0.0
0
LINE
8
0
6
CONTINUOUS
10
0.020683
20
-0.027470
30
0.0
11
0.021137
21
-0.027470
31
0.0
0
LINE
8
0
6
CONTINUOUS
10
-0.016914
20
-0.027470
30
0.0
11
-0.015191
21
-0.027470
31
0.0
0
LINE
8
0
6
CONTINUOUS
10
0.021796
20
-0.027272
30
0.0
11
0.021796
21
-0.027095
31
0.0
0
LINE
8
0
6
CONTINUOUS
10
0.015192
20
-0.027470
30
0.0
11
0.016914
21
-0.027470
31
0.0
0
LINE
8
0
6
CONTINUOUS
10
0.020168
20
-0.027555
30
0.0
11
0.020512
21
-0.027555
31
0.0
0
LINE
8
0
6
CONTINUOUS
10
-0.018082
20
-0.027470
30
0.0
11
-0.016914
21
-0.027470
31
0.0
0
LINE
8
0
6
CONTINUOUS
10
-0.019040
20
-0.027470
30
0.0
11
-0.018082
21
-0.027470
31
0.0
0
LINE
8
0
6
CONTINUOUS
10
-0.020995
20
0.007169
30
0.0
11
-0.021375
21
0.007169
31
0.0
0
LINE
8
0
6
CONTINUOUS
10
0.017930
20
-0.027555
30
0.0
11
0.018899
21
-0.027555
31
0.0
0
LINE
8
0
6
CONTINUOUS
10
0.016914
20
-0.027470
30
0.0
11
0.018082
21
-0.027470
31
0.0
0
LINE
8
0
6
CONTINUOUS
10
-0.022423
20
0.006787
30
0.0
11
-0.021796
21
-0.027095
31
0.0
0
LINE
8
0
6
CONTINUOUS
10
0.020327
20
-0.027470
30
0.0
11
0.019789
21
-0.027470
31
0.0
0
LINE
8
0
6
CONTINUOUS
10
0.019644
20
-0.027555
30
0.0
11
0.020168
21
-0.027555
31
0.0
0
LINE
8
0
6
CONTINUOUS
10
-0.021397
20
-0.027555
30
0.0
11
-0.020988
21
-0.027555
31
0.0
0
LINE
8
0
6
CONTINUOUS
10
-0.021136
20
-0.027470
30
0.0
11
-0.021578
21
-0.027470
31
0.0
0
LINE
8
0
6
CONTINUOUS
10
-0.020168
20
-0.027555
30
0.0
11
-0.019644
21
-0.027555
31
0.0
0
LINE
8
0
6
CONTINUOUS
10
-0.019789
20
-0.027470
30
0.0
11
-0.020326
21
-0.027470
31
0.0
0
LINE
8
0
6
CONTINUOUS
10
-0.020512
20
-0.027555
30
0.0
11
-0.020168
21
-0.027555
31
0.0
0
LINE
8
0
6
CONTINUOUS
10
-0.020326
20
-0.027470
30
0.0
11
-0.020683
21
-0.027470
31
0.0
0
LINE
8
0
6
CONTINUOUS
10
-0.019040
20
-0.027470
30
0.0
11
-0.019789
21
-0.027470
31
0.0
0
LINE
8
0
6
CONTINUOUS
10
-0.019644
20
-0.027555
30
0.0
11
-0.018899
21
-0.027555
31
0.0
0
LINE
8
0
6
CONTINUOUS
10
0.018082
20
-0.027470
30
0.0
11
0.019040
21
-0.027470
31
0.0
0
LINE
8
0
6
CONTINUOUS
10
-0.021136
20
-0.027470
30
0.0
11
-0.020683
21
-0.027470
31
0.0
0
LINE
8
0
6
CONTINUOUS
10
0.020327
20
-0.027470
30
0.0
11
0.020683
21
-0.027470
31
0.0
0
LINE
8
0
6
CONTINUOUS
10
0.021712
20
-0.027470
30
0.0
11
0.021796
21
-0.027272
31
0.0
0
LINE
8
0
6
CONTINUOUS
10
0.020988
20
-0.027555
30
0.0
11
0.021397
21
-0.027555
31
0.0
0
LINE
8
0
6
CONTINUOUS
10
0.021578
20
-0.027470
30
0.0
11
0.021137
21
-0.027470
31
0.0
0
LINE
8
0
6
CONTINUOUS
10
0.021712
20
-0.027470
30
0.0
11
0.021578
21
-0.027470
31
0.0
0
LINE
8
0
6
CONTINUOUS
10
0.021515
20
-0.027555
30
0.0
11
0.021712
21
-0.027470
31
0.0
0
LINE
8
0
6
CONTINUOUS
10
0.021397
20
-0.027555
30
0.0
11
0.021515
21
-0.027555
31
0.0
0
LINE
8
0
6
CONTINUOUS
10
-0.011199
20
-0.027555
30
0.0
11
-0.004560
21
-0.027555
31
0.0
0
LINE
8
0
6
CONTINUOUS
10
0.019789
20
-0.027470
30
0.0
11
0.019040
21
-0.027470
31
0.0
0
LINE
8
0
6
CONTINUOUS
10
0.018899
20
-0.027555
30
0.0
11
0.019644
21
-0.027555
31
0.0
0
LINE
8
0
6
CONTINUOUS
10
-0.021796
20
-0.027272
30
0.0
11
-0.021711
21
-0.027470
31
0.0
0
LINE
8
0
6
CONTINUOUS
10
-0.021711
20
-0.027470
30
0.0
11
-0.021578
21
-0.027470
31
0.0
0
LINE
8
0
6
CONTINUOUS
10
-0.021857
20
0.007169
30
0.0
11
-0.022303
21
0.007169
31
0.0
0
LINE
8
0
6
CONTINUOUS
10
0.021796
20
-0.027095
30
0.0
11
0.022423
21
0.006787
31
0.0
0
LINE
8
0
6
CONTINUOUS
10
-0.020428
20
0.007169
30
0.0
11
-0.020995
21
0.007169
31
0.0
0
LINE
8
0
6
CONTINUOUS
10
-0.021796
20
-0.027095
30
0.0
11
-0.021796
21
-0.027272
31
0.0
0
LINE
8
0
6
CONTINUOUS
10
0.019666
20
0.007169
30
0.0
11
0.018671
21
0.007169
31
0.0
0
LINE
8
0
6
CONTINUOUS
10
0.018671
20
0.007169
30
0.0
11
0.017474
21
0.007169
31
0.0
0
LINE
8
0
6
CONTINUOUS
10
0.017474
20
0.007169
30
0.0
11
0.015682
21
0.007169
31
0.0
0
LINE
8
0
6
CONTINUOUS
10
-0.021375
20
0.007169
30
0.0
11
-0.021857
21
0.007169
31
0.0
0
LINE
8
0
6
CONTINUOUS
10
-0.019666
20
0.007169
30
0.0
11
-0.020428
21
0.007169
31
0.0
0
LINE
8
0
6
CONTINUOUS
10
0.022303
20
0.007169
30
0.0
11
0.021857
21
0.007169
31
0.0
0
LINE
8
0
6
CONTINUOUS
10
-0.022430
20
0.007169
30
0.0
11
-0.022423
21
0.006787
31
0.0
0
LINE
8
0
6
CONTINUOUS
10
-0.022303
20
0.007169
30
0.0
11
-0.022430
21
0.007169
31
0.0
0
LINE
8
0
6
CONTINUOUS
10
0.021857
20
0.007169
30
0.0
11
0.021375
21
0.007169
31
0.0
0
LINE
8
0
6
CONTINUOUS
10
-0.015681
20
0.007169
30
0.0
11
-0.017474
21
0.007169
31
0.0
0
LINE
8
0
6
CONTINUOUS
10
0.022423
20
0.006787
30
0.0
11
0.022430
21
0.007169
31
0.0
0
LINE
8
0
6
CONTINUOUS
10
0.022430
20
0.007169
30
0.0
11
0.022303
21
0.007169
31
0.0
0
LINE
8
0
6
CONTINUOUS
10
0.020995
20
0.007169
30
0.0
11
0.020428
21
0.007169
31
0.0
0
LINE
8
0
6
CONTINUOUS
10
-0.017474
20
0.007169
30
0.0
11
-0.018671
21
0.007169
31
0.0
0
LINE
8
0
6
CONTINUOUS
10
-0.018671
20
0.007169
30
0.0
11
-0.019666
21
0.007169
31
0.0
0
LINE
8
0
6
CONTINUOUS
10
0.020428
20
0.007169
30
0.0
11
0.019666
21
0.007169
31
0.0
0
LINE
8
0
6
CONTINUOUS
10
0.021375
20
0.007169
30
0.0
11
0.020995
21
0.007169
31
0.0
0
LINE
8
0
6
CONTINUOUS
10
0.022004
20
0.008288
30
0.0
11
0.022004
21
0.013555
31
0.0
0
LINE
8
0
6
CONTINUOUS
10
-0.022004
20
0.013555
30
0.0
11
-0.022004
21
0.008288
31
0.0
0
LINE
8
0
6
CONTINUOUS
10
-0.021292
20
0.008044
30
0.0
11
-0.021292
21
0.007876
31
0.0
0
LINE
8
0
6
CONTINUOUS
10
0.021292
20
0.007876
30
0.0
11
0.021292
21
0.008044
31
0.0
0
LINE
8
0
6
CONTINUOUS
10
0.000000
20
0.008239
30
0.0
11
0.003733
21
0.008239
31
0.0
0
LINE
8
0
6
CONTINUOUS
10
0.003733
20
0.008239
30
0.0
11
0.007233
21
0.008239
31
0.0
0
LINE
8
0
6
CONTINUOUS
10
0.007233
20
0.008239
30
0.0
11
0.010325
21
0.008239
31
0.0
0
LINE
8
0
6
CONTINUOUS
10
0.010325
20
0.008239
30
0.0
11
0.012659
21
0.008239
31
0.0
0
LINE
8
0
6
CONTINUOUS
10
0.012659
20
0.008239
30
0.0
11
0.014059
21
0.008239
31
0.0
0
LINE
8
0
6
CONTINUOUS
10
0.014584
20
0.008239
30
0.0
11
0.014584
21
0.008508
31
0.0
0
LINE
8
0
6
CONTINUOUS
10
0.014059
20
0.008239
30
0.0
11
0.014584
21
0.008239
31
0.0
0
LINE
8
0
6
CONTINUOUS
10
-0.003733
20
0.008239
30
0.0
11
0.000000
21
0.008239
31
0.0
0
LINE
8
0
6
CONTINUOUS
10
-0.007233
20
0.008239
30
0.0
11
-0.003733
21
0.008239
31
0.0
0
LINE
8
0
6
CONTINUOUS
10
-0.010325
20
0.008239
30
0.0
11
-0.007233
21
0.008239
31
0.0
0
LINE
8
0
6
CONTINUOUS
10
-0.012658
20
0.008239
30
0.0
11
-0.010325
21
0.008239
31
0.0
0
LINE
8
0
6
CONTINUOUS
10
-0.014059
20
0.008239
30
0.0
11
-0.012658
21
0.008239
31
0.0
0
LINE
8
0
6
CONTINUOUS
10
-0.014584
20
0.008239
30
0.0
11
-0.014059
21
0.008239
31
0.0
0
LINE
8
0
6
CONTINUOUS
10
-0.014584
20
0.008508
30
0.0
11
-0.014584
21
0.008239
31
0.0
0
LINE
8
0
6
CONTINUOUS
10
0.003345
20
-0.027555
30
0.0
11
0.008217
21
-0.027555
31
0.0
0
LINE
8
0
6
CONTINUOUS
10
-0.011058
20
-0.027555
30
0.0
11
-0.008217
21
-0.027555
31
0.0
0
LINE
8
0
6
CONTINUOUS
10
0.012319
20
-0.027555
30
0.0
11
0.013155
21
-0.027555
31
0.0
0
LINE
8
0
6
CONTINUOUS
10
0.015049
20
-0.027555
30
0.0
11
0.015399
21
-0.027555
31
0.0
0
LINE
8
0
6
CONTINUOUS
10
-0.013154
20
-0.027555
30
0.0
11
-0.012319
21
-0.027555
31
0.0
0
LINE
8
0
6
CONTINUOUS
10
-0.012319
20
-0.027555
30
0.0
11
-0.011058
21
-0.027555
31
0.0
0
LINE
8
0
6
CONTINUOUS
10
0.008217
20
-0.027555
30
0.0
11
0.011058
21
-0.027555
31
0.0
0
LINE
8
0
6
CONTINUOUS
10
-0.015929
20
-0.027469
30
0.0
11
-0.015784
21
-0.027555
31
0.0
0
LINE
8
0
6
CONTINUOUS
10
-0.015784
20
-0.027555
30
0.0
11
-0.015698
21
-0.027555
31
0.0
0
LINE
8
0
6
CONTINUOUS
10
-0.013866
20
-0.027555
30
0.0
11
-0.013154
21
-0.027555
31
0.0
0
LINE
8
0
6
CONTINUOUS
10
0.011058
20
-0.027555
30
0.0
11
0.012319
21
-0.027555
31
0.0
0
LINE
8
0
6
CONTINUOUS
10
-0.015399
20
-0.027555
30
0.0
11
-0.015049
21
-0.027555
31
0.0
0
LINE
8
0
6
CONTINUOUS
10
0.015175
20
-0.027469
30
0.0
11
0.015507
21
-0.027469
31
0.0
0
LINE
8
0
6
CONTINUOUS
10
-0.012409
20
-0.027469
30
0.0
11
-0.011145
21
-0.027469
31
0.0
0
LINE
8
0
6
CONTINUOUS
10
0.015991
20
-0.027269
30
0.0
11
0.015991
21
-0.027091
31
0.0
0
LINE
8
0
6
CONTINUOUS
10
0.011146
20
-0.027469
30
0.0
11
0.012409
21
-0.027469
31
0.0
0
LINE
8
0
6
CONTINUOUS
10
0.014797
20
-0.027555
30
0.0
11
0.015049
21
-0.027555
31
0.0
0
LINE
8
0
6
CONTINUOUS
10
0.003374
20
-0.027469
30
0.0
11
0.000000
21
-0.027469
31
0.0
0
LINE
8
0
6
CONTINUOUS
10
0.000000
20
-0.027555
30
0.0
11
0.003345
21
-0.027555
31
0.0
0
LINE
8
0
6
CONTINUOUS
10
-0.013266
20
-0.027469
30
0.0
11
-0.012409
21
-0.027469
31
0.0
0
LINE
8
0
6
CONTINUOUS
10
-0.013969
20
-0.027469
30
0.0
11
-0.013266
21
-0.027469
31
0.0
0
LINE
8
0
6
CONTINUOUS
10
-0.015404
20
0.007466
30
0.0
11
-0.015683
21
0.007466
31
0.0
0
LINE
8
0
6
CONTINUOUS
10
0.013155
20
-0.027555
30
0.0
11
0.013866
21
-0.027555
31
0.0
0
LINE
8
0
6
CONTINUOUS
10
0.012409
20
-0.027469
30
0.0
11
0.013266
21
-0.027469
31
0.0
0
LINE
8
0
6
CONTINUOUS
10
-0.016451
20
0.007081
30
0.0
11
-0.015991
21
-0.027091
31
0.0
0
LINE
8
0
6
CONTINUOUS
10
0.014913
20
-0.027469
30
0.0
11
0.014519
21
-0.027469
31
0.0
0
LINE
8
0
6
CONTINUOUS
10
0.014412
20
-0.027555
30
0.0
11
0.014797
21
-0.027555
31
0.0
0
LINE
8
0
6
CONTINUOUS
10
-0.015698
20
-0.027555
30
0.0
11
-0.015399
21
-0.027555
31
0.0
0
LINE
8
0
6
CONTINUOUS
10
-0.011145
20
-0.027469
30
0.0
11
-0.008258
21
-0.027469
31
0.0
0
LINE
8
0
6
CONTINUOUS
10
-0.014797
20
-0.027555
30
0.0
11
-0.014412
21
-0.027555
31
0.0
0
LINE
8
0
6
CONTINUOUS
10
-0.014519
20
-0.027469
30
0.0
11
-0.014913
21
-0.027469
31
0.0
0
LINE
8
0
6
CONTINUOUS
10
0.008259
20
-0.027469
30
0.0
11
0.011146
21
-0.027469
31
0.0
0
LINE
8
0
6
CONTINUOUS
10
-0.003345
20
-0.027555
30
0.0
11
0.000000
21
-0.027555
31
0.0
0
LINE
8
0
6
CONTINUOUS
10
-0.015049
20
-0.027555
30
0.0
11
-0.014797
21
-0.027555
31
0.0
0
LINE
8
0
6
CONTINUOUS
10
-0.014913
20
-0.027469
30
0.0
11
-0.015175
21
-0.027469
31
0.0
0
LINE
8
0
6
CONTINUOUS
10
-0.013969
20
-0.027469
30
0.0
11
-0.014519
21
-0.027469
31
0.0
0
LINE
8
0
6
CONTINUOUS
10
-0.014412
20
-0.027555
30
0.0
11
-0.013866
21
-0.027555
31
0.0
0
LINE
8
0
6
CONTINUOUS
10
-0.003374
20
-0.027469
30
0.0
11
0.000000
21
-0.027469
31
0.0
0
LINE
8
0
6
CONTINUOUS
10
0.013266
20
-0.027469
30
0.0
11
0.013969
21
-0.027469
31
0.0
0
LINE
8
0
6
CONTINUOUS
10
-0.015507
20
-0.027469
30
0.0
11
-0.015175
21
-0.027469
31
0.0
0
LINE
8
0
6
CONTINUOUS
10
0.014913
20
-0.027469
30
0.0
11
0.015175
21
-0.027469
31
0.0
0
LINE
8
0
6
CONTINUOUS
10
0.015929
20
-0.027469
30
0.0
11
0.015991
21
-0.027269
31
0.0
0
LINE
8
0
6
CONTINUOUS
10
0.015399
20
-0.027555
30
0.0
11
0.015699
21
-0.027555
31
0.0
0
LINE
8
0
6
CONTINUOUS
10
0.015929
20
-0.027469
30
0.0
11
0.015831
21
-0.027469
31
0.0
0
LINE
8
0
6
CONTINUOUS
10
0.015785
20
-0.027555
30
0.0
11
0.015929
21
-0.027469
31
0.0
0
LINE
8
0
6
CONTINUOUS
10
0.015699
20
-0.027555
30
0.0
11
0.015785
21
-0.027555
31
0.0
0
LINE
8
0
6
CONTINUOUS
10
-0.008217
20
-0.027555
30
0.0
11
-0.003345
21
-0.027555
31
0.0
0
LINE
8
0
6
CONTINUOUS
10
0.014519
20
-0.027469
30
0.0
11
0.013969
21
-0.027469
31
0.0
0
LINE
8
0
6
CONTINUOUS
10
0.013866
20
-0.027555
30
0.0
11
0.014412
21
-0.027555
31
0.0
0
LINE
8
0
6
CONTINUOUS
10
-0.015991
20
-0.027269
30
0.0
11
-0.015929
21
-0.027469
31
0.0
0
LINE
8
0
6
CONTINUOUS
10
-0.015929
20
-0.027469
30
0.0
11
-0.015831
21
-0.027469
31
0.0
0
LINE
8
0
6
CONTINUOUS
10
0.008542
20
0.007466
30
0.0
11
0.003484
21
0.007466
31
0.0
0
LINE
8
0
6
CONTINUOUS
10
-0.016036
20
0.007466
30
0.0
11
-0.016363
21
0.007466
31
0.0
0
LINE
8
0
6
CONTINUOUS
10
0.015991
20
-0.027091
30
0.0
11
0.016451
21
0.007081
31
0.0
0
LINE
8
0
6
CONTINUOUS
10
-0.014987
20
0.007466
30
0.0
11
-0.015404
21
0.007466
31
0.0
0
LINE
8
0
6
CONTINUOUS
10
-0.015991
20
-0.027091
30
0.0
11
-0.015991
21
-0.027269
31
0.0
0
LINE
8
0
6
CONTINUOUS
10
0.003484
20
0.007466
30
0.0
11
0.000000
21
0.007466
31
0.0
0
LINE
8
0
6
CONTINUOUS
10
0.014428
20
0.007466
30
0.0
11
0.013698
21
0.007466
31
0.0
0
LINE
8
0
6
CONTINUOUS
10
0.013698
20
0.007466
30
0.0
11
0.012820
21
0.007466
31
0.0
0
LINE
8
0
6
CONTINUOUS
10
0.011505
20
0.007466
30
0.0
11
0.008542
21
0.007466
31
0.0
0
LINE
8
0
6
CONTINUOUS
10
0.012820
20
0.007466
30
0.0
11
0.011505
21
0.007466
31
0.0
0
LINE
8
0
6
CONTINUOUS
10
-0.015683
20
0.007466
30
0.0
11
-0.016036
21
0.007466
31
0.0
0
LINE
8
0
6
CONTINUOUS
10
-0.014428
20
0.007466
30
0.0
11
-0.014987
21
0.007466
31
0.0
0
LINE
8
0
6
CONTINUOUS
10
0.016363
20
0.007466
30
0.0
11
0.016036
21
0.007466
31
0.0
0
LINE
8
0
6
CONTINUOUS
10
-0.016456
20
0.007466
30
0.0
11
-0.016451
21
0.007081
31
0.0
0
LINE
8
0
6
CONTINUOUS
10
-0.016363
20
0.007466
30
0.0
11
-0.016456
21
0.007466
31
0.0
0
LINE
8
0
6
CONTINUOUS
10
-0.008542
20
0.007466
30
0.0
11
-0.011505
21
0.007466
31
0.0
0
LINE
8
0
6
CONTINUOUS
10
-0.003484
20
0.007466
30
0.0
11
-0.008542
21
0.007466
31
0.0
0
LINE
8
0
6
CONTINUOUS
10
0.016036
20
0.007466
30
0.0
11
0.015682
21
0.007466
31
0.0
0
LINE
8
0
6
CONTINUOUS
10
-0.011505
20
0.007466
30
0.0
11
-0.012820
21
0.007466
31
0.0
0
LINE
8
0
6
CONTINUOUS
10
0.016451
20
0.007081
30
0.0
11
0.016456
21
0.007466
31
0.0
0
LINE
8
0
6
CONTINUOUS
10
0.016456
20
0.007466
30
0.0
11
0.016363
21
0.007466
31
0.0
0
LINE
8
0
6
CONTINUOUS
10
0.000000
20
0.007466
30
0.0
11
-0.003484
21
0.007466
31
0.0
0
LINE
8
0
6
CONTINUOUS
10
0.015404
20
0.007466
30
0.0
11
0.014988
21
0.007466
31
0.0
0
LINE
8
0
6
CONTINUOUS
10
-0.012820
20
0.007466
30
0.0
11
-0.013698
21
0.007466
31
0.0
0
LINE
8
0
6
CONTINUOUS
10
-0.013698
20
0.007466
30
0.0
11
-0.014428
21
0.007466
31
0.0
0
LINE
8
0
6
CONTINUOUS
10
0.014988
20
0.007466
30
0.0
11
0.014428
21
0.007466
31
0.0
0
LINE
8
0
6
CONTINUOUS
10
0.015682
20
0.007466
30
0.0
11
0.015404
21
0.007466
31
0.0
0
LINE
8
0
6
CONTINUOUS
10
-0.011805
20
0.007888
30
0.0
11
-0.011805
21
0.007169
31
0.0
0
LINE
8
0
6
CONTINUOUS
10
0.011805
20
0.007169
30
0.0
11
0.011805
21
0.007888
31
0.0
0
LINE
8
0
6
CONTINUOUS
10
0.014584
20
0.008508
30
0.0
11
0.014584
21
0.013555
31
0.0
0
LINE
8
0
6
CONTINUOUS
10
-0.014584
20
0.013555
30
0.0
11
-0.014584
21
0.008508
31
0.0
0
LINE
8
0
6
CONTINUOUS
10
-0.011805
20
0.008239
30
0.0
11
-0.011805
21
0.007888
31
0.0
0
LINE
8
0
6
CONTINUOUS
10
0.011805
20
0.007888
30
0.0
11
0.011805
21
0.008239
31
0.0
0
LINE
8
0
6
CONTINUOUS
10
0.016213
20
0.013555
30
0.0
11
0.028654
21
0.013555
31
0.0
0
LINE
8
0
6
CONTINUOUS
10
0.028654
20
0.013555
30
0.0
11
0.039822
21
0.013555
31
0.0
0
LINE
8
0
6
CONTINUOUS
10
0.039822
20
0.013555
30
0.0
11
0.047467
21
0.013555
31
0.0
0
LINE
8
0
6
CONTINUOUS
10
0.055563
20
0.013555
30
0.0
11
0.059452
21
0.013555
31
0.0
0
LINE
8
0
6
CONTINUOUS
10
0.074407
20
0.013555
30
0.0
11
0.075279
21
0.013555
31
0.0
0
LINE
8
0
6
CONTINUOUS
10
0.066330
20
0.013555
30
0.0
11
0.068941
21
0.013555
31
0.0
0
LINE
8
0
6
CONTINUOUS
10
0.074923
20
0.013855
30
0.0
11
0.075806
21
0.013855
31
0.0
0
LINE
8
0
6
CONTINUOUS
10
0.059452
20
0.013555
30
0.0
11
0.063070
21
0.013555
31
0.0
0
LINE
8
0
6
CONTINUOUS
10
0.076500
20
0.013555
30
0.0
11
0.077200
21
0.013855
31
0.0
0
LINE
8
0
6
CONTINUOUS
10
0.076291
20
0.013555
30
0.0
11
0.076500
21
0.013555
31
0.0
0
LINE
8
0
6
CONTINUOUS
10
0.008106
20
0.013555
30
0.0
11
0.016213
21
0.013555
31
0.0
0
LINE
8
0
6
CONTINUOUS
10
0.016353
20
0.013855
30
0.0
11
0.028962
21
0.013855
31
0.0
0
LINE
8
0
6
CONTINUOUS
10
0.028962
20
0.013855
30
0.0
11
0.040025
21
0.013855
31
0.0
0
LINE
8
0
6
CONTINUOUS
10
0.055946
20
0.013855
30
0.0
11
0.059870
21
0.013855
31
0.0
0
LINE
8
0
6
CONTINUOUS
10
0.077200
20
0.013855
30
0.0
11
0.077500
21
0.014555
31
0.0
0
LINE
8
0
6
CONTINUOUS
10
0.076935
20
0.013855
30
0.0
11
0.077200
21
0.013855
31
0.0
0
LINE
8
0
6
CONTINUOUS
10
0.051888
20
0.013855
30
0.0
11
0.047743
21
0.013855
31
0.0
0
LINE
8
0
6
CONTINUOUS
10
0.047467
20
0.013555
30
0.0
11
0.051544
21
0.013555
31
0.0
0
LINE
8
0
6
CONTINUOUS
10
0.055946
20
0.013855
30
0.0
11
0.051888
21
0.013855
31
0.0
0
LINE
8
0
6
CONTINUOUS
10
0.051544
20
0.013555
30
0.0
11
0.055563
21
0.013555
31
0.0
0
LINE
8
0
6
CONTINUOUS
10
0.066776
20
0.013855
30
0.0
11
0.063551
21
0.013855
31
0.0
0
LINE
8
0
6
CONTINUOUS
10
0.063070
20
0.013555
30
0.0
11
0.066330
21
0.013555
31
0.0
0
LINE
8
0
6
CONTINUOUS
10
0.075949
20
0.013555
30
0.0
11
0.076291
21
0.013555
31
0.0
0
LINE
8
0
6
CONTINUOUS
10
0.075279
20
0.013555
30
0.0
11
0.075949
21
0.013555
31
0.0
0
LINE
8
0
6
CONTINUOUS
10
0.076565
20
0.013855
30
0.0
11
0.075806
21
0.013855
31
0.0
0
LINE
8
0
6
CONTINUOUS
10
0.073518
20
0.013555
30
0.0
11
0.074407
21
0.013555
31
0.0
0
LINE
8
0
6
CONTINUOUS
10
0.074923
20
0.013855
30
0.0
11
0.074143
21
0.013855
31
0.0
0
LINE
8
0
6
CONTINUOUS
10
0.072434
20
0.013555
30
0.0
11
0.073518
21
0.013555
31
0.0
0
LINE
8
0
6
CONTINUOUS
10
0.074143
20
0.013855
30
0.0
11
0.073009
21
0.013855
31
0.0
0
LINE
8
0
6
CONTINUOUS
10
0.070952
20
0.013555
30
0.0
11
0.072434
21
0.013555
31
0.0
0
LINE
8
0
6
CONTINUOUS
10
0.077500
20
0.014931
30
0.0
11
0.077500
21
0.027178
31
0.0
0
LINE
8
0
6
CONTINUOUS
10
0.076565
20
0.013855
30
0.0
11
0.076935
21
0.013855
31
0.0
0
LINE
8
0
6
CONTINUOUS
10
0.071521
20
0.013855
30
0.0
11
0.073009
21
0.013855
31
0.0
0
LINE
8
0
6
CONTINUOUS
10
0.068941
20
0.013555
30
0.0
11
0.070952
21
0.013555
31
0.0
0
LINE
8
0
6
CONTINUOUS
10
0.071521
20
0.013855
30
0.0
11
0.069428
21
0.013855
31
0.0
0
LINE
8
0
6
CONTINUOUS
10
0.066776
20
0.013855
30
0.0
11
0.069428
21
0.013855
31
0.0
0
LINE
8
0
6
CONTINUOUS
10
0.059870
20
0.013855
30
0.0
11
0.063551
21
0.013855
31
0.0
0
LINE
8
0
6
CONTINUOUS
10
0.008204
20
0.027555
30
0.0
11
0.000000
21
0.027555
31
0.0
0
LINE
8
0
6
CONTINUOUS
10
0.069697
20
0.027555
30
0.0
11
0.067038
21
0.027555
31
0.0
0
LINE
8
0
6
CONTINUOUS
10
0.060091
20
0.027555
30
0.0
11
0.056144
21
0.027555
31
0.0
0
LINE
8
0
6
CONTINUOUS
10
0.029102
20
0.027555
30
0.0
11
0.016409
21
0.027555
31
0.0
0
LINE
8
0
6
CONTINUOUS
10
0.076171
20
0.027555
30
0.0
11
0.075247
21
0.027555
31
0.0
0
LINE
8
0
6
CONTINUOUS
10
0.075247
20
0.027555
30
0.0
11
0.074454
21
0.027555
31
0.0
0
LINE
8
0
6
CONTINUOUS
10
0.052068
20
0.027555
30
0.0
11
0.047903
21
0.027555
31
0.0
0
LINE
8
0
6
CONTINUOUS
10
0.077500
20
0.014555
30
0.0
11
0.077500
21
0.014931
31
0.0
0
LINE
8
0
6
CONTINUOUS
10
0.047903
20
0.027555
30
0.0
11
0.040227
21
0.027555
31
0.0
0
LINE
8
0
6
CONTINUOUS
10
0.067038
20
0.027555
30
0.0
11
0.063759
21
0.027555
31
0.0
0
LINE
8
0
6
CONTINUOUS
10
0.063759
20
0.027555
30
0.0
11
0.060091
21
0.027555
31
0.0
0
LINE
8
0
6
CONTINUOUS
10
0.040227
20
0.027555
30
0.0
11
0.029102
21
0.027555
31
0.0
0
LINE
8
0
6
CONTINUOUS
10
0.073306
20
0.027555
30
0.0
11
0.071798
21
0.027555
31
0.0
0
LINE
8
0
6
CONTINUOUS
10
0.077500
20
0.027555
30
0.0
11
0.077270
21
0.027555
31
0.0
0
LINE
8
0
6
CONTINUOUS
10
0.077500
20
0.027178
30
0.0
11
0.077500
21
0.027555
31
0.0
0
LINE
8
0
6
CONTINUOUS
10
0.077270
20
0.027555
30
0.0
11
0.076873
21
0.027555
31
0.0
0
LINE
8
0
6
CONTINUOUS
10
0.071798
20
0.027555
30
0.0
11
0.069697
21
0.027555
31
0.0
0
LINE
8
0
6
CONTINUOUS
10
0.074454
20
0.027555
30
0.0
11
0.073306
21
0.027555
31
0.0
0
LINE
8
0
6
CONTINUOUS
10
0.076873
20
0.027555
30
0.0
11
0.076171
21
0.027555
31
0.0
0
LINE
8
0
6
CONTINUOUS
10
0.056144
20
0.027555
30
0.0
11
0.052068
21
0.027555
31
0.0
0
LINE
8
0
6
CONTINUOUS
10
-0.028654
20
0.013555
30
0.0
11
-0.016213
21
0.013555
31
0.0
0
LINE
8
0
6
CONTINUOUS
10
-0.039822
20
0.013555
30
0.0
11
-0.028654
21
0.013555
31
0.0
0
LINE
8
0
6
CONTINUOUS
10
-0.047467
20
0.013555
30
0.0
11
-0.039822
21
0.013555
31
0.0
0
LINE
8
0
6
CONTINUOUS
10
-0.059452
20
0.013555
30
0.0
11
-0.055563
21
0.013555
31
0.0
0
LINE
8
0
6
CONTINUOUS
10
-0.075279
20
0.013555
30
0.0
11
-0.074407
21
0.013555
31
0.0
0
LINE
8
0
6
CONTINUOUS
10
-0.068941
20
0.013555
30
0.0
11
-0.066330
21
0.013555
31
0.0
0
LINE
8
0
6
CONTINUOUS
10
-0.075806
20
0.013855
30
0.0
11
-0.074923
21
0.013855
31
0.0
0
LINE
8
0
6
CONTINUOUS
10
-0.063070
20
0.013555
30
0.0
11
-0.059452
21
0.013555
31
0.0
0
LINE
8
0
6
CONTINUOUS
10
-0.076500
20
0.013555
30
0.0
11
-0.076291
21
0.013555
31
0.0
0
LINE
8
0
6
CONTINUOUS
10
-0.077200
20
0.013855
30
0.0
11
-0.076500
21
0.013555
31
0.0
0
LINE
8
0
6
CONTINUOUS
10
-0.016213
20
0.013555
30
0.0
11
-0.008106
21
0.013555
31
0.0
0
LINE
8
0
6
CONTINUOUS
10
-0.028962
20
0.013855
30
0.0
11
-0.016353
21
0.013855
31
0.0
0
LINE
8
0
6
CONTINUOUS
10
-0.040025
20
0.013855
30
0.0
11
-0.028962
21
0.013855
31
0.0
0
LINE
8
0
6
CONTINUOUS
10
-0.059870
20
0.013855
30
0.0
11
-0.055946
21
0.013855
31
0.0
0
LINE
8
0
6
CONTINUOUS
10
-0.077200
20
0.013855
30
0.0
11
-0.076935
21
0.013855
31
0.0
0
LINE
8
0
6
CONTINUOUS
10
-0.077500
20
0.014555
30
0.0
11
-0.077200
21
0.013855
31
0.0
0
LINE
8
0
6
CONTINUOUS
10
-0.051544
20
0.013555
30
0.0
11
-0.047467
21
0.013555
31
0.0
0
LINE
8
0
6
CONTINUOUS
10
-0.047743
20
0.013855
30
0.0
11
-0.051888
21
0.013855
31
0.0
0
LINE
8
0
6
CONTINUOUS
10
-0.055563
20
0.013555
30
0.0
11
-0.051544
21
0.013555
31
0.0
0
LINE
8
0
6
CONTINUOUS
10
-0.051888
20
0.013855
30
0.0
11
-0.055946
21
0.013855
31
0.0
0
LINE
8
0
6
CONTINUOUS
10
-0.066330
20
0.013555
30
0.0
11
-0.063070
21
0.013555
31
0.0
0
LINE
8
0
6
CONTINUOUS
10
-0.063551
20
0.013855
30
0.0
11
-0.066776
21
0.013855
31
0.0
0
LINE
8
0
6
CONTINUOUS
10
-0.076291
20
0.013555
30
0.0
11
-0.075949
21
0.013555
31
0.0
0
LINE
8
0
6
CONTINUOUS
10
-0.075806
20
0.013855
30
0.0
11
-0.076565
21
0.013855
31
0.0
0
LINE
8
0
6
CONTINUOUS
10
-0.075949
20
0.013555
30
0.0
11
-0.075279
21
0.013555
31
0.0
0
LINE
8
0
6
CONTINUOUS
10
-0.074143
20
0.013855
30
0.0
11
-0.074923
21
0.013855
31
0.0
0
LINE
8
0
6
CONTINUOUS
10
-0.074407
20
0.013555
30
0.0
11
-0.073518
21
0.013555
31
0.0
0
LINE
8
0
6
CONTINUOUS
10
-0.073009
20
0.013855
30
0.0
11
-0.074143
21
0.013855
31
0.0
0
LINE
8
0
6
CONTINUOUS
10
-0.073518
20
0.013555
30
0.0
11
-0.072434
21
0.013555
31
0.0
0
LINE
8
0
6
CONTINUOUS
10
-0.072434
20
0.013555
30
0.0
11
-0.070952
21
0.013555
31
0.0
0
LINE
8
0
6
CONTINUOUS
10
-0.077500
20
0.027178
30
0.0
11
-0.077500
21
0.014931
31
0.0
0
LINE
8
0
6
CONTINUOUS
10
-0.076935
20
0.013855
30
0.0
11
-0.076565
21
0.013855
31
0.0
0
LINE
8
0
6
CONTINUOUS
10
-0.073009
20
0.013855
30
0.0
11
-0.071521
21
0.013855
31
0.0
0
LINE
8
0
6
CONTINUOUS
10
-0.069428
20
0.013855
30
0.0
11
-0.071521
21
0.013855
31
0.0
0
LINE
8
0
6
CONTINUOUS
10
-0.070952
20
0.013555
30
0.0
11
-0.068941
21
0.013555
31
0.0
0
LINE
8
0
6
CONTINUOUS
10
-0.069428
20
0.013855
30
0.0
11
-0.066776
21
0.013855
31
0.0
0
LINE
8
0
6
CONTINUOUS
10
-0.063551
20
0.013855
30
0.0
11
-0.059870
21
0.013855
31
0.0
0
LINE
8
0
6
CONTINUOUS
10
0.000000
20
0.027555
30
0.0
11
-0.008204
21
0.027555
31
0.0
0
LINE
8
0
6
CONTINUOUS
10
-0.067038
20
0.027555
30
0.0
11
-0.069697
21
0.027555
31
0.0
0
LINE
8
0
6
CONTINUOUS
10
-0.056144
20
0.027555
30
0.0
11
-0.060091
21
0.027555
31
0.0
0
LINE
8
0
6
CONTINUOUS
10
-0.016409
20
0.027555
30
0.0
11
-0.029102
21
0.027555
31
0.0
0
LINE
8
0
6
CONTINUOUS
10
-0.075247
20
0.027555
30
0.0
11
-0.076171
21
0.027555
31
0.0
0
LINE
8
0
6
CONTINUOUS
10
-0.074454
20
0.027555
30
0.0
11
-0.075247
21
0.027555
31
0.0
0
LINE
8
0
6
CONTINUOUS
10
-0.047903
20
0.027555
30
0.0
11
-0.052068
21
0.027555
31
0.0
0
LINE
8
0
6
CONTINUOUS
10
-0.077500
20
0.014931
30
0.0
11
-0.077500
21
0.014555
31
0.0
0
LINE
8
0
6
CONTINUOUS
10
-0.040227
20
0.027555
30
0.0
11
-0.047903
21
0.027555
31
0.0
0
LINE
8
0
6
CONTINUOUS
10
-0.063759
20
0.027555
30
0.0
11
-0.067038
21
0.027555
31
0.0
0
LINE
8
0
6
CONTINUOUS
10
-0.060091
20
0.027555
30
0.0
11
-0.063759
21
0.027555
31
0.0
0
LINE
8
0
6
CONTINUOUS
10
-0.029102
20
0.027555
30
0.0
11
-0.040227
21
0.027555
31
0.0
0
LINE
8
0
6
CONTINUOUS
10
-0.071798
20
0.027555
30
0.0
11
-0.073306
21
0.027555
31
0.0
0
LINE
8
0
6
CONTINUOUS
10
-0.077500
20
0.027555
30
0.0
11
-0.077500
21
0.027178
31
0.0
0
LINE
8
0
6
CONTINUOUS
10
-0.077270
20
0.027555
30
0.0
11
-0.077500
21
0.027555
31
0.0
0
LINE
8
0
6
CONTINUOUS
10
-0.076873
20
0.027555
30
0.0
11
-0.077270
21
0.027555
31
0.0
0
LINE
8
0
6
CONTINUOUS
10
-0.069697
20
0.027555
30
0.0
11
-0.071798
21
0.027555
31
0.0
0
LINE
8
0
6
CONTINUOUS
10
-0.073306
20
0.027555
30
0.0
11
-0.074454
21
0.027555
31
0.0
0
LINE
8
0
6
CONTINUOUS
10
-0.076171
20
0.027555
30
0.0
11
-0.076873
21
0.027555
31
0.0
0
LINE
8
0
6
CONTINUOUS
10
-0.052068
20
0.027555
30
0.0
11
-0.056144
21
0.027555
31
0.0
0
LINE
8
0
6
CONTINUOUS
10
-0.016353
20
0.013855
30
0.0
11
-0.008176
21
0.013855
31
0.0
0
LINE
8
0
6
CONTINUOUS
10
-0.008106
20
0.013555
30
0.0
11
0.000000
21
0.013555
31
0.0
0
LINE
8
0
6
CONTINUOUS
10
0.000000
20
0.013855
30
0.0
11
-0.008176
21
0.013855
31
0.0
0
LINE
8
0
6
CONTINUOUS
10
-0.008204
20
0.027555
30
0.0
11
-0.016409
21
0.027555
31
0.0
0
LINE
8
0
6
CONTINUOUS
10
0.008176
20
0.013855
30
0.0
11
0.016353
21
0.013855
31
0.0
0
LINE
8
0
6
CONTINUOUS
10
0.008176
20
0.013855
30
0.0
11
0.000000
21
0.013855
31
0.0
0
LINE
8
0
6
CONTINUOUS
10
0.000000
20
0.013555
30
0.0
11
0.008106
21
0.013555
31
0.0
0
LINE
8
0
6
CONTINUOUS
10
0.016409
20
0.027555
30
0.0
11
0.008204
21
0.027555
31
0.0
0
ENDSEC
0
EOF
