  0
SECTION
  2
HEADER
  9
$ACADVER
  1
AC1015
  9
$ACADMAINTVER
 70
     6
  9
$DWGCODEPAGE
  3
ANSI_1252
  9
$INSBASE
 10
0.0
 20
0.0
 30
0.0
  9
$EXTMIN
 10
-0.024376
 20
0.107
 30
0.0
  9
$EXTMAX
 10
193.823
 20
957.893
 30
0.0
  9
$LIMMIN
 10
0.0
 20
0.0
  9
$LIMMAX
 10
12.0
 20
9.0
  9
$ORTHOMODE
 70
     0
  9
$REGENMODE
 70
     1
  9
$FILLMODE
 70
     1
  9
$QTEXTMODE
 70
     0
  9
$MIRRTEXT
 70
     1
  9
$LTSCALE
 40
1.0
  9
$ATTMODE
 70
     1
  9
$TEXTSIZE
 40
0.2
  9
$TRACEWID
 40
0.05
  9
$TEXTSTYLE
  7
Standard
  9
$CLAYER
  8
0
  9
$CELTYPE
  6
ByBlock
  9
$CECOLOR
 62
   256
  9
$CELTSCALE
 40
1.0
  9
$DISPSILH
 70
     0
  9
$DIMSCALE
 40
1.0
  9
$DIMASZ
 40
0.18
  9
$DIMEXO
 40
0.0625
  9
$DIMDLI
 40
0.38
  9
$DIMRND
 40
0.0
  9
$DIMDLE
 40
0.0
  9
$DIMEXE
 40
0.18
  9
$DIMTP
 40
0.0
  9
$DIMTM
 40
0.0
  9
$DIMTXT
 40
0.18
  9
$DIMCEN
 40
0.09
  9
$DIMTSZ
 40
0.0
  9
$DIMTOL
 70
     0
  9
$DIMLIM
 70
     0
  9
$DIMTIH
 70
     1
  9
$DIMTOH
 70
     1
  9
$DIMSE1
 70
     0
  9
$DIMSE2
 70
     0
  9
$DIMTAD
 70
     0
  9
$DIMZIN
 70
     0
  9
$DIMBLK
  1

  9
$DIMASO
 70
     1
  9
$DIMSHO
 70
     1
  9
$DIMPOST
  1

  9
$DIMAPOST
  1

  9
$DIMALT
 70
     0
  9
$DIMALTD
 70
     2
  9
$DIMALTF
 40
25.4
  9
$DIMLFAC
 40
1.0
  9
$DIMTOFL
 70
     0
  9
$DIMTVP
 40
0.0
  9
$DIMTIX
 70
     0
  9
$DIMSOXD
 70
     0
  9
$DIMSAH
 70
     0
  9
$DIMBLK1
  1

  9
$DIMBLK2
  1

  9
$DIMSTYLE
  2
Standard
  9
$DIMCLRD
 70
     0
  9
$DIMCLRE
 70
     0
  9
$DIMCLRT
 70
     0
  9
$DIMTFAC
 40
1.0
  9
$DIMGAP
 40
0.09
  9
$DIMJUST
 70
     0
  9
$DIMSD1
 70
     0
  9
$DIMSD2
 70
     0
  9
$DIMTOLJ
 70
     1
  9
$DIMTZIN
 70
     0
  9
$DIMALTZ
 70
     0
  9
$DIMALTTZ
 70
     0
  9
$DIMUPT
 70
     0
  9
$DIMDEC
 70
     4
  9
$DIMTDEC
 70
     4
  9
$DIMALTU
 70
     2
  9
$DIMALTTD
 70
     2
  9
$DIMTXSTY
  7
Standard
  9
$DIMAUNIT
 70
     0
  9
$DIMADEC
 70
     0
  9
$DIMALTRND
 40
0.0
  9
$DIMAZIN
 70
     0
  9
$DIMDSEP
 70
    46
  9
$DIMATFIT
 70
     3
  9
$DIMFRAC
 70
     0
  9
$DIMLDRBLK
  1

  9
$DIMLUNIT
 70
     2
  9
$DIMLWD
 70
    -2
  9
$DIMLWE
 70
    -2
  9
$DIMTMOVE
 70
     2
  9
$LUNITS
 70
     2
  9
$LUPREC
 70
     4
  9
$SKETCHINC
 40
0.1
  9
$FILLETRAD
 40
0.5
  9
$AUNITS
 70
     0
  9
$AUPREC
 70
     0
  9
$MENU
  1
.
  9
$ELEVATION
 40
0.0
  9
$PELEVATION
 40
0.0
  9
$THICKNESS
 40
0.0
  9
$LIMCHECK
 70
     0
  9
$CHAMFERA
 40
0.5
  9
$CHAMFERB
 40
0.5
  9
$CHAMFERC
 40
1.0
  9
$CHAMFERD
 40
0.0
  9
$SKPOLY
 70
     0
  9
$TDCREATE
 40
2456466.631949687
  9
$TDUCREATE
 40
2456466.548616354
  9
$TDUPDATE
 40
2456466.632980683
  9
$TDUUPDATE
 40
2456466.549647349
  9
$TDINDWG
 40
0.0010306481
  9
$TDUSRTIMER
 40
0.0010306481
  9
$USRTIMER
 70
     1
  9
$ANGBASE
 50
0.0
  9
$ANGDIR
 70
     0
  9
$PDMODE
 70
     0
  9
$PDSIZE
 40
0.0
  9
$PLINEWID
 40
0.0
  9
$SPLFRAME
 70
     0
  9
$SPLINETYPE
 70
     6
  9
$SPLINESEGS
 70
     8
  9
$HANDSEED
  5
10D4
  9
$SURFTAB1
 70
     6
  9
$SURFTAB2
 70
     6
  9
$SURFTYPE
 70
     6
  9
$SURFU
 70
     6
  9
$SURFV
 70
     6
  9
$UCSBASE
  2

  9
$UCSNAME
  2

  9
$UCSORG
 10
0.0
 20
0.0
 30
0.0
  9
$UCSXDIR
 10
1.0
 20
0.0
 30
0.0
  9
$UCSYDIR
 10
0.0
 20
1.0
 30
0.0
  9
$UCSORTHOREF
  2

  9
$UCSORTHOVIEW
 70
     0
  9
$UCSORGTOP
 10
0.0
 20
0.0
 30
0.0
  9
$UCSORGBOTTOM
 10
0.0
 20
0.0
 30
0.0
  9
$UCSORGLEFT
 10
0.0
 20
0.0
 30
0.0
  9
$UCSORGRIGHT
 10
0.0
 20
0.0
 30
0.0
  9
$UCSORGFRONT
 10
0.0
 20
0.0
 30
0.0
  9
$UCSORGBACK
 10
0.0
 20
0.0
 30
0.0
  9
$PUCSBASE
  2

  9
$PUCSNAME
  2

  9
$PUCSORG
 10
0.0
 20
0.0
 30
0.0
  9
$PUCSXDIR
 10
1.0
 20
0.0
 30
0.0
  9
$PUCSYDIR
 10
0.0
 20
1.0
 30
0.0
  9
$PUCSORTHOREF
  2

  9
$PUCSORTHOVIEW
 70
     0
  9
$PUCSORGTOP
 10
0.0
 20
0.0
 30
0.0
  9
$PUCSORGBOTTOM
 10
0.0
 20
0.0
 30
0.0
  9
$PUCSORGLEFT
 10
0.0
 20
0.0
 30
0.0
  9
$PUCSORGRIGHT
 10
0.0
 20
0.0
 30
0.0
  9
$PUCSORGFRONT
 10
0.0
 20
0.0
 30
0.0
  9
$PUCSORGBACK
 10
0.0
 20
0.0
 30
0.0
  9
$USERI1
 70
     0
  9
$USERI2
 70
     0
  9
$USERI3
 70
     0
  9
$USERI4
 70
     0
  9
$USERI5
 70
     0
  9
$USERR1
 40
0.0
  9
$USERR2
 40
0.0
  9
$USERR3
 40
0.0
  9
$USERR4
 40
0.0
  9
$USERR5
 40
0.0
  9
$WORLDVIEW
 70
     1
  9
$SHADEDGE
 70
     3
  9
$SHADEDIF
 70
    70
  9
$TILEMODE
 70
     1
  9
$MAXACTVP
 70
    64
  9
$PINSBASE
 10
0.0
 20
0.0
 30
0.0
  9
$PLIMCHECK
 70
     0
  9
$PEXTMIN
 10
1.000000000000E+20
 20
1.000000000000E+20
 30
1.000000000000E+20
  9
$PEXTMAX
 10
-1.000000000000E+20
 20
-1.000000000000E+20
 30
-1.000000000000E+20
  9
$PLIMMIN
 10
0.0
 20
0.0
  9
$PLIMMAX
 10
12.0
 20
9.0
  9
$UNITMODE
 70
     0
  9
$VISRETAIN
 70
     1
  9
$PLINEGEN
 70
     0
  9
$PSLTSCALE
 70
     1
  9
$TREEDEPTH
 70
  3020
  9
$CMLSTYLE
  2
Standard
  9
$CMLJUST
 70
     0
  9
$CMLSCALE
 40
1.0
  9
$PROXYGRAPHICS
 70
     1
  9
$MEASUREMENT
 70
     0
  9
$CELWEIGHT
370
    -1
  9
$ENDCAPS
280
     0
  9
$JOINSTYLE
280
     0
  9
$LWDISPLAY
290
     0
  9
$INSUNITS
 70
     0
  9
$HYPERLINKBASE
  1

  9
$STYLESHEET
  1

  9
$XEDIT
290
     1
  9
$CEPSNTYPE
380
     0
  9
$PSTYLEMODE
290
     1
  9
$FINGERPRINTGUID
  2
{839AAB38-6E31-467C-8D7C-2353469D1FF6}
  9
$VERSIONGUID
  2
{FAEB1C32-E019-11D5-929B-00C0DF256EC4}
  9
$EXTNAMES
290
     1
  9
$PSVPSCALE
 40
0.0
  9
$OLESTARTUP
290
     0
  0
ENDSEC
  0
SECTION
  2
CLASSES
  0
CLASS
  1
ACDBDICTIONARYWDFLT
  2
AcDbDictionaryWithDefault
  3
ObjectDBX Classes
 90
        0
280
     0
281
     0
  0
CLASS
  1
SCALE
  2
AcDbScale
  3
ObjectDBX Classes
 90
     1153
280
     0
281
     0
  0
CLASS
  1
DICTIONARYVAR
  2
AcDbDictionaryVar
  3
ObjectDBX Classes
 90
        0
280
     0
281
     0
  0
CLASS
  1
ACDBPLACEHOLDER
  2
AcDbPlaceHolder
  3
ObjectDBX Classes
 90
        0
280
     0
281
     0
  0
CLASS
  1
LAYOUT
  2
AcDbLayout
  3
ObjectDBX Classes
 90
        0
280
     0
281
     0
  0
ENDSEC
  0
SECTION
  2
TABLES
  0
TABLE
  2
VPORT
  5
8
330
0
100
AcDbSymbolTable
 70
     1
  0
VPORT
  5
918
330
8
100
AcDbSymbolTableRecord
100
AcDbViewportTableRecord
  2
*Active
 70
     0
 10
0.0
 20
0.0
 11
1.0
 21
1.0
 12
96.899312
 22
478.9465
 13
0.0
 23
0.0
 14
0.5
 24
0.5
 15
0.5
 25
0.5
 16
0.0
 26
0.0
 36
1.0
 17
0.0
 27
0.0
 37
0.0
 40
977.05086
 41
1.863448275862
 42
50.0
 43
0.0
 44
0.0
 50
0.0
 51
0.0
 71
    16
 72
   100
 73
     1
 74
     3
 75
     0
 76
     0
 77
     0
 78
     0
281
     0
 65
     1
110
0.0
120
0.0
130
0.0
111
1.0
121
0.0
131
0.0
112
0.0
122
1.0
132
0.0
 79
     0
146
0.0
  0
ENDTAB
  0
TABLE
  2
LTYPE
  5
5
330
0
100
AcDbSymbolTable
 70
     1
  0
LTYPE
  5
14
330
5
100
AcDbSymbolTableRecord
100
AcDbLinetypeTableRecord
  2
ByBlock
 70
     0
  3

 72
    65
 73
     0
 40
0.0
  0
LTYPE
  5
15
330
5
100
AcDbSymbolTableRecord
100
AcDbLinetypeTableRecord
  2
ByLayer
 70
     0
  3

 72
    65
 73
     0
 40
0.0
  0
LTYPE
  5
16
330
5
100
AcDbSymbolTableRecord
100
AcDbLinetypeTableRecord
  2
Continuous
 70
     0
  3
Solid line
 72
    65
 73
     0
 40
0.0
  0
ENDTAB
  0
TABLE
  2
LAYER
  5
2
330
0
100
AcDbSymbolTable
 70
     1
  0
LAYER
  5
10
330
2
100
AcDbSymbolTableRecord
100
AcDbLayerTableRecord
  2
0
 70
     0
 62
     7
  6
Continuous
370
    -3
390
F
  0
ENDTAB
  0
TABLE
  2
STYLE
  5
3
330
0
100
AcDbSymbolTable
 70
     1
  0
STYLE
  5
11
330
3
100
AcDbSymbolTableRecord
100
AcDbTextStyleTableRecord
  2
Standard
 70
     0
 40
0.0
 41
1.0
 50
0.0
 71
     0
 42
0.2
  3
txt
  4

  0
ENDTAB
  0
TABLE
  2
VIEW
  5
6
330
0
100
AcDbSymbolTable
 70
     0
  0
ENDTAB
  0
TABLE
  2
UCS
  5
7
330
0
100
AcDbSymbolTable
 70
     0
  0
ENDTAB
  0
TABLE
  2
APPID
  5
9
330
0
100
AcDbSymbolTable
 70
     1
  0
APPID
  5
12
330
9
100
AcDbSymbolTableRecord
100
AcDbRegAppTableRecord
  2
ACAD
 70
     0
  0
ENDTAB
  0
TABLE
  2
DIMSTYLE
  5
A
330
0
100
AcDbSymbolTable
 70
     1
100
AcDbDimStyleTable
  0
DIMSTYLE
105
20
330
A
100
AcDbSymbolTableRecord
100
AcDbDimStyleTableRecord
  2
Standard
 70
     0
340
11
  0
ENDTAB
  0
TABLE
  2
BLOCK_RECORD
  5
1
330
0
100
AcDbSymbolTable
 70
     1
  0
BLOCK_RECORD
  5
1D
330
1
100
AcDbSymbolTableRecord
100
AcDbBlockTableRecord
  2
*Model_Space
340
1E
  0
BLOCK_RECORD
  5
1B
330
1
100
AcDbSymbolTableRecord
100
AcDbBlockTableRecord
  2
*Paper_Space
340
1C
  0
ENDTAB
  0
ENDSEC
  0
SECTION
  2
BLOCKS
  0
BLOCK
  5
91B
330
1D
100
AcDbEntity
  8
0
100
AcDbBlockBegin
  2
*Model_Space
 70
     0
 10
0.0
 20
0.0
 30
0.0
  3
*Model_Space
  1
*Model_Space
  0
ENDBLK
  5
91C
330
1D
100
AcDbEntity
  8
0
100
AcDbBlockEnd
  0
BLOCK
  5
919
330
1B
100
AcDbEntity
 67
     1
  8
0
100
AcDbBlockBegin
  2
*Paper_Space
 70
     0
 10
0.0
 20
0.0
 30
0.0
  3
*Paper_Space
  1
*Paper_Space
  0
ENDBLK
  5
91A
330
1B
100
AcDbEntity
 67
     1
  8
0
100
AcDbBlockEnd
  0
ENDSEC
  0
SECTION
  2
ENTITIES
  0
LINE
  5
21
330
1D
100
AcDbEntity
  8
0
100
AcDbLine
 10
142.064
 20
200.277615
 30
0.0
 11
142.46
 21
200.277615
 31
0.0
  0
LINE
  5
22
330
1D
100
AcDbEntity
  8
0
100
AcDbLine
 10
142.064
 20
200.277615
 30
0.0
 11
142.328
 21
199.893
 31
0.0
  0
LINE
  5
23
330
1D
100
AcDbEntity
  8
0
100
AcDbLine
 10
142.064
 20
200.277615
 30
0.0
 11
142.064
 21
269.5084
 31
0.0
  0
LINE
  5
24
330
1D
100
AcDbEntity
  8
0
100
AcDbLine
 10
142.328
 20
199.893
 30
0.0
 11
142.724
 21
199.893
 31
0.0
  0
LINE
  5
25
330
1D
100
AcDbEntity
  8
0
100
AcDbLine
 10
142.724
 20
199.893
 30
0.0
 11
143.78
 21
199.893
 31
0.0
  0
LINE
  5
26
330
1D
100
AcDbEntity
  8
0
100
AcDbLine
 10
142.46
 20
200.277615
 30
0.0
 11
143.516
 21
200.277615
 31
0.0
  0
LINE
  5
27
330
1D
100
AcDbEntity
  8
0
100
AcDbLine
 10
143.516
 20
200.277615
 30
0.0
 11
145.276
 21
200.277615
 31
0.0
  0
LINE
  5
28
330
1D
100
AcDbEntity
  8
0
100
AcDbLine
 10
142.064
 20
269.5084
 30
0.0
 11
142.46
 21
269.5084
 31
0.0
  0
LINE
  5
29
330
1D
100
AcDbEntity
  8
0
100
AcDbLine
 10
142.064
 20
269.5084
 30
0.0
 11
142.328
 21
269.893
 31
0.0
  0
LINE
  5
2A
330
1D
100
AcDbEntity
  8
0
100
AcDbLine
 10
142.064
 20
269.5084
 30
0.0
 11
142.064
 21
200.277615
 31
0.0
  0
LINE
  5
2B
330
1D
100
AcDbEntity
  8
0
100
AcDbLine
 10
141.496
 20
299.893
 30
0.0
 11
142.648
 21
299.893
 31
0.0
  0
LINE
  5
2C
330
1D
100
AcDbEntity
  8
0
100
AcDbLine
 10
141.496
 20
299.893
 30
0.0
 11
142.064
 21
299.893
 31
0.0
  0
LINE
  5
2D
330
1D
100
AcDbEntity
  8
0
100
AcDbLine
 10
141.064
 20
299.893
 30
0.0
 11
141.496
 21
299.893
 31
0.0
  0
LINE
  5
2E
330
1D
100
AcDbEntity
  8
0
100
AcDbLine
 10
142.648
 20
299.893
 30
0.0
 11
144.568
 21
299.893
 31
0.0
  0
LINE
  5
2F
330
1D
100
AcDbEntity
  8
0
100
AcDbLine
 10
142.064
 20
270.493
 30
0.0
 11
142.328
 21
269.893
 31
0.0
  0
LINE
  5
30
330
1D
100
AcDbEntity
  8
0
100
AcDbLine
 10
142.064
 20
270.493
 30
0.0
 11
142.064
 21
299.893
 31
0.0
  0
LINE
  5
31
330
1D
100
AcDbEntity
  8
0
100
AcDbLine
 10
142.328
 20
269.893
 30
0.0
 11
142.724
 21
269.893
 31
0.0
  0
LINE
  5
32
330
1D
100
AcDbEntity
  8
0
100
AcDbLine
 10
142.724
 20
269.893
 30
0.0
 11
143.78
 21
269.893
 31
0.0
  0
LINE
  5
33
330
1D
100
AcDbEntity
  8
0
100
AcDbLine
 10
142.46
 20
269.5084
 30
0.0
 11
143.516
 21
269.5084
 31
0.0
  0
LINE
  5
34
330
1D
100
AcDbEntity
  8
0
100
AcDbLine
 10
143.78
 20
199.893
 30
0.0
 11
145.496
 21
199.893
 31
0.0
  0
LINE
  5
35
330
1D
100
AcDbEntity
  8
0
100
AcDbLine
 10
144.568
 20
299.893
 30
0.0
 11
147.112
 21
299.893
 31
0.0
  0
LINE
  5
36
330
1D
100
AcDbEntity
  8
0
100
AcDbLine
 10
143.78
 20
269.893
 30
0.0
 11
145.496
 21
269.893
 31
0.0
  0
LINE
  5
37
330
1D
100
AcDbEntity
  8
0
100
AcDbLine
 10
143.516
 20
269.5084
 30
0.0
 11
145.276
 21
269.5084
 31
0.0
  0
LINE
  5
38
330
1D
100
AcDbEntity
  8
0
100
AcDbLine
 10
143.152
 20
299.893
 30
0.0
 11
146.12
 21
299.893
 31
0.0
  0
LINE
  5
39
330
1D
100
AcDbEntity
  8
0
100
AcDbLine
 10
145.496
 20
199.893
 30
0.0
 11
147.74
 21
199.893
 31
0.0
  0
LINE
  5
3A
330
1D
100
AcDbEntity
  8
0
100
AcDbLine
 10
145.276
 20
200.277615
 30
0.0
 11
147.608
 21
200.277615
 31
0.0
  0
LINE
  5
3B
330
1D
100
AcDbEntity
  8
0
100
AcDbLine
 10
145.496
 20
269.893
 30
0.0
 11
147.74
 21
269.893
 31
0.0
  0
LINE
  5
3C
330
1D
100
AcDbEntity
  8
0
100
AcDbLine
 10
145.276
 20
269.5084
 30
0.0
 11
147.608
 21
269.5084
 31
0.0
  0
LINE
  5
3D
330
1D
100
AcDbEntity
  8
0
100
AcDbLine
 10
147.608
 20
200.277615
 30
0.0
 11
150.248
 21
200.277615
 31
0.0
  0
LINE
  5
3E
330
1D
100
AcDbEntity
  8
0
100
AcDbLine
 10
147.74
 20
199.893
 30
0.0
 11
150.292
 21
199.893
 31
0.0
  0
LINE
  5
3F
330
1D
100
AcDbEntity
  8
0
100
AcDbLine
 10
155.836
 20
199.893
 30
0.0
 11
158.388
 21
199.893
 31
0.0
  0
LINE
  5
40
330
1D
100
AcDbEntity
  8
0
100
AcDbLine
 10
153.064
 20
199.893
 30
0.0
 11
155.836
 21
199.893
 31
0.0
  0
LINE
  5
41
330
1D
100
AcDbEntity
  8
0
100
AcDbLine
 10
153.064
 20
200.277615
 30
0.0
 11
155.88
 21
200.277615
 31
0.0
  0
LINE
  5
42
330
1D
100
AcDbEntity
  8
0
100
AcDbLine
 10
150.292
 20
199.893
 30
0.0
 11
153.064
 21
199.893
 31
0.0
  0
LINE
  5
43
330
1D
100
AcDbEntity
  8
0
100
AcDbLine
 10
150.248
 20
200.277615
 30
0.0
 11
153.064
 21
200.277615
 31
0.0
  0
LINE
  5
44
330
1D
100
AcDbEntity
  8
0
100
AcDbLine
 10
153.064
 20
269.5084
 30
0.0
 11
155.88
 21
269.5084
 31
0.0
  0
LINE
  5
45
330
1D
100
AcDbEntity
  8
0
100
AcDbLine
 10
147.608
 20
269.5084
 30
0.0
 11
150.248
 21
269.5084
 31
0.0
  0
LINE
  5
46
330
1D
100
AcDbEntity
  8
0
100
AcDbLine
 10
149.992
 20
299.893
 30
0.0
 11
153.064
 21
299.893
 31
0.0
  0
LINE
  5
47
330
1D
100
AcDbEntity
  8
0
100
AcDbLine
 10
147.112
 20
299.893
 30
0.0
 11
149.992
 21
299.893
 31
0.0
  0
LINE
  5
48
330
1D
100
AcDbEntity
  8
0
100
AcDbLine
 10
147.74
 20
269.893
 30
0.0
 11
150.292
 21
269.893
 31
0.0
  0
LINE
  5
49
330
1D
100
AcDbEntity
  8
0
100
AcDbLine
 10
153.064
 20
269.893
 30
0.0
 11
155.836
 21
269.893
 31
0.0
  0
LINE
  5
4A
330
1D
100
AcDbEntity
  8
0
100
AcDbLine
 10
150.292
 20
269.893
 30
0.0
 11
153.064
 21
269.893
 31
0.0
  0
LINE
  5
4B
330
1D
100
AcDbEntity
  8
0
100
AcDbLine
 10
150.248
 20
269.5084
 30
0.0
 11
153.064
 21
269.5084
 31
0.0
  0
LINE
  5
4C
330
1D
100
AcDbEntity
  8
0
100
AcDbLine
 10
155.88
 20
200.277615
 30
0.0
 11
158.52
 21
200.277615
 31
0.0
  0
LINE
  5
4D
330
1D
100
AcDbEntity
  8
0
100
AcDbLine
 10
156.136
 20
299.893
 30
0.0
 11
159.016
 21
299.893
 31
0.0
  0
LINE
  5
4E
330
1D
100
AcDbEntity
  8
0
100
AcDbLine
 10
155.88
 20
269.5084
 30
0.0
 11
158.52
 21
269.5084
 31
0.0
  0
LINE
  5
4F
330
1D
100
AcDbEntity
  8
0
100
AcDbLine
 10
155.836
 20
269.893
 30
0.0
 11
177.711843695392
 21
269.893
 31
0.0
  0
LINE
  5
50
330
1D
100
AcDbEntity
  8
0
100
AcDbLine
 10
153.064
 20
299.893
 30
0.0
 11
157.16
 21
299.893
 31
0.0
  0
LINE
  5
51
330
1D
100
AcDbEntity
  8
0
100
AcDbLine
 10
153.064
 20
299.893
 30
0.0
 11
156.648
 21
299.893
 31
0.0
  0
LINE
  5
52
330
1D
100
AcDbEntity
  8
0
100
AcDbLine
 10
153.064
 20
299.893
 30
0.0
 11
156.136
 21
299.893
 31
0.0
  0
LINE
  5
53
330
1D
100
AcDbEntity
  8
0
100
AcDbLine
 10
158.388
 20
199.893
 30
0.0
 11
160.632
 21
199.893
 31
0.0
  0
LINE
  5
54
330
1D
100
AcDbEntity
  8
0
100
AcDbLine
 10
158.52
 20
200.277615
 30
0.0
 11
160.852
 21
200.277615
 31
0.0
  0
LINE
  5
55
330
1D
100
AcDbEntity
  8
0
100
AcDbLine
 10
159.016
 20
299.893
 30
0.0
 11
161.56
 21
299.893
 31
0.0
  0
LINE
  5
56
330
1D
100
AcDbEntity
  8
0
100
AcDbLine
 10
157.581333532474
 20
224.893
 30
0.0
 11
177.746505242343
 21
224.893
 31
0.0
  0
LINE
  5
57
330
1D
100
AcDbEntity
  8
0
100
AcDbLine
 10
156.648
 20
299.893
 30
0.0
 11
160.008
 21
299.893
 31
0.0
  0
LINE
  5
58
330
1D
100
AcDbEntity
  8
0
100
AcDbLine
 10
157.16
 20
299.893
 30
0.0
 11
161.0
 21
299.893
 31
0.0
  0
LINE
  5
59
330
1D
100
AcDbEntity
  8
0
100
AcDbLine
 10
162.348
 20
199.893
 30
0.0
 11
163.404
 21
199.893
 31
0.0
  0
LINE
  5
5A
330
1D
100
AcDbEntity
  8
0
100
AcDbLine
 10
160.632
 20
199.893
 30
0.0
 11
162.348
 21
199.893
 31
0.0
  0
LINE
  5
5B
330
1D
100
AcDbEntity
  8
0
100
AcDbLine
 10
162.612
 20
200.277615
 30
0.0
 11
163.668
 21
200.277615
 31
0.0
  0
LINE
  5
5C
330
1D
100
AcDbEntity
  8
0
100
AcDbLine
 10
161.56
 20
299.893
 30
0.0
 11
163.48
 21
299.893
 31
0.0
  0
LINE
  5
5D
330
1D
100
AcDbEntity
  8
0
100
AcDbLine
 10
160.852
 20
200.277615
 30
0.0
 11
162.612
 21
200.277615
 31
0.0
  0
LINE
  5
5E
330
1D
100
AcDbEntity
  8
0
100
AcDbLine
 10
160.008
 20
299.893
 30
0.0
 11
162.976
 21
299.893
 31
0.0
  0
LINE
  5
5F
330
1D
100
AcDbEntity
  8
0
100
AcDbLine
 10
161.0
 20
299.893
 30
0.0
 11
164.392
 21
299.893
 31
0.0
  0
LINE
  5
60
330
1D
100
AcDbEntity
  8
0
100
AcDbLine
 10
163.404
 20
199.893
 30
0.0
 11
163.8
 21
199.893
 31
0.0
  0
LINE
  5
61
330
1D
100
AcDbEntity
  8
0
100
AcDbLine
 10
163.8
 20
199.893
 30
0.0
 11
164.064
 21
200.277615
 31
0.0
  0
LINE
  5
62
330
1D
100
AcDbEntity
  8
0
100
AcDbLine
 10
163.668
 20
200.277615
 30
0.0
 11
164.064
 21
200.277615
 31
0.0
  0
LINE
  5
63
330
1D
100
AcDbEntity
  8
0
100
AcDbLine
 10
164.064
 20
200.277615
 30
0.0
 11
164.064
 21
224.893
 31
0.0
  0
LINE
  5
64
330
1D
100
AcDbEntity
  8
0
100
AcDbLine
 10
163.48
 20
299.893
 30
0.0
 11
164.632
 21
299.893
 31
0.0
  0
LINE
  5
65
330
1D
100
AcDbEntity
  8
0
100
AcDbLine
 10
164.064
 20
270.493
 30
0.0
 11
164.064
 21
299.893
 31
0.0
  0
LINE
  5
66
330
1D
100
AcDbEntity
  8
0
100
AcDbLine
 10
163.8
 20
269.893
 30
0.0
 11
164.064
 21
270.493
 31
0.0
  0
LINE
  5
67
330
1D
100
AcDbEntity
  8
0
100
AcDbLine
 10
164.064
 20
224.893
 30
0.0
 11
177.746505242343
 21
224.893
 31
0.0
  0
LINE
  5
68
330
1D
100
AcDbEntity
  8
0
100
AcDbLine
 10
164.064
 20
224.893
 30
0.0
 11
164.064
 21
200.277615
 31
0.0
  0
LINE
  5
69
330
1D
100
AcDbEntity
  8
0
100
AcDbLine
 10
162.976
 20
299.893
 30
0.0
 11
165.216
 21
299.893
 31
0.0
  0
LINE
  5
6A
330
1D
100
AcDbEntity
  8
0
100
AcDbLine
 10
149.48
 20
299.893
 30
0.0
 11
153.064
 21
299.893
 31
0.0
  0
LINE
  5
6B
330
1D
100
AcDbEntity
  8
0
100
AcDbLine
 10
146.12
 20
299.893
 30
0.0
 11
149.48
 21
299.893
 31
0.0
  0
LINE
  5
6C
330
1D
100
AcDbEntity
  8
0
100
AcDbLine
 10
148.968
 20
299.893
 30
0.0
 11
153.064
 21
299.893
 31
0.0
  0
LINE
  5
6D
330
1D
100
AcDbEntity
  8
0
100
AcDbLine
 10
145.128
 20
299.893
 30
0.0
 11
148.968
 21
299.893
 31
0.0
  0
LINE
  5
6E
330
1D
100
AcDbEntity
  8
0
100
AcDbLine
 10
141.736
 20
299.893
 30
0.0
 11
142.064
 21
299.893
 31
0.0
  0
LINE
  5
6F
330
1D
100
AcDbEntity
  8
0
100
AcDbLine
 10
141.736
 20
299.893
 30
0.0
 11
145.128
 21
299.893
 31
0.0
  0
LINE
  5
70
330
1D
100
AcDbEntity
  8
0
100
AcDbLine
 10
139.176
 20
299.893
 30
0.0
 11
141.736
 21
299.893
 31
0.0
  0
LINE
  5
71
330
1D
100
AcDbEntity
  8
0
100
AcDbLine
 10
140.912
 20
299.893
 30
0.0
 11
142.064
 21
299.893
 31
0.0
  0
LINE
  5
72
330
1D
100
AcDbEntity
  8
0
100
AcDbLine
 10
140.912
 20
299.893
 30
0.0
 11
143.152
 21
299.893
 31
0.0
  0
LINE
  5
73
330
1D
100
AcDbEntity
  8
0
100
AcDbLine
 10
137.64
 20
299.893
 30
0.0
 11
139.176
 21
299.893
 31
0.0
  0
LINE
  5
74
330
1D
100
AcDbEntity
  8
0
100
AcDbLine
 10
139.568
 20
299.893
 30
0.0
 11
140.912
 21
299.893
 31
0.0
  0
LINE
  5
75
330
1D
100
AcDbEntity
  8
0
100
AcDbLine
 10
137.064
 20
299.893
 30
0.0
 11
137.64
 21
299.893
 31
0.0
  0
LINE
  5
76
330
1D
100
AcDbEntity
  8
0
100
AcDbLine
 10
137.064
 20
299.893
 30
0.0
 11
137.064
 21
311.893
 31
0.0
  0
LINE
  5
77
330
1D
100
AcDbEntity
  8
0
100
AcDbLine
 10
139.064
 20
299.893
 30
0.0
 11
139.568
 21
299.893
 31
0.0
  0
LINE
  5
78
330
1D
100
AcDbEntity
  8
0
100
AcDbLine
 10
139.064
 20
299.893
 30
0.0
 11
141.064
 21
299.893
 31
0.0
  0
LINE
  5
79
330
1D
100
AcDbEntity
  8
0
100
AcDbLine
 10
165.064
 20
299.893
 30
0.0
 11
167.064
 21
299.893
 31
0.0
  0
LINE
  5
7A
330
1D
100
AcDbEntity
  8
0
100
AcDbLine
 10
164.632
 20
299.893
 30
0.0
 11
165.064
 21
299.893
 31
0.0
  0
LINE
  5
7B
330
1D
100
AcDbEntity
  8
0
100
AcDbLine
 10
165.216
 20
299.893
 30
0.0
 11
166.56
 21
299.893
 31
0.0
  0
LINE
  5
7C
330
1D
100
AcDbEntity
  8
0
100
AcDbLine
 10
166.56
 20
299.893
 30
0.0
 11
167.064
 21
299.893
 31
0.0
  0
LINE
  5
7D
330
1D
100
AcDbEntity
  8
0
100
AcDbLine
 10
164.064
 20
299.893
 30
0.0
 11
164.392
 21
299.893
 31
0.0
  0
LINE
  5
7E
330
1D
100
AcDbEntity
  8
0
100
AcDbLine
 10
164.064
 20
299.893
 30
0.0
 11
165.216
 21
299.893
 31
0.0
  0
LINE
  5
7F
330
1D
100
AcDbEntity
  8
0
100
AcDbLine
 10
164.064
 20
299.893
 30
0.0
 11
164.064
 21
270.493
 31
0.0
  0
LINE
  5
80
330
1D
100
AcDbEntity
  8
0
100
AcDbLine
 10
164.064
 20
299.893
 30
0.0
 11
164.632
 21
299.893
 31
0.0
  0
LINE
  5
81
330
1D
100
AcDbEntity
  8
0
100
AcDbLine
 10
164.392
 20
299.893
 30
0.0
 11
166.952
 21
299.893
 31
0.0
  0
LINE
  5
82
330
1D
100
AcDbEntity
  8
0
100
AcDbLine
 10
166.952
 20
299.893
 30
0.0
 11
168.488
 21
299.893
 31
0.0
  0
LINE
  5
83
330
1D
100
AcDbEntity
  8
0
100
AcDbLine
 10
107.064
 20
311.893
 30
0.0
 11
115.164
 21
311.893
 31
0.0
  0
LINE
  5
84
330
1D
100
AcDbEntity
  8
0
100
AcDbLine
 10
115.164
 20
311.893
 30
0.0
 11
123.064
 21
311.893
 31
0.0
  0
LINE
  5
85
330
1D
100
AcDbEntity
  8
0
100
AcDbLine
 10
123.064
 20
311.893
 30
0.0
 11
130.764
 21
311.893
 31
0.0
  0
LINE
  5
86
330
1D
100
AcDbEntity
  8
0
100
AcDbLine
 10
130.764
 20
311.893
 30
0.0
 11
137.964
 21
311.893
 31
0.0
  0
LINE
  5
87
330
1D
100
AcDbEntity
  8
0
100
AcDbLine
 10
98.964
 20
311.893
 30
0.0
 11
107.064
 21
311.893
 31
0.0
  0
LINE
  5
88
330
1D
100
AcDbEntity
  8
0
100
AcDbLine
 10
91.064
 20
311.893
 30
0.0
 11
98.964
 21
311.893
 31
0.0
  0
LINE
  5
89
330
1D
100
AcDbEntity
  8
0
100
AcDbLine
 10
83.364
 20
311.893
 30
0.0
 11
91.064
 21
311.893
 31
0.0
  0
LINE
  5
8A
330
1D
100
AcDbEntity
  8
0
100
AcDbLine
 10
76.164
 20
311.893
 30
0.0
 11
83.364
 21
311.893
 31
0.0
  0
LINE
  5
8B
330
1D
100
AcDbEntity
  8
0
100
AcDbLine
 10
69.364
 20
311.893
 30
0.0
 11
76.164
 21
311.893
 31
0.0
  0
LINE
  5
8C
330
1D
100
AcDbEntity
  8
0
100
AcDbLine
 10
63.264
 20
311.893
 30
0.0
 11
69.364
 21
311.893
 31
0.0
  0
LINE
  5
8D
330
1D
100
AcDbEntity
  8
0
100
AcDbLine
 10
57.964
 20
311.893
 30
0.0
 11
63.264
 21
311.893
 31
0.0
  0
LINE
  5
8E
330
1D
100
AcDbEntity
  8
0
100
AcDbLine
 10
53.364
 20
311.893
 30
0.0
 11
57.964
 21
311.893
 31
0.0
  0
LINE
  5
8F
330
1D
100
AcDbEntity
  8
0
100
AcDbLine
 10
49.864
 20
311.893
 30
0.0
 11
53.364
 21
311.893
 31
0.0
  0
LINE
  5
90
330
1D
100
AcDbEntity
  8
0
100
AcDbLine
 10
47.264
 20
311.893
 30
0.0
 11
49.864
 21
311.893
 31
0.0
  0
LINE
  5
91
330
1D
100
AcDbEntity
  8
0
100
AcDbLine
 10
45.664
 20
311.893
 30
0.0
 11
47.264
 21
311.893
 31
0.0
  0
LINE
  5
92
330
1D
100
AcDbEntity
  8
0
100
AcDbLine
 10
56.764
 20
312.393
 30
0.0
 11
62.264
 21
312.393
 31
0.0
  0
LINE
  5
93
330
1D
100
AcDbEntity
  8
0
100
AcDbLine
 10
52.064
 20
312.393
 30
0.0
 11
56.764
 21
312.393
 31
0.0
  0
LINE
  5
94
330
1D
100
AcDbEntity
  8
0
100
AcDbLine
 10
48.564
 20
312.393
 30
0.0
 11
52.064
 21
312.393
 31
0.0
  0
LINE
  5
95
330
1D
100
AcDbEntity
  8
0
100
AcDbLine
 10
45.864
 20
312.393
 30
0.0
 11
48.564
 21
312.393
 31
0.0
  0
LINE
  5
96
330
1D
100
AcDbEntity
  8
0
100
AcDbLine
 10
44.164
 20
312.393
 30
0.0
 11
45.864
 21
312.393
 31
0.0
  0
LINE
  5
97
330
1D
100
AcDbEntity
  8
0
100
AcDbLine
 10
62.264
 20
312.393
 30
0.0
 11
68.464
 21
312.393
 31
0.0
  0
LINE
  5
98
330
1D
100
AcDbEntity
  8
0
100
AcDbLine
 10
68.464
 20
312.393
 30
0.0
 11
75.164
 21
312.393
 31
0.0
  0
LINE
  5
99
330
1D
100
AcDbEntity
  8
0
100
AcDbLine
 10
75.164
 20
312.393
 30
0.0
 11
82.764
 21
312.393
 31
0.0
  0
LINE
  5
9A
330
1D
100
AcDbEntity
  8
0
100
AcDbLine
 10
82.764
 20
312.393
 30
0.0
 11
90.664
 21
312.393
 31
0.0
  0
LINE
  5
9B
330
1D
100
AcDbEntity
  8
0
100
AcDbLine
 10
90.664
 20
312.393
 30
0.0
 11
98.764
 21
312.393
 31
0.0
  0
LINE
  5
9C
330
1D
100
AcDbEntity
  8
0
100
AcDbLine
 10
131.364
 20
312.393
 30
0.0
 11
138.964
 21
312.393
 31
0.0
  0
LINE
  5
9D
330
1D
100
AcDbEntity
  8
0
100
AcDbLine
 10
123.464
 20
312.393
 30
0.0
 11
131.364
 21
312.393
 31
0.0
  0
LINE
  5
9E
330
1D
100
AcDbEntity
  8
0
100
AcDbLine
 10
115.364
 20
312.393
 30
0.0
 11
123.464
 21
312.393
 31
0.0
  0
LINE
  5
9F
330
1D
100
AcDbEntity
  8
0
100
AcDbLine
 10
107.064
 20
312.393
 30
0.0
 11
115.364
 21
312.393
 31
0.0
  0
LINE
  5
A0
330
1D
100
AcDbEntity
  8
0
100
AcDbLine
 10
98.764
 20
312.393
 30
0.0
 11
107.064
 21
312.393
 31
0.0
  0
LINE
  5
A1
330
1D
100
AcDbEntity
  8
0
100
AcDbLine
 10
45.064
 20
311.893
 30
0.0
 11
45.664
 21
311.893
 31
0.0
  0
LINE
  5
A2
330
1D
100
AcDbEntity
  8
0
100
AcDbLine
 10
137.964
 20
311.893
 30
0.0
 11
144.764
 21
311.893
 31
0.0
  0
LINE
  5
A3
330
1D
100
AcDbEntity
  8
0
100
AcDbLine
 10
142.064
 20
299.893
 30
0.0
 11
142.064
 21
270.493
 31
0.0
  0
LINE
  5
A4
330
1D
100
AcDbEntity
  8
0
100
AcDbLine
 10
144.764
 20
311.893
 30
0.0
 11
150.864
 21
311.893
 31
0.0
  0
LINE
  5
A5
330
1D
100
AcDbEntity
  8
0
100
AcDbLine
 10
153.064
 20
311.893
 30
0.0
 11
157.16
 21
311.893
 31
0.0
  0
LINE
  5
A6
330
1D
100
AcDbEntity
  8
0
100
AcDbLine
 10
150.864
 20
311.893
 30
0.0
 11
156.164
 21
311.893
 31
0.0
  0
LINE
  5
A7
330
1D
100
AcDbEntity
  8
0
100
AcDbLine
 10
157.16
 20
311.893
 30
0.0
 11
161.0
 21
311.893
 31
0.0
  0
LINE
  5
A8
330
1D
100
AcDbEntity
  8
0
100
AcDbLine
 10
161.0
 20
311.893
 30
0.0
 11
164.392
 21
311.893
 31
0.0
  0
LINE
  5
A9
330
1D
100
AcDbEntity
  8
0
100
AcDbLine
 10
156.164
 20
311.893
 30
0.0
 11
160.764
 21
311.893
 31
0.0
  0
LINE
  5
AA
330
1D
100
AcDbEntity
  8
0
100
AcDbLine
 10
160.764
 20
311.893
 30
0.0
 11
164.264
 21
311.893
 31
0.0
  0
LINE
  5
AB
330
1D
100
AcDbEntity
  8
0
100
AcDbLine
 10
164.392
 20
311.893
 30
0.0
 11
166.952
 21
311.893
 31
0.0
  0
LINE
  5
AC
330
1D
100
AcDbEntity
  8
0
100
AcDbLine
 10
166.952
 20
311.893
 30
0.0
 11
168.488
 21
311.893
 31
0.0
  0
LINE
  5
AD
330
1D
100
AcDbEntity
  8
0
100
AcDbLine
 10
164.264
 20
311.893
 30
0.0
 11
166.864
 21
311.893
 31
0.0
  0
LINE
  5
AE
330
1D
100
AcDbEntity
  8
0
100
AcDbLine
 10
166.864
 20
311.893
 30
0.0
 11
168.464
 21
311.893
 31
0.0
  0
LINE
  5
AF
330
1D
100
AcDbEntity
  8
0
100
AcDbLine
 10
168.488
 20
311.893
 30
0.0
 11
169.064
 21
311.893
 31
0.0
  0
LINE
  5
B0
330
1D
100
AcDbEntity
  8
0
100
AcDbLine
 10
168.464
 20
311.893
 30
0.0
 11
169.064
 21
311.893
 31
0.0
  0
LINE
  5
B1
330
1D
100
AcDbEntity
  8
0
100
AcDbLine
 10
148.968
 20
311.893
 30
0.0
 11
153.064
 21
311.893
 31
0.0
  0
LINE
  5
B2
330
1D
100
AcDbEntity
  8
0
100
AcDbLine
 10
145.128
 20
311.893
 30
0.0
 11
148.968
 21
311.893
 31
0.0
  0
LINE
  5
B3
330
1D
100
AcDbEntity
  8
0
100
AcDbLine
 10
141.736
 20
311.893
 30
0.0
 11
145.128
 21
311.893
 31
0.0
  0
LINE
  5
B4
330
1D
100
AcDbEntity
  8
0
100
AcDbLine
 10
139.176
 20
311.893
 30
0.0
 11
141.736
 21
311.893
 31
0.0
  0
LINE
  5
B5
330
1D
100
AcDbEntity
  8
0
100
AcDbLine
 10
145.664
 20
312.393
 30
0.0
 11
151.864
 21
312.393
 31
0.0
  0
LINE
  5
B6
330
1D
100
AcDbEntity
  8
0
100
AcDbLine
 10
138.964
 20
312.393
 30
0.0
 11
145.664
 21
312.393
 31
0.0
  0
LINE
  5
B7
330
1D
100
AcDbEntity
  8
0
100
AcDbLine
 10
151.864
 20
312.393
 30
0.0
 11
157.364
 21
312.393
 31
0.0
  0
LINE
  5
B8
330
1D
100
AcDbEntity
  8
0
100
AcDbLine
 10
157.364
 20
312.393
 30
0.0
 11
162.064
 21
312.393
 31
0.0
  0
LINE
  5
B9
330
1D
100
AcDbEntity
  8
0
100
AcDbLine
 10
162.064
 20
312.393
 30
0.0
 11
165.564
 21
312.393
 31
0.0
  0
LINE
  5
BA
330
1D
100
AcDbEntity
  8
0
100
AcDbLine
 10
165.564
 20
312.393
 30
0.0
 11
168.264
 21
312.393
 31
0.0
  0
LINE
  5
BB
330
1D
100
AcDbEntity
  8
0
100
AcDbLine
 10
169.064
 20
312.035857142857
 30
0.0
 11
169.064
 21
311.893
 31
0.0
  0
LINE
  5
BC
330
1D
100
AcDbEntity
  8
0
100
AcDbLine
 10
169.064
 20
312.035857142857
 30
0.0
 11
169.064
 21
299.893
 31
0.0
  0
LINE
  5
BD
330
1D
100
AcDbEntity
  8
0
100
AcDbLine
 10
168.264
 20
312.393
 30
0.0
 11
169.964
 21
312.393
 31
0.0
  0
LINE
  5
BE
330
1D
100
AcDbEntity
  8
0
100
AcDbLine
 10
137.64
 20
311.893
 30
0.0
 11
139.176
 21
311.893
 31
0.0
  0
LINE
  5
BF
330
1D
100
AcDbEntity
  8
0
100
AcDbLine
 10
137.064
 20
311.893
 30
0.0
 11
137.064
 21
299.893
 31
0.0
  0
LINE
  5
C0
330
1D
100
AcDbEntity
  8
0
100
AcDbLine
 10
137.064
 20
311.893
 30
0.0
 11
137.64
 21
311.893
 31
0.0
  0
LINE
  5
C1
330
1D
100
AcDbEntity
  8
0
100
AcDbLine
 10
168.488
 20
299.893
 30
0.0
 11
169.064
 21
299.893
 31
0.0
  0
LINE
  5
C2
330
1D
100
AcDbEntity
  8
0
100
AcDbLine
 10
169.064
 20
299.893
 30
0.0
 11
169.064
 21
312.035857142857
 31
0.0
  0
LINE
  5
4A7
330
1D
100
AcDbEntity
  8
0
100
AcDbLine
 10
42.064
 20
337.893
 30
0.0
 11
42.064
 21
314.893
 31
0.0
  0
LINE
  5
4A8
330
1D
100
AcDbEntity
  8
0
100
AcDbLine
 10
42.064
 20
337.893
 30
0.0
 11
42.764
 21
337.893
 31
0.0
  0
LINE
  5
4A9
330
1D
100
AcDbEntity
  8
0
100
AcDbLine
 10
42.064
 20
314.893
 30
0.0
 11
42.564
 21
313.393
 31
0.0
  0
LINE
  5
4AA
330
1D
100
AcDbEntity
  8
0
100
AcDbLine
 10
42.064
 20
314.893
 30
0.0
 11
42.064
 21
337.893
 31
0.0
  0
LINE
  5
4AB
330
1D
100
AcDbEntity
  8
0
100
AcDbLine
 10
55.564
 20
337.893
 30
0.0
 11
61.164
 21
337.893
 31
0.0
  0
LINE
  5
4AC
330
1D
100
AcDbEntity
  8
0
100
AcDbLine
 10
50.764
 20
337.893
 30
0.0
 11
55.564
 21
337.893
 31
0.0
  0
LINE
  5
4AD
330
1D
100
AcDbEntity
  8
0
100
AcDbLine
 10
47.164
 20
337.893
 30
0.0
 11
50.764
 21
337.893
 31
0.0
  0
LINE
  5
4AE
330
1D
100
AcDbEntity
  8
0
100
AcDbLine
 10
44.364
 20
337.893
 30
0.0
 11
47.164
 21
337.893
 31
0.0
  0
LINE
  5
4AF
330
1D
100
AcDbEntity
  8
0
100
AcDbLine
 10
42.764
 20
337.893
 30
0.0
 11
44.364
 21
337.893
 31
0.0
  0
LINE
  5
4B0
330
1D
100
AcDbEntity
  8
0
100
AcDbLine
 10
61.164
 20
337.893
 30
0.0
 11
67.564
 21
337.893
 31
0.0
  0
LINE
  5
4B1
330
1D
100
AcDbEntity
  8
0
100
AcDbLine
 10
67.564
 20
337.893
 30
0.0
 11
74.664
 21
337.893
 31
0.0
  0
LINE
  5
4B2
330
1D
100
AcDbEntity
  8
0
100
AcDbLine
 10
74.664
 20
337.893
 30
0.0
 11
82.264
 21
337.893
 31
0.0
  0
LINE
  5
4B3
330
1D
100
AcDbEntity
  8
0
100
AcDbLine
 10
82.264
 20
337.893
 30
0.0
 11
90.264
 21
337.893
 31
0.0
  0
LINE
  5
82D
330
1D
100
AcDbEntity
  8
0
100
AcDbLine
 10
90.264
 20
337.893
 30
0.0
 11
98.564
 21
337.893
 31
0.0
  0
LINE
  5
82E
330
1D
100
AcDbEntity
  8
0
100
AcDbLine
 10
142.064
 20
337.893
 30
0.0
 11
142.064
 21
578.893
 31
0.0
  0
LINE
  5
82F
330
1D
100
AcDbEntity
  8
0
100
AcDbLine
 10
146.564
 20
337.893
 30
0.0
 11
152.964
 21
337.893
 31
0.0
  0
LINE
  5
830
330
1D
100
AcDbEntity
  8
0
100
AcDbLine
 10
139.464
 20
337.893
 30
0.0
 11
146.564
 21
337.893
 31
0.0
  0
LINE
  5
831
330
1D
100
AcDbEntity
  8
0
100
AcDbLine
 10
131.864
 20
337.893
 30
0.0
 11
139.464
 21
337.893
 31
0.0
  0
LINE
  5
832
330
1D
100
AcDbEntity
  8
0
100
AcDbLine
 10
123.864
 20
337.893
 30
0.0
 11
131.864
 21
337.893
 31
0.0
  0
LINE
  5
833
330
1D
100
AcDbEntity
  8
0
100
AcDbLine
 10
115.564
 20
337.893
 30
0.0
 11
123.864
 21
337.893
 31
0.0
  0
LINE
  5
834
330
1D
100
AcDbEntity
  8
0
100
AcDbLine
 10
107.064
 20
337.893
 30
0.0
 11
115.564
 21
337.893
 31
0.0
  0
LINE
  5
835
330
1D
100
AcDbEntity
  8
0
100
AcDbLine
 10
152.964
 20
337.893
 30
0.0
 11
158.564
 21
337.893
 31
0.0
  0
LINE
  5
836
330
1D
100
AcDbEntity
  8
0
100
AcDbLine
 10
158.564
 20
337.893
 30
0.0
 11
163.364
 21
337.893
 31
0.0
  0
LINE
  5
837
330
1D
100
AcDbEntity
  8
0
100
AcDbLine
 10
164.064
 20
337.893
 30
0.0
 11
164.064
 21
578.893
 31
0.0
  0
LINE
  5
838
330
1D
100
AcDbEntity
  8
0
100
AcDbLine
 10
163.364
 20
337.893
 30
0.0
 11
166.964
 21
337.893
 31
0.0
  0
LINE
  5
842
330
1D
100
AcDbEntity
  8
0
100
AcDbLine
 10
127.132
 20
696.871
 30
0.0
 11
127.479
 21
697.071
 31
0.0
  0
LINE
  5
843
330
1D
100
AcDbEntity
  8
0
100
AcDbLine
 10
127.132
 20
696.871
 30
0.0
 11
143.431
 21
671.64
 31
0.0
  0
LINE
  5
844
330
1D
100
AcDbEntity
  8
0
100
AcDbLine
 10
127.479
 20
697.071
 30
0.0
 11
127.56469078817
 21
697.120506232661
 31
0.0
  0
LINE
  5
845
330
1D
100
AcDbEntity
  8
0
100
AcDbLine
 10
127.479
 20
697.071
 30
0.0
 11
128.431
 21
697.621
 31
0.0
  0
LINE
  5
847
330
1D
100
AcDbEntity
  8
0
100
AcDbLine
 10
138.024
 20
664.925
 30
0.0
 11
139.56
 21
668.637
 31
0.0
  0
LINE
  5
849
330
1D
100
AcDbEntity
  8
0
100
AcDbLine
 10
137.448
 20
660.893
 30
0.0
 11
138.024
 21
656.861
 31
0.0
  0
LINE
  5
84A
330
1D
100
AcDbEntity
  8
0
100
AcDbLine
 10
137.448
 20
660.893
 30
0.0
 11
138.024
 21
664.925
 31
0.0
  0
LINE
  5
84E
330
1D
100
AcDbEntity
  8
0
100
AcDbLine
 10
138.024
 20
656.861
 30
0.0
 11
139.56
 21
653.149
 31
0.0
  0
LINE
  5
855
330
1D
100
AcDbEntity
  8
0
100
AcDbLine
 10
142.064
 20
578.893
 30
0.0
 11
142.064
 21
673.756128412786
 31
0.0
  0
LINE
  5
857
330
1D
100
AcDbEntity
  8
0
100
AcDbLine
 10
139.56
 20
668.637
 30
0.0
 11
142.056
 21
671.901
 31
0.0
  0
LINE
  5
858
330
1D
100
AcDbEntity
  8
0
100
AcDbLine
 10
139.56
 20
653.149
 30
0.0
 11
142.056
 21
649.885
 31
0.0
  0
LINE
  5
85C
330
1D
100
AcDbEntity
  8
0
100
AcDbLine
 10
142.064
 20
673.756128412786
 30
0.0
 11
142.064
 21
578.893
 31
0.0
  0
LINE
  5
860
330
1D
100
AcDbEntity
  8
0
100
AcDbLine
 10
143.431
 20
671.64
 30
0.0
 11
143.778
 21
671.84
 31
0.0
  0
LINE
  5
861
330
1D
100
AcDbEntity
  8
0
100
AcDbLine
 10
144.097065129815
 20
672.024312334296
 30
0.0
 11
146.569712050105
 21
667.741546574245
 31
0.0
  0
LINE
  5
862
330
1D
100
AcDbEntity
  8
0
100
AcDbLine
 10
143.778
 20
671.84
 30
0.0
 11
144.097065129815
 21
672.024312334296
 31
0.0
  0
LINE
  5
863
330
1D
100
AcDbEntity
  8
0
100
AcDbLine
 10
128.431
 20
697.621
 30
0.0
 11
130.077
 21
698.571
 31
0.0
  0
LINE
  5
86B
330
1D
100
AcDbEntity
  8
0
100
AcDbLine
 10
164.064
 20
578.893
 30
0.0
 11
164.064
 21
619.29212
 31
0.0
  0
LINE
  5
86C
330
1D
100
AcDbEntity
  8
0
100
AcDbLine
 10
164.064
 20
619.29212
 30
0.0
 11
164.064
 21
578.893
 31
0.0
  0
LINE
  5
86D
330
1D
100
AcDbEntity
  8
0
100
AcDbLine
 10
168.216
 20
602.954
 30
0.0
 11
172.815
 21
578.747
 31
0.0
  0
LINE
  5
86E
330
1D
100
AcDbEntity
  8
0
100
AcDbLine
 10
162.016
 20
627.351
 30
0.0
 11
168.216
 21
602.954
 31
0.0
  0
LINE
  5
86F
330
1D
100
AcDbEntity
  8
0
100
AcDbLine
 10
154.115
 20
650.147
 30
0.0
 11
162.016
 21
627.351
 31
0.0
  0
LINE
  5
870
330
1D
100
AcDbEntity
  8
0
100
AcDbLine
 10
146.637
 20
667.625
 30
0.0
 11
148.975
 21
668.975
 31
0.0
  0
LINE
  5
871
330
1D
100
AcDbEntity
  8
0
100
AcDbLine
 10
146.569712050105
 20
667.741546574245
 30
0.0
 11
154.115
 21
650.147
 31
0.0
  0
LINE
  5
874
330
1D
100
AcDbEntity
  8
0
100
AcDbLine
 10
148.975
 20
668.975
 30
0.0
 11
151.66
 21
670.525
 31
0.0
  0
LINE
  5
875
330
1D
100
AcDbEntity
  8
0
100
AcDbLine
 10
157.549
 20
673.925
 30
0.0
 11
160.233
 21
675.475
 31
0.0
  0
LINE
  5
876
330
1D
100
AcDbEntity
  8
0
100
AcDbLine
 10
154.604
 20
672.225
 30
0.0
 11
157.549
 21
673.925
 31
0.0
  0
LINE
  5
877
330
1D
100
AcDbEntity
  8
0
100
AcDbLine
 10
151.66
 20
670.525
 30
0.0
 11
154.604
 21
672.225
 31
0.0
  0
LINE
  5
87A
330
1D
100
AcDbEntity
  8
0
100
AcDbLine
 10
168.138575364609
 20
657.103027552261
 30
0.0
 11
168.68
 21
660.893
 31
0.0
  0
LINE
  5
87F
330
1D
100
AcDbEntity
  8
0
100
AcDbLine
 10
159.964600000091
 20
675.320000000052
 30
0.0
 11
160.592846153459
 21
675.682692307469
 31
0.0
  0
LINE
  5
880
330
1D
100
AcDbEntity
  8
0
100
AcDbLine
 10
159.964600000089
 20
675.320000000052
 30
0.0
 11
160.592846153459
 21
675.682692307469
 31
0.0
  0
LINE
  5
882
330
1D
100
AcDbEntity
  8
0
100
AcDbLine
 10
164.064
 20
666.330818551991
 30
0.0
 11
164.064
 21
677.686242440902
 31
0.0
  0
LINE
  5
883
330
1D
100
AcDbEntity
  8
0
100
AcDbLine
 10
164.072
 20
671.901
 30
0.0
 11
166.568
 21
668.637
 31
0.0
  0
LINE
  5
887
330
1D
100
AcDbEntity
  8
0
100
AcDbLine
 10
162.279625000384
 20
676.656250000222
 30
0.0
 11
162.832
 21
676.975
 31
0.0
  0
LINE
  5
888
330
1D
100
AcDbEntity
  8
0
100
AcDbLine
 10
162.279625000382
 20
676.65625000022
 30
0.0
 11
162.832
 21
676.975
 31
0.0
  0
LINE
  5
889
330
1D
100
AcDbEntity
  8
0
100
AcDbLine
 10
164.064
 20
677.686242440902
 30
0.0
 11
164.064
 21
666.330818551991
 31
0.0
  0
LINE
  5
88A
330
1D
100
AcDbEntity
  8
0
100
AcDbLine
 10
162.832
 20
676.975
 30
0.0
 11
163.481499999533
 21
677.34999999973
 31
0.0
  0
LINE
  5
88B
330
1D
100
AcDbEntity
  8
0
100
AcDbLine
 10
162.832
 20
676.975
 30
0.0
 11
163.481499999532
 21
677.34999999973
 31
0.0
  0
LINE
  5
88C
330
1D
100
AcDbEntity
  8
0
100
AcDbLine
 10
162.572
 20
676.825
 30
0.0
 11
164.391
 21
677.875
 31
0.0
  0
LINE
  5
88D
330
1D
100
AcDbEntity
  8
0
100
AcDbLine
 10
168.104
 20
664.925
 30
0.0
 11
168.68
 21
660.893
 31
0.0
  0
LINE
  5
88E
330
1D
100
AcDbEntity
  8
0
100
AcDbLine
 10
166.568
 20
668.637
 30
0.0
 11
168.104
 21
664.925
 31
0.0
  0
LINE
  5
894
330
1D
100
AcDbEntity
  8
0
100
AcDbLine
 10
164.391
 20
677.875
 30
0.0
 11
165.43
 21
678.475
 31
0.0
  0
LINE
  5
895
330
1D
100
AcDbEntity
  8
0
100
AcDbLine
 10
164.064
 20
681.8409708
 30
0.0
 11
164.064
 21
887.293
 31
0.0
  0
LINE
  5
896
330
1D
100
AcDbEntity
  8
0
100
AcDbLine
 10
165.43
 20
678.475
 30
0.0
 11
165.863
 21
678.725
 31
0.0
  0
LINE
  5
897
330
1D
100
AcDbEntity
  8
0
100
AcDbLine
 10
160.233
 20
675.475
 30
0.0
 11
162.572
 21
676.825
 31
0.0
  0
LINE
  5
898
330
1D
100
AcDbEntity
  8
0
100
AcDbLine
 10
167.516
 20
658.844
 30
0.0
 11
175.915
 21
635.357
 31
0.0
  0
LINE
  5
899
330
1D
100
AcDbEntity
  8
0
100
AcDbLine
 10
159.92882169029
 20
675.299338159445
 30
0.0
 11
167.516
 21
658.844
 31
0.0
  0
LINE
  5
89A
330
1D
100
AcDbEntity
  8
0
100
AcDbLine
 10
146.569712050105
 20
667.741546574245
 30
0.0
 11
154.115
 21
650.147
 31
0.0
  0
LINE
  5
89D
330
1D
100
AcDbEntity
  8
0
100
AcDbLine
 10
130.077
 20
698.571
 30
0.0
 11
132.155
 21
699.771
 31
0.0
  0
LINE
  5
89E
330
1D
100
AcDbEntity
  8
0
100
AcDbLine
 10
134.16
 20
700.836
 30
0.0
 11
137.104
 21
702.536
 31
0.0
  0
LINE
  5
89F
330
1D
100
AcDbEntity
  8
0
100
AcDbLine
 10
132.155
 20
699.771
 30
0.0
 11
132.80184009193
 21
700.144336521636
 31
0.0
  0
LINE
  5
8A0
330
1D
100
AcDbEntity
  8
0
100
AcDbLine
 10
137.104
 20
702.536
 30
0.0
 11
140.049
 21
704.236
 31
0.0
  0
LINE
  5
8A3
330
1D
100
AcDbEntity
  8
0
100
AcDbLine
 10
140.049
 20
704.236
 30
0.0
 11
142.733
 21
705.786
 31
0.0
  0
LINE
  5
8A4
330
1D
100
AcDbEntity
  8
0
100
AcDbLine
 10
142.733
 20
705.786
 30
0.0
 11
145.072
 21
707.136
 31
0.0
  0
LINE
  5
8A7
330
1D
100
AcDbEntity
  8
0
100
AcDbLine
 10
145.072
 20
707.136
 30
0.0
 11
146.891
 21
708.186
 31
0.0
  0
LINE
  5
8A8
330
1D
100
AcDbEntity
  8
0
100
AcDbLine
 10
142.064
 20
887.293
 30
0.0
 11
142.328
 21
887.893
 31
0.0
  0
LINE
  5
8A9
330
1D
100
AcDbEntity
  8
0
100
AcDbLine
 10
142.064
 20
723.623219042499
 30
0.0
 11
142.064
 21
887.293
 31
0.0
  0
LINE
  5
8AA
330
1D
100
AcDbEntity
  8
0
100
AcDbLine
 10
142.328
 20
887.893
 30
0.0
 11
142.724
 21
887.893
 31
0.0
  0
LINE
  5
8AB
330
1D
100
AcDbEntity
  8
0
100
AcDbLine
 10
142.064
 20
888.278
 30
0.0
 11
142.46
 21
888.278
 31
0.0
  0
LINE
  5
8AC
330
1D
100
AcDbEntity
  8
0
100
AcDbLine
 10
142.064
 20
888.278
 30
0.0
 11
142.328
 21
887.893
 31
0.0
  0
LINE
  5
8AD
330
1D
100
AcDbEntity
  8
0
100
AcDbLine
 10
142.064
 20
888.278
 30
0.0
 11
142.064
 21
957.508
 31
0.0
  0
LINE
  5
8AE
330
1D
100
AcDbEntity
  8
0
100
AcDbLine
 10
142.724
 20
887.893
 30
0.0
 11
143.78
 21
887.893
 31
0.0
  0
LINE
  5
8AF
330
1D
100
AcDbEntity
  8
0
100
AcDbLine
 10
142.46
 20
888.278
 30
0.0
 11
143.516
 21
888.278
 31
0.0
  0
LINE
  5
8B0
330
1D
100
AcDbEntity
  8
0
100
AcDbLine
 10
143.78
 20
887.893
 30
0.0
 11
145.496
 21
887.893
 31
0.0
  0
LINE
  5
8B1
330
1D
100
AcDbEntity
  8
0
100
AcDbLine
 10
142.064
 20
957.508
 30
0.0
 11
142.064
 21
888.278
 31
0.0
  0
LINE
  5
8B2
330
1D
100
AcDbEntity
  8
0
100
AcDbLine
 10
142.064
 20
957.508
 30
0.0
 11
142.46
 21
957.508
 31
0.0
  0
LINE
  5
8B3
330
1D
100
AcDbEntity
  8
0
100
AcDbLine
 10
142.064
 20
957.508
 30
0.0
 11
142.328
 21
957.893
 31
0.0
  0
LINE
  5
8B4
330
1D
100
AcDbEntity
  8
0
100
AcDbLine
 10
142.46
 20
957.508
 30
0.0
 11
143.516
 21
957.508
 31
0.0
  0
LINE
  5
8B5
330
1D
100
AcDbEntity
  8
0
100
AcDbLine
 10
142.328
 20
957.893
 30
0.0
 11
142.724
 21
957.893
 31
0.0
  0
LINE
  5
8B6
330
1D
100
AcDbEntity
  8
0
100
AcDbLine
 10
142.724
 20
957.893
 30
0.0
 11
143.78
 21
957.893
 31
0.0
  0
LINE
  5
8B7
330
1D
100
AcDbEntity
  8
0
100
AcDbLine
 10
143.78
 20
957.893
 30
0.0
 11
145.496
 21
957.893
 31
0.0
  0
LINE
  5
8B8
330
1D
100
AcDbEntity
  8
0
100
AcDbLine
 10
143.516
 20
957.508
 30
0.0
 11
145.276
 21
957.508
 31
0.0
  0
LINE
  5
8B9
330
1D
100
AcDbEntity
  8
0
100
AcDbLine
 10
145.276
 20
957.508
 30
0.0
 11
147.608
 21
957.508
 31
0.0
  0
LINE
  5
8BA
330
1D
100
AcDbEntity
  8
0
100
AcDbLine
 10
143.516
 20
888.278
 30
0.0
 11
145.276
 21
888.278
 31
0.0
  0
LINE
  5
8BB
330
1D
100
AcDbEntity
  8
0
100
AcDbLine
 10
145.496
 20
957.893
 30
0.0
 11
147.74
 21
957.893
 31
0.0
  0
LINE
  5
8BC
330
1D
100
AcDbEntity
  8
0
100
AcDbLine
 10
145.496
 20
887.893
 30
0.0
 11
147.74
 21
887.893
 31
0.0
  0
LINE
  5
8BD
330
1D
100
AcDbEntity
  8
0
100
AcDbLine
 10
145.276
 20
888.278
 30
0.0
 11
147.608
 21
888.278
 31
0.0
  0
LINE
  5
8BF
330
1D
100
AcDbEntity
  8
0
100
AcDbLine
 10
146.891
 20
708.186
 30
0.0
 11
147.93
 21
708.786
 31
0.0
  0
LINE
  5
8C0
330
1D
100
AcDbEntity
  8
0
100
AcDbLine
 10
147.608
 20
957.508
 30
0.0
 11
150.248
 21
957.508
 31
0.0
  0
LINE
  5
8C1
330
1D
100
AcDbEntity
  8
0
100
AcDbLine
 10
147.74
 20
957.893
 30
0.0
 11
150.292
 21
957.893
 31
0.0
  0
LINE
  5
8C2
330
1D
100
AcDbEntity
  8
0
100
AcDbLine
 10
147.74
 20
887.893
 30
0.0
 11
150.292
 21
887.893
 31
0.0
  0
LINE
  5
8C3
330
1D
100
AcDbEntity
  8
0
100
AcDbLine
 10
147.608
 20
888.278
 30
0.0
 11
150.248
 21
888.278
 31
0.0
  0
LINE
  5
8C5
330
1D
100
AcDbEntity
  8
0
100
AcDbLine
 10
147.93
 20
708.786
 30
0.0
 11
148.363
 21
709.036
 31
0.0
  0
LINE
  5
8C6
330
1D
100
AcDbEntity
  8
0
100
AcDbLine
 10
148.363
 20
709.036
 30
0.0
 11
165.863
 21
678.725
 31
0.0
  0
LINE
  5
8C7
330
1D
100
AcDbEntity
  8
0
100
AcDbLine
 10
152.631
 20
701.703
 30
0.0
 11
152.636273357033
 21
701.63444635857
 31
0.0
  0
LINE
  5
8C9
330
1D
100
AcDbEntity
  8
0
100
AcDbLine
 10
150.248
 20
957.508
 30
0.0
 11
153.064
 21
957.508
 31
0.0
  0
LINE
  5
8CA
330
1D
100
AcDbEntity
  8
0
100
AcDbLine
 10
163.8
 20
887.893
 30
0.0
 11
164.064
 21
887.293
 31
0.0
  0
LINE
  5
8CB
330
1D
100
AcDbEntity
  8
0
100
AcDbLine
 10
163.8
 20
887.893
 30
0.0
 11
188.064
 21
887.893
 31
0.0
  0
LINE
  5
8CC
330
1D
100
AcDbEntity
  8
0
100
AcDbLine
 10
163.404
 20
887.893
 30
0.0
 11
163.8
 21
887.893
 31
0.0
  0
LINE
  5
8CD
330
1D
100
AcDbEntity
  8
0
100
AcDbLine
 10
162.348
 20
887.893
 30
0.0
 11
163.404
 21
887.893
 31
0.0
  0
LINE
  5
8CE
330
1D
100
AcDbEntity
  8
0
100
AcDbLine
 10
160.632
 20
887.893
 30
0.0
 11
162.348
 21
887.893
 31
0.0
  0
LINE
  5
8CF
330
1D
100
AcDbEntity
  8
0
100
AcDbLine
 10
158.388
 20
887.893
 30
0.0
 11
160.632
 21
887.893
 31
0.0
  0
LINE
  5
8D0
330
1D
100
AcDbEntity
  8
0
100
AcDbLine
 10
155.836
 20
887.893
 30
0.0
 11
158.388
 21
887.893
 31
0.0
  0
LINE
  5
8D1
330
1D
100
AcDbEntity
  8
0
100
AcDbLine
 10
155.836
 20
887.893
 30
0.0
 11
188.064
 21
887.893
 31
0.0
  0
LINE
  5
8D2
330
1D
100
AcDbEntity
  8
0
100
AcDbLine
 10
153.064
 20
887.893
 30
0.0
 11
155.836
 21
887.893
 31
0.0
  0
LINE
  5
8D3
330
1D
100
AcDbEntity
  8
0
100
AcDbLine
 10
153.064
 20
957.893
 30
0.0
 11
155.836
 21
957.893
 31
0.0
  0
LINE
  5
8D4
330
1D
100
AcDbEntity
  8
0
100
AcDbLine
 10
153.064
 20
957.508
 30
0.0
 11
155.88
 21
957.508
 31
0.0
  0
LINE
  5
8D5
330
1D
100
AcDbEntity
  8
0
100
AcDbLine
 10
150.292
 20
957.893
 30
0.0
 11
153.064
 21
957.893
 31
0.0
  0
LINE
  5
8D6
330
1D
100
AcDbEntity
  8
0
100
AcDbLine
 10
155.836
 20
957.893
 30
0.0
 11
158.388
 21
957.893
 31
0.0
  0
LINE
  5
8D7
330
1D
100
AcDbEntity
  8
0
100
AcDbLine
 10
156.818662429583
 20
932.893
 30
0.0
 11
188.064
 21
932.893
 31
0.0
  0
LINE
  5
8D8
330
1D
100
AcDbEntity
  8
0
100
AcDbLine
 10
164.064
 20
957.508
 30
0.0
 11
164.064
 21
932.893
 31
0.0
  0
LINE
  5
8D9
330
1D
100
AcDbEntity
  8
0
100
AcDbLine
 10
163.668
 20
957.508
 30
0.0
 11
164.064
 21
957.508
 31
0.0
  0
LINE
  5
8DA
330
1D
100
AcDbEntity
  8
0
100
AcDbLine
 10
164.064
 20
932.893
 30
0.0
 11
164.064
 21
957.508
 31
0.0
  0
LINE
  5
8DB
330
1D
100
AcDbEntity
  8
0
100
AcDbLine
 10
162.612
 20
957.508
 30
0.0
 11
163.668
 21
957.508
 31
0.0
  0
LINE
  5
8DC
330
1D
100
AcDbEntity
  8
0
100
AcDbLine
 10
160.852
 20
957.508
 30
0.0
 11
162.612
 21
957.508
 31
0.0
  0
LINE
  5
8DD
330
1D
100
AcDbEntity
  8
0
100
AcDbLine
 10
163.8
 20
957.893
 30
0.0
 11
164.064
 21
957.508
 31
0.0
  0
LINE
  5
8DE
330
1D
100
AcDbEntity
  8
0
100
AcDbLine
 10
163.404
 20
957.893
 30
0.0
 11
163.8
 21
957.893
 31
0.0
  0
LINE
  5
8DF
330
1D
100
AcDbEntity
  8
0
100
AcDbLine
 10
162.348
 20
957.893
 30
0.0
 11
163.404
 21
957.893
 31
0.0
  0
LINE
  5
8E0
330
1D
100
AcDbEntity
  8
0
100
AcDbLine
 10
160.632
 20
957.893
 30
0.0
 11
162.348
 21
957.893
 31
0.0
  0
LINE
  5
8E1
330
1D
100
AcDbEntity
  8
0
100
AcDbLine
 10
158.388
 20
957.893
 30
0.0
 11
160.632
 21
957.893
 31
0.0
  0
LINE
  5
8E2
330
1D
100
AcDbEntity
  8
0
100
AcDbLine
 10
158.52
 20
957.508
 30
0.0
 11
160.852
 21
957.508
 31
0.0
  0
LINE
  5
8E3
330
1D
100
AcDbEntity
  8
0
100
AcDbLine
 10
155.88
 20
957.508
 30
0.0
 11
158.52
 21
957.508
 31
0.0
  0
LINE
  5
8E4
330
1D
100
AcDbEntity
  8
0
100
AcDbLine
 10
155.88
 20
888.278
 30
0.0
 11
158.52
 21
888.278
 31
0.0
  0
LINE
  5
8E5
330
1D
100
AcDbEntity
  8
0
100
AcDbLine
 10
153.064
 20
888.278
 30
0.0
 11
155.88
 21
888.278
 31
0.0
  0
LINE
  5
8E6
330
1D
100
AcDbEntity
  8
0
100
AcDbLine
 10
150.292
 20
887.893
 30
0.0
 11
153.064
 21
887.893
 31
0.0
  0
LINE
  5
8E7
330
1D
100
AcDbEntity
  8
0
100
AcDbLine
 10
150.248
 20
888.278
 30
0.0
 11
153.064
 21
888.278
 31
0.0
  0
LINE
  5
8EE
330
1D
100
AcDbEntity
  8
0
100
AcDbLine
 10
166.964
 20
337.893
 30
0.0
 11
169.764
 21
337.893
 31
0.0
  0
LINE
  5
8EF
330
1D
100
AcDbEntity
  8
0
100
AcDbLine
 10
98.564
 20
337.893
 30
0.0
 11
107.064
 21
337.893
 31
0.0
  0
LINE
  5
8F0
330
1D
100
AcDbEntity
  8
0
100
AcDbLine
 10
42.564
 20
313.393
 30
0.0
 11
43.564
 21
312.393
 31
0.0
  0
LINE
  5
8F1
330
1D
100
AcDbEntity
  8
0
100
AcDbLine
 10
43.564
 20
312.393
 30
0.0
 11
45.064
 21
311.893
 31
0.0
  0
LINE
  5
8F2
330
1D
100
AcDbEntity
  8
0
100
AcDbLine
 10
43.564
 20
312.393
 30
0.0
 11
44.164
 21
312.393
 31
0.0
  0
LINE
  5
8F3
330
1D
100
AcDbEntity
  8
0
100
AcDbLine
 10
189.739
 20
0.615
 30
0.0
 11
192.131
 21
1.566
 31
0.0
  0
LINE
  5
8F4
330
1D
100
AcDbEntity
  8
0
100
AcDbLine
 10
186.833
 20
0.107
 30
0.0
 11
189.739
 21
0.615
 31
0.0
  0
LINE
  5
8F5
330
1D
100
AcDbEntity
  8
0
100
AcDbLine
 10
183.69
 20
0.236
 30
0.0
 11
186.833
 21
0.107
 31
0.0
  0
LINE
  5
8F6
330
1D
100
AcDbEntity
  8
0
100
AcDbLine
 10
193.56
 20
2.94
 30
0.0
 11
193.823
 21
4.482
 31
0.0
  0
LINE
  5
8F7
330
1D
100
AcDbEntity
  8
0
100
AcDbLine
 10
192.131
 20
1.566
 30
0.0
 11
193.56
 21
2.94
 31
0.0
  0
LINE
  5
8F8
330
1D
100
AcDbEntity
  8
0
100
AcDbLine
 10
180.891
 20
0.939
 30
0.0
 11
183.69
 21
0.236
 31
0.0
  0
LINE
  5
8F9
330
1D
100
AcDbEntity
  8
0
100
AcDbLine
 10
178.951
 20
2.115
 30
0.0
 11
180.891
 21
0.939
 31
0.0
  0
LINE
  5
8FA
330
1D
100
AcDbEntity
  8
0
100
AcDbLine
 10
192.793
 20
5.91
 30
0.0
 11
193.823
 21
4.482
 31
0.0
  0
LINE
  5
8FB
330
1D
100
AcDbEntity
  8
0
100
AcDbLine
 10
190.857
 20
7.086
 30
0.0
 11
192.793
 21
5.91
 31
0.0
  0
LINE
  5
8FC
330
1D
100
AcDbEntity
  8
0
100
AcDbLine
 10
188.063
 20
7.789
 30
0.0
 11
190.857
 21
7.086
 31
0.0
  0
LINE
  5
8FD
330
1D
100
AcDbEntity
  8
0
100
AcDbLine
 10
184.92
 20
7.921
 30
0.0
 11
188.063
 21
7.789
 31
0.0
  0
LINE
  5
8FE
330
1D
100
AcDbEntity
  8
0
100
AcDbLine
 10
182.01
 20
7.415
 30
0.0
 11
184.92
 21
7.921
 31
0.0
  0
LINE
  5
8FF
330
1D
100
AcDbEntity
  8
0
100
AcDbLine
 10
179.615
 20
6.463
 30
0.0
 11
182.01
 21
7.415
 31
0.0
  0
LINE
  5
900
330
1D
100
AcDbEntity
  8
0
100
AcDbLine
 10
178.182
 20
5.09
 30
0.0
 11
179.615
 21
6.463
 31
0.0
  0
LINE
  5
901
330
1D
100
AcDbEntity
  8
0
100
AcDbLine
 10
177.917
 20
3.545
 30
0.0
 11
178.951
 21
2.115
 31
0.0
  0
LINE
  5
902
330
1D
100
AcDbEntity
  8
0
100
AcDbLine
 10
177.917
 20
3.545
 30
0.0
 11
178.182
 21
5.09
 31
0.0
  0
LINE
  5
903
330
1D
100
AcDbEntity
  8
0
100
AcDbLine
 10
169.964
 20
312.393
 30
0.0
 11
170.564
 21
312.393
 31
0.0
  0
LINE
  5
904
330
1D
100
AcDbEntity
  8
0
100
AcDbLine
 10
169.764
 20
337.893
 30
0.0
 11
171.364
 21
337.893
 31
0.0
  0
LINE
  5
905
330
1D
100
AcDbEntity
  8
0
100
AcDbLine
 10
171.364
 20
337.893
 30
0.0
 11
172.064
 21
337.893
 31
0.0
  0
LINE
  5
906
330
1D
100
AcDbEntity
  8
0
100
AcDbLine
 10
172.064
 20
314.893
 30
0.0
 11
172.064
 21
337.893
 31
0.0
  0
LINE
  5
907
330
1D
100
AcDbEntity
  8
0
100
AcDbLine
 10
175.714
 20
557.051
 30
0.0
 11
177.515
 21
525.449
 31
0.0
  0
LINE
  5
908
330
1D
100
AcDbEntity
  8
0
100
AcDbLine
 10
172.815
 20
578.747
 30
0.0
 11
175.714
 21
557.051
 31
0.0
  0
LINE
  5
909
330
1D
100
AcDbEntity
  8
0
100
AcDbLine
 10
177.515
 20
525.449
 30
0.0
 11
177.917
 21
3.545
 31
0.0
  0
LINE
  5
90A
330
1D
100
AcDbEntity
  8
0
100
AcDbLine
 10
177.515
 20
525.449
 30
0.0
 11
177.917
 21
3.545
 31
0.0
  0
LINE
  5
90B
330
1D
100
AcDbEntity
  8
0
100
AcDbLine
 10
193.515
 20
525.453
 30
0.0
 11
193.823
 21
4.482
 31
0.0
  0
LINE
  5
90C
330
1D
100
AcDbEntity
  8
0
100
AcDbLine
 10
193.515
 20
525.453
 30
0.0
 11
193.823
 21
4.482
 31
0.0
  0
LINE
  5
90D
330
1D
100
AcDbEntity
  8
0
100
AcDbLine
 10
191.515
 20
559.854
 30
0.0
 11
193.515
 21
525.453
 31
0.0
  0
LINE
  5
90E
330
1D
100
AcDbEntity
  8
0
100
AcDbLine
 10
187.815
 20
584.252
 30
0.0
 11
191.515
 21
559.854
 31
0.0
  0
LINE
  5
90F
330
1D
100
AcDbEntity
  8
0
100
AcDbLine
 10
188.064
 20
932.893
 30
0.0
 11
188.064
 21
887.893
 31
0.0
  0
LINE
  5
910
330
1D
100
AcDbEntity
  8
0
100
AcDbLine
 10
188.064
 20
887.893
 30
0.0
 11
188.064
 21
932.893
 31
0.0
  0
LINE
  5
911
330
1D
100
AcDbEntity
  8
0
100
AcDbLine
 10
182.715
 20
609.65
 30
0.0
 11
187.815
 21
584.252
 31
0.0
  0
LINE
  5
912
330
1D
100
AcDbEntity
  8
0
100
AcDbLine
 10
175.915
 20
635.357
 30
0.0
 11
182.715
 21
609.65
 31
0.0
  0
LINE
  5
913
330
1D
100
AcDbEntity
  8
0
100
AcDbLine
 10
172.064
 20
337.893
 30
0.0
 11
172.064
 21
314.893
 31
0.0
  0
LINE
  5
914
330
1D
100
AcDbEntity
  8
0
100
AcDbLine
 10
171.564
 20
313.393
 30
0.0
 11
172.064
 21
314.893
 31
0.0
  0
LINE
  5
915
330
1D
100
AcDbEntity
  8
0
100
AcDbLine
 10
170.564
 20
312.393
 30
0.0
 11
171.564
 21
313.393
 31
0.0
  0
LINE
  5
916
330
1D
100
AcDbEntity
  8
0
100
AcDbLine
 10
169.064
 20
311.893
 30
0.0
 11
170.564
 21
312.393
 31
0.0
  0
LINE
  5
917
330
1D
100
AcDbEntity
  8
0
100
AcDbLine
 10
169.064
 20
311.893
 30
0.0
 11
169.064
 21
312.035857142857
 31
0.0
  0
LINE
  5
D08
330
1D
100
AcDbEntity
  8
0
100
AcDbLine
 10
14.2184
 20
848.3201
 30
0.0
 11
15.289277620646
 21
849.468545589062
 31
0.0
  0
LINE
  5
D09
330
1D
100
AcDbEntity
  8
0
100
AcDbLine
 10
14.5846
 20
845.6541
 30
0.0
 11
15.937391795692
 21
847.104879940424
 31
0.0
  0
LINE
  5
D0A
330
1D
100
AcDbEntity
  8
0
100
AcDbLine
 10
14.374894219486
 20
848.487929724534
 30
0.0
 11
14.481753616386
 21
848.403167962674
 31
0.0
  0
LINE
  5
D0B
330
1D
100
AcDbEntity
  8
0
100
AcDbLine
 10
11.5091
 20
850.8461
 30
0.0
 11
12.494708085547
 21
851.903099638957
 31
0.0
  0
LINE
  5
D0C
330
1D
100
AcDbEntity
  8
0
100
AcDbLine
 10
11.18
 20
851.1531
 30
0.0
 11
11.5091
 21
850.8461
 31
0.0
  0
LINE
  5
D0D
330
1D
100
AcDbEntity
  8
0
100
AcDbLine
 10
12.0244
 20
850.3661
 30
0.0
 11
12.3535
 21
850.0591
 31
0.0
  0
LINE
  5
D0E
330
1D
100
AcDbEntity
  8
0
100
AcDbLine
 10
12.0244
 20
850.3661
 30
0.0
 11
13.460177374918
 21
851.905921654616
 31
0.0
  0
LINE
  5
D0F
330
1D
100
AcDbEntity
  8
0
100
AcDbLine
 10
12.0244
 20
850.3661
 30
0.0
 11
12.712909868956
 21
851.104503058967
 31
0.0
  0
LINE
  5
D10
330
1D
100
AcDbEntity
  8
0
100
AcDbLine
 10
12.0244
 20
850.3661
 30
0.0
 11
12.712909868956
 21
851.104503058967
 31
0.0
  0
LINE
  5
D11
330
1D
100
AcDbEntity
  8
0
100
AcDbLine
 10
12.3535
 20
850.0591
 30
0.0
 11
13.1214
 21
849.3431
 31
0.0
  0
LINE
  5
D12
330
1D
100
AcDbEntity
  8
0
100
AcDbLine
 10
10.606102304476
 20
851.6882097148
 30
0.0
 11
11.18
 21
851.1531
 31
0.0
  0
LINE
  5
D13
330
1D
100
AcDbEntity
  8
0
100
AcDbLine
 10
12.288392216347
 20
851.681839482458
 30
0.0
 11
12.712909868956
 21
851.104503058967
 31
0.0
  0
LINE
  5
D14
330
1D
100
AcDbEntity
  8
0
100
AcDbLine
 10
12.288392216347
 20
851.681839482458
 30
0.0
 11
12.712909868956
 21
851.104503058967
 31
0.0
  0
LINE
  5
D15
330
1D
100
AcDbEntity
  8
0
100
AcDbLine
 10
10.4121
 20
851.8691
 30
0.0
 11
11.18
 21
851.1531
 31
0.0
  0
LINE
  5
D16
330
1D
100
AcDbEntity
  8
0
100
AcDbLine
 10
12.41699461366
 20
851.81975706808
 30
0.0
 11
12.6438
 21
851.5711
 31
0.0
  0
LINE
  5
D17
330
1D
100
AcDbEntity
  8
0
100
AcDbLine
 10
13.8893
 20
848.6271
 30
0.0
 11
14.2184
 21
848.3201
 31
0.0
  0
LINE
  5
D18
330
1D
100
AcDbEntity
  8
0
100
AcDbLine
 10
13.1214
 20
849.3431
 30
0.0
 11
13.8893
 21
848.6271
 31
0.0
  0
LINE
  5
D19
330
1D
100
AcDbEntity
  8
0
100
AcDbLine
 10
14.798858679974
 20
848.942603634212
 30
0.0
 11
15.3406
 21
848.5071
 31
0.0
  0
LINE
  5
D1A
330
1D
100
AcDbEntity
  8
0
100
AcDbLine
 10
13.214563517218
 20
851.642509273723
 30
0.0
 11
13.460177374918
 21
851.905921654616
 31
0.0
  0
LINE
  5
D1B
330
1D
100
AcDbEntity
  8
0
100
AcDbLine
 10
14.1029
 20
851.1301
 30
0.0
 11
14.9391
 21
849.9901
 31
0.0
  0
LINE
  5
D1C
330
1D
100
AcDbEntity
  8
0
100
AcDbLine
 10
12.6438
 20
851.5711
 30
0.0
 11
12.6998
 21
851.5671
 31
0.0
  0
LINE
  5
D1D
330
1D
100
AcDbEntity
  8
0
100
AcDbLine
 10
14.394901962888
 20
848.509386709173
 30
0.0
 11
14.8146
 21
847.9961
 31
0.0
  0
LINE
  5
D1E
330
1D
100
AcDbEntity
  8
0
100
AcDbLine
 10
14.9312
 20
851.0741
 30
0.0
 11
15.2603
 21
850.7671
 31
0.0
  0
LINE
  5
D1F
330
1D
100
AcDbEntity
  8
0
100
AcDbLine
 10
14.9312
 20
851.0741
 30
0.0
 11
16.257625342881
 21
852.496214678467
 31
0.0
  0
LINE
  5
D20
330
1D
100
AcDbEntity
  8
0
100
AcDbLine
 10
15.02892518499
 20
849.189334780502
 30
0.0
 11
15.3091
 21
848.5811
 31
0.0
  0
LINE
  5
D21
330
1D
100
AcDbEntity
  8
0
100
AcDbLine
 10
15.2603
 20
850.7671
 30
0.0
 11
16.0282
 21
850.0511
 31
0.0
  0
LINE
  5
D22
330
1D
100
AcDbEntity
  8
0
100
AcDbLine
 10
15.096726557428
 20
849.262047278743
 30
0.0
 11
15.3592
 21
848.9701
 31
0.0
  0
LINE
  5
D23
330
1D
100
AcDbEntity
  8
0
100
AcDbLine
 10
14.9391
 20
849.9901
 30
0.0
 11
15.5004
 21
849.1541
 31
0.0
  0
LINE
  5
D24
330
1D
100
AcDbEntity
  8
0
100
AcDbLine
 10
14.8146
 20
847.9961
 30
0.0
 11
15.6631
 21
846.9601
 31
0.0
  0
LINE
  5
D25
330
1D
100
AcDbEntity
  8
0
100
AcDbLine
 10
9.40683201335
 20
852.806502667502
 30
0.0
 11
9.50901
 21
852.7111
 31
0.0
  0
LINE
  5
D26
330
1D
100
AcDbEntity
  8
0
100
AcDbLine
 10
9.40683201335
 20
852.806502667502
 30
0.0
 11
9.50901
 21
852.7111
 31
0.0
  0
LINE
  5
D27
330
1D
100
AcDbEntity
  8
0
100
AcDbLine
 10
9.50901
 20
852.7111
 30
0.0
 11
10.2769
 21
851.9951
 31
0.0
  0
LINE
  5
D28
330
1D
100
AcDbEntity
  8
0
100
AcDbLine
 10
8.41198
 20
853.7341
 30
0.0
 11
8.74109
 21
853.4281
 31
0.0
  0
LINE
  5
D29
330
1D
100
AcDbEntity
  8
0
100
AcDbLine
 10
8.41198
 20
853.7341
 30
0.0
 11
9.736276068808
 21
855.154311823869
 31
0.0
  0
LINE
  5
D2A
330
1D
100
AcDbEntity
  8
0
100
AcDbLine
 10
8.41198
 20
853.7341
 30
0.0
 11
9.736276068808
 21
855.154311823869
 31
0.0
  0
LINE
  5
D2B
330
1D
100
AcDbEntity
  8
0
100
AcDbLine
 10
8.74109
 20
853.4281
 30
0.0
 11
9.315109895198
 21
852.892142784591
 31
0.0
  0
LINE
  5
D2C
330
1D
100
AcDbEntity
  8
0
100
AcDbLine
 10
9.31507
 20
852.8921
 30
0.0
 11
9.64418
 21
852.5851
 31
0.0
  0
LINE
  5
D2D
330
1D
100
AcDbEntity
  8
0
100
AcDbLine
 10
9.31507
 20
852.8921
 30
0.0
 11
10.692076688487
 21
854.368835823379
 31
0.0
  0
LINE
  5
D2E
330
1D
100
AcDbEntity
  8
0
100
AcDbLine
 10
9.31507
 20
852.8921
 30
0.0
 11
9.40683201335
 21
852.806502667502
 31
0.0
  0
LINE
  5
D2F
330
1D
100
AcDbEntity
  8
0
100
AcDbLine
 10
9.31507
 20
852.8921
 30
0.0
 11
9.40683201335
 21
852.806502667502
 31
0.0
  0
LINE
  5
D30
330
1D
100
AcDbEntity
  8
0
100
AcDbLine
 10
10.2769
 20
851.9951
 30
0.0
 11
10.606
 21
851.6881
 31
0.0
  0
LINE
  5
D31
330
1D
100
AcDbEntity
  8
0
100
AcDbLine
 10
11.9167
 20
853.8851
 30
0.0
 11
12.2458
 21
853.5781
 31
0.0
  0
LINE
  5
D32
330
1D
100
AcDbEntity
  8
0
100
AcDbLine
 10
12.2458
 20
853.5781
 30
0.0
 11
13.119166545773
 21
854.514471874295
 31
0.0
  0
LINE
  5
D33
330
1D
100
AcDbEntity
  8
0
100
AcDbLine
 10
12.2458
 20
853.5781
 30
0.0
 11
13.119166545773
 21
854.514471874295
 31
0.0
  0
LINE
  5
D34
330
1D
100
AcDbEntity
  8
0
100
AcDbLine
 10
12.6944
 20
852.7161
 30
0.0
 11
13.1941
 21
852.2271
 31
0.0
  0
LINE
  5
D35
330
1D
100
AcDbEntity
  8
0
100
AcDbLine
 10
12.5722
 20
852.7031
 30
0.0
 11
12.881
 21
852.1301
 31
0.0
  0
LINE
  5
D36
330
1D
100
AcDbEntity
  8
0
100
AcDbLine
 10
12.5722
 20
852.7031
 30
0.0
 11
12.6944
 21
852.7161
 31
0.0
  0
LINE
  5
D37
330
1D
100
AcDbEntity
  8
0
100
AcDbLine
 10
12.4825
 20
851.9231
 30
0.0
 11
12.6998
 21
851.5671
 31
0.0
  0
LINE
  5
D38
330
1D
100
AcDbEntity
  8
0
100
AcDbLine
 10
11.9755
 20
852.6611
 30
0.0
 11
12.4825
 21
851.9231
 31
0.0
  0
LINE
  5
D39
330
1D
100
AcDbEntity
  8
0
100
AcDbLine
 10
11.3488
 20
853.5131
 30
0.0
 11
11.9755
 21
852.6611
 31
0.0
  0
LINE
  5
D3A
330
1D
100
AcDbEntity
  8
0
100
AcDbLine
 10
10.0997
 20
854.9771
 30
0.0
 11
10.584107035362
 21
854.253046513174
 31
0.0
  0
LINE
  5
D3B
330
1D
100
AcDbEntity
  8
0
100
AcDbLine
 10
10.0997
 20
854.9771
 30
0.0
 11
10.1064
 21
855.0681
 31
0.0
  0
LINE
  5
D3C
330
1D
100
AcDbEntity
  8
0
100
AcDbLine
 10
10.0518
 20
855.6241
 30
0.0
 11
10.3809
 21
855.3171
 31
0.0
  0
LINE
  5
D3D
330
1D
100
AcDbEntity
  8
0
100
AcDbLine
 10
10.0518
 20
855.6241
 30
0.0
 11
11.394942460291
 21
857.064137781474
 31
0.0
  0
LINE
  5
D3E
330
1D
100
AcDbEntity
  8
0
100
AcDbLine
 10
9.702825196163
 20
855.199699539463
 30
0.0
 11
9.73620215954
 21
855.154232561522
 31
0.0
  0
LINE
  5
D3F
330
1D
100
AcDbEntity
  8
0
100
AcDbLine
 10
11.1488
 20
854.6011
 30
0.0
 11
11.9167
 21
853.8851
 31
0.0
  0
LINE
  5
D40
330
1D
100
AcDbEntity
  8
0
100
AcDbLine
 10
10.3809
 20
855.3171
 30
0.0
 11
11.1488
 21
854.6011
 31
0.0
  0
LINE
  5
D41
330
1D
100
AcDbEntity
  8
0
100
AcDbLine
 10
10.1064
 20
855.0681
 30
0.0
 11
10.6182
 21
854.4651
 31
0.0
  0
LINE
  5
D42
330
1D
100
AcDbEntity
  8
0
100
AcDbLine
 10
10.6182
 20
854.4651
 30
0.0
 11
11.3488
 21
853.5131
 31
0.0
  0
LINE
  5
D43
330
1D
100
AcDbEntity
  8
0
100
AcDbLine
 10
9.68779
 20
855.2201
 30
0.0
 11
10.481561242978
 21
854.143073884562
 31
0.0
  0
LINE
  5
D44
330
1D
100
AcDbEntity
  8
0
100
AcDbLine
 10
6.40262
 20
859.0271
 30
0.0
 11
7.171042342145
 21
859.850961747835
 31
0.0
  0
LINE
  5
D45
330
1D
100
AcDbEntity
  8
0
100
AcDbLine
 10
4.402
 20
860.8921
 30
0.0
 11
6.40262
 21
859.0271
 31
0.0
  0
LINE
  5
D46
330
1D
100
AcDbEntity
  8
0
100
AcDbLine
 10
6.49765
 20
858.9381
 30
0.0
 11
6.82676
 21
858.6311
 31
0.0
  0
LINE
  5
D47
330
1D
100
AcDbEntity
  8
0
100
AcDbLine
 10
6.49765
 20
858.9381
 30
0.0
 11
7.768189832878
 21
860.300690116815
 31
0.0
  0
LINE
  5
D48
330
1D
100
AcDbEntity
  8
0
100
AcDbLine
 10
6.82676
 20
858.6311
 30
0.0
 11
7.59468
 21
857.9151
 31
0.0
  0
LINE
  5
D49
330
1D
100
AcDbEntity
  8
0
100
AcDbLine
 10
7.59468
 20
857.9151
 30
0.0
 11
8.3626
 21
857.1991
 31
0.0
  0
LINE
  5
D4A
330
1D
100
AcDbEntity
  8
0
100
AcDbLine
 10
7.59468
 20
857.9151
 30
0.0
 11
8.048378545974
 21
857.492076561468
 31
0.0
  0
LINE
  5
D4B
330
1D
100
AcDbEntity
  8
0
100
AcDbLine
 10
8.048378545974
 20
857.492076561468
 30
0.0
 11
8.87236
 21
856.1641
 31
0.0
  0
LINE
  5
D4C
330
1D
100
AcDbEntity
  8
0
100
AcDbLine
 10
8.69171
 20
856.8921
 30
0.0
 11
9.451530379486
 21
857.706959611841
 31
0.0
  0
LINE
  5
D4D
330
1D
100
AcDbEntity
  8
0
100
AcDbLine
 10
8.3626
 20
857.1991
 30
0.0
 11
8.69171
 21
856.8921
 31
0.0
  0
LINE
  5
D4E
330
1D
100
AcDbEntity
  8
0
100
AcDbLine
 10
8.87236
 20
856.1641
 30
0.0
 11
9.15335
 21
855.9461
 31
0.0
  0
LINE
  5
D4F
330
1D
100
AcDbEntity
  8
0
100
AcDbLine
 10
9.0943
 20
858.3541
 30
0.0
 11
9.57676
 21
857.4801
 31
0.0
  0
LINE
  5
D50
330
1D
100
AcDbEntity
  8
0
100
AcDbLine
 10
8.257
 20
859.6411
 30
0.0
 11
9.0943
 21
858.3541
 31
0.0
  0
LINE
  5
D51
330
1D
100
AcDbEntity
  8
0
100
AcDbLine
 10
9.49332
 20
857.2711
 30
0.0
 11
9.64931
 21
857.1891
 31
0.0
  0
LINE
  5
D52
330
1D
100
AcDbEntity
  8
0
100
AcDbLine
 10
9.272672057988
 20
857.515145301031
 30
0.0
 11
9.49332
 21
857.2711
 31
0.0
  0
LINE
  5
D53
330
1D
100
AcDbEntity
  8
0
100
AcDbLine
 10
9.57676
 20
857.4801
 30
0.0
 11
9.64931
 21
857.1891
 31
0.0
  0
LINE
  5
D54
330
1D
100
AcDbEntity
  8
0
100
AcDbLine
 10
3.30497
 20
861.9151
 30
0.0
 11
3.63407
 21
861.6081
 31
0.0
  0
LINE
  5
D55
330
1D
100
AcDbEntity
  8
0
100
AcDbLine
 10
3.30497
 20
861.9151
 30
0.0
 11
4.530875436589
 21
863.229806547997
 31
0.0
  0
LINE
  5
D56
330
1D
100
AcDbEntity
  8
0
100
AcDbLine
 10
3.63407
 20
861.6081
 30
0.0
 11
4.402
 21
860.8921
 31
0.0
  0
LINE
  5
D57
330
1D
100
AcDbEntity
  8
0
100
AcDbLine
 10
4.79665
 20
862.8161
 30
0.0
 11
5.219718515047
 21
862.157207440495
 31
0.0
  0
LINE
  5
D58
330
1D
100
AcDbEntity
  8
0
100
AcDbLine
 10
4.35916
 20
863.4971
 30
0.0
 11
4.79665
 21
862.8161
 31
0.0
  0
LINE
  5
D59
330
1D
100
AcDbEntity
  8
0
100
AcDbLine
 10
7.12752
 20
859.9401
 30
0.0
 11
7.247469638175
 21
859.742243878006
 31
0.0
  0
LINE
  5
D5A
330
1D
100
AcDbEntity
  8
0
100
AcDbLine
 10
7.12752
 20
859.9401
 30
0.0
 11
7.246808769282
 21
859.741535129331
 31
0.0
  0
LINE
  5
D5B
330
1D
100
AcDbEntity
  8
0
100
AcDbLine
 10
6.51829
 20
860.8221
 30
0.0
 11
7.12752
 21
859.9401
 31
0.0
  0
LINE
  5
D5C
330
1D
100
AcDbEntity
  8
0
100
AcDbLine
 10
5.38577
 20
862.5321
 30
0.0
 11
5.89412
 21
861.7821
 31
0.0
  0
LINE
  5
D5D
330
1D
100
AcDbEntity
  8
0
100
AcDbLine
 10
5.09856
 20
862.9311
 30
0.0
 11
5.13218
 21
862.8841
 31
0.0
  0
LINE
  5
D5E
330
1D
100
AcDbEntity
  8
0
100
AcDbLine
 10
5.89412
 20
861.7821
 30
0.0
 11
6.51829
 21
860.8221
 31
0.0
  0
LINE
  5
D5F
330
1D
100
AcDbEntity
  8
0
100
AcDbLine
 10
7.16451
 20
860.9921
 30
0.0
 11
7.19168
 21
860.6821
 31
0.0
  0
LINE
  5
D60
330
1D
100
AcDbEntity
  8
0
100
AcDbLine
 10
7.16451
 20
860.9921
 30
0.0
 11
7.613
 21
860.5101
 31
0.0
  0
LINE
  5
D61
330
1D
100
AcDbEntity
  8
0
100
AcDbLine
 10
7.19168
 20
860.6821
 30
0.0
 11
7.40219
 21
860.2721
 31
0.0
  0
LINE
  5
D62
330
1D
100
AcDbEntity
  8
0
100
AcDbLine
 10
7.40219
 20
860.2721
 30
0.0
 11
7.533524056805
 21
860.049022865654
 31
0.0
  0
LINE
  5
D63
330
1D
100
AcDbEntity
  8
0
100
AcDbLine
 10
3.38834
 20
866.9761
 30
0.0
 11
4.87408
 21
865.5911
 31
0.0
  0
LINE
  5
D64
330
1D
100
AcDbEntity
  8
0
100
AcDbLine
 10
1.51832
 20
868.7211
 30
0.0
 11
2.22819
 21
868.0581
 31
0.0
  0
LINE
  5
D65
330
1D
100
AcDbEntity
  8
0
100
AcDbLine
 10
2.22819
 20
868.0581
 30
0.0
 11
3.38834
 21
866.9761
 31
0.0
  0
LINE
  5
D66
330
1D
100
AcDbEntity
  8
0
100
AcDbLine
 10
1.383705075907
 20
868.846756207652
 30
0.0
 11
4.17821
 21
863.7801
 31
0.0
  0
LINE
  5
D67
330
1D
100
AcDbEntity
  8
0
100
AcDbLine
 10
0.83708
 20
869.3451
 30
0.0
 11
1.0724
 21
869.1371
 31
0.0
  0
LINE
  5
D68
330
1D
100
AcDbEntity
  8
0
100
AcDbLine
 10
0.71747
 20
869.4721
 30
0.0
 11
0.83708
 21
869.3451
 31
0.0
  0
LINE
  5
D69
330
1D
100
AcDbEntity
  8
0
100
AcDbLine
 10
0.79543
 20
869.3961
 30
0.0
 11
1.04695
 21
869.1611
 31
0.0
  0
LINE
  5
D6A
330
1D
100
AcDbEntity
  8
0
100
AcDbLine
 10
-0.024376
 20
870.8211
 30
0.0
 11
0.104055
 21
871.7371
 31
0.0
  0
LINE
  5
D6B
330
1D
100
AcDbEntity
  8
0
100
AcDbLine
 10
-0.024376
 20
870.8211
 30
0.0
 11
0.71747
 21
869.4721
 31
0.0
  0
LINE
  5
D6C
330
1D
100
AcDbEntity
  8
0
100
AcDbLine
 10
0.104055
 20
871.7371
 30
0.0
 11
10.3472
 21
882.3531
 31
0.0
  0
LINE
  5
D6D
330
1D
100
AcDbEntity
  8
0
100
AcDbLine
 10
1.0724
 20
869.1371
 30
0.0
 11
1.331756715784
 21
868.895247368427
 31
0.0
  0
LINE
  5
D6E
330
1D
100
AcDbEntity
  8
0
100
AcDbLine
 10
1.0724
 20
869.1371
 30
0.0
 11
1.331756715784
 21
868.895247368427
 31
0.0
  0
LINE
  5
D6F
330
1D
100
AcDbEntity
  8
0
100
AcDbLine
 10
1.04695
 20
869.1611
 30
0.0
 11
1.51832
 21
868.7211
 31
0.0
  0
LINE
  5
D70
330
1D
100
AcDbEntity
  8
0
100
AcDbLine
 10
1.383705075907
 20
868.846756207652
 30
0.0
 11
4.17821
 21
863.7801
 31
0.0
  0
LINE
  5
D71
330
1D
100
AcDbEntity
  8
0
100
AcDbLine
 10
6.67444
 20
863.9131
 30
0.0
 11
8.77332
 21
861.9561
 31
0.0
  0
LINE
  5
D72
330
1D
100
AcDbEntity
  8
0
100
AcDbLine
 10
4.87408
 20
865.5911
 30
0.0
 11
6.67444
 21
863.9131
 31
0.0
  0
LINE
  5
D73
330
1D
100
AcDbEntity
  8
0
100
AcDbLine
 10
4.17821
 20
863.7801
 30
0.0
 11
4.25814
 21
863.6551
 31
0.0
  0
LINE
  5
D74
330
1D
100
AcDbEntity
  8
0
100
AcDbLine
 10
4.17821
 20
863.7801
 30
0.0
 11
4.35916
 21
863.4971
 31
0.0
  0
LINE
  5
D75
330
1D
100
AcDbEntity
  8
0
100
AcDbLine
 10
8.77332
 20
861.9561
 30
0.0
 11
11.1564
 21
859.7351
 31
0.0
  0
LINE
  5
D76
330
1D
100
AcDbEntity
  8
0
100
AcDbLine
 10
10.3472
 20
882.3531
 30
0.0
 11
10.947
 21
882.5531
 31
0.0
  0
LINE
  5
D77
330
1D
100
AcDbEntity
  8
0
100
AcDbLine
 10
7.613
 20
860.5101
 30
0.0
 11
8.257
 21
859.6411
 31
0.0
  0
LINE
  5
D78
330
1D
100
AcDbEntity
  8
0
100
AcDbLine
 10
11.3555
 20
857.1121
 30
0.0
 11
11.418
 21
857.0381
 31
0.0
  0
LINE
  5
D79
330
1D
100
AcDbEntity
  8
0
100
AcDbLine
 10
11.2937
 20
857.1841
 30
0.0
 11
11.3555
 21
857.1121
 31
0.0
  0
LINE
  5
D7A
330
1D
100
AcDbEntity
  8
0
100
AcDbLine
 10
11.418
 20
857.0381
 30
0.0
 11
11.47
 21
856.9741
 31
0.0
  0
LINE
  5
D7B
330
1D
100
AcDbEntity
  8
0
100
AcDbLine
 10
11.5407
 20
856.8881
 30
0.0
 11
12.1296
 21
856.1221
 31
0.0
  0
LINE
  5
D7C
330
1D
100
AcDbEntity
  8
0
100
AcDbLine
 10
11.4808
 20
856.9621
 30
0.0
 11
11.5407
 21
856.8881
 31
0.0
  0
LINE
  5
D7D
330
1D
100
AcDbEntity
  8
0
100
AcDbLine
 10
12.1296
 20
856.1221
 30
0.0
 11
12.9529
 21
854.8291
 31
0.0
  0
LINE
  5
D7E
330
1D
100
AcDbEntity
  8
0
100
AcDbLine
 10
10.6867
 20
857.2081
 30
0.0
 11
10.991814587935
 21
856.631927957035
 31
0.0
  0
LINE
  5
D7F
330
1D
100
AcDbEntity
  8
0
100
AcDbLine
 10
10.5838
 20
857.8181
 30
0.0
 11
10.7249
 21
857.7461
 31
0.0
  0
LINE
  5
D80
330
1D
100
AcDbEntity
  8
0
100
AcDbLine
 10
11.2328
 20
857.2541
 30
0.0
 11
11.2937
 21
857.1841
 31
0.0
  0
LINE
  5
D81
330
1D
100
AcDbEntity
  8
0
100
AcDbLine
 10
11.1729
 20
857.3211
 30
0.0
 11
11.2328
 21
857.2541
 31
0.0
  0
LINE
  5
D82
330
1D
100
AcDbEntity
  8
0
100
AcDbLine
 10
11.1142
 20
857.3841
 30
0.0
 11
11.1729
 21
857.3211
 31
0.0
  0
LINE
  5
D83
330
1D
100
AcDbEntity
  8
0
100
AcDbLine
 10
11.0575
 20
857.4441
 30
0.0
 11
11.1142
 21
857.3841
 31
0.0
  0
LINE
  5
D84
330
1D
100
AcDbEntity
  8
0
100
AcDbLine
 10
11.0026
 20
857.5011
 30
0.0
 11
11.0575
 21
857.4441
 31
0.0
  0
LINE
  5
D85
330
1D
100
AcDbEntity
  8
0
100
AcDbLine
 10
10.9498
 20
857.5531
 30
0.0
 11
11.0026
 21
857.5011
 31
0.0
  0
LINE
  5
D86
330
1D
100
AcDbEntity
  8
0
100
AcDbLine
 10
10.8992
 20
857.6011
 30
0.0
 11
10.9498
 21
857.5531
 31
0.0
  0
LINE
  5
D87
330
1D
100
AcDbEntity
  8
0
100
AcDbLine
 10
10.8514
 20
857.6441
 30
0.0
 11
10.8992
 21
857.6011
 31
0.0
  0
LINE
  5
D88
330
1D
100
AcDbEntity
  8
0
100
AcDbLine
 10
10.8062
 20
857.6831
 30
0.0
 11
10.8514
 21
857.6441
 31
0.0
  0
LINE
  5
D89
330
1D
100
AcDbEntity
  8
0
100
AcDbLine
 10
10.947
 20
882.5531
 30
0.0
 11
11.4308
 21
882.3761
 31
0.0
  0
LINE
  5
D8A
330
1D
100
AcDbEntity
  8
0
100
AcDbLine
 10
11.1564
 20
859.7351
 30
0.0
 11
14.0021
 21
857.0821
 31
0.0
  0
LINE
  5
D8B
330
1D
100
AcDbEntity
  8
0
100
AcDbLine
 10
10.7249
 20
857.7461
 30
0.0
 11
10.7652
 21
857.7141
 31
0.0
  0
LINE
  5
D8C
330
1D
100
AcDbEntity
  8
0
100
AcDbLine
 10
10.7652
 20
857.7141
 30
0.0
 11
10.8062
 21
857.6831
 31
0.0
  0
LINE
  5
D8D
330
1D
100
AcDbEntity
  8
0
100
AcDbLine
 10
10.5026
 20
857.7001
 30
0.0
 11
10.5838
 21
857.8181
 31
0.0
  0
LINE
  5
D8E
330
1D
100
AcDbEntity
  8
0
100
AcDbLine
 10
10.5026
 20
857.7001
 30
0.0
 11
10.6867
 21
857.2081
 31
0.0
  0
LINE
  5
D8F
330
1D
100
AcDbEntity
  8
0
100
AcDbLine
 10
9.15335
 20
855.9461
 30
0.0
 11
9.68779
 21
855.2201
 31
0.0
  0
LINE
  5
D90
330
1D
100
AcDbEntity
  8
0
100
AcDbLine
 10
13.3541
 20
853.6411
 30
0.0
 11
13.4424
 21
853.7631
 31
0.0
  0
LINE
  5
D91
330
1D
100
AcDbEntity
  8
0
100
AcDbLine
 10
13.1941
 20
852.2271
 30
0.0
 11
14.1029
 21
851.1301
 31
0.0
  0
LINE
  5
D92
330
1D
100
AcDbEntity
  8
0
100
AcDbLine
 10
12.881
 20
852.1301
 30
0.0
 11
13.213661916253
 21
851.641542337822
 31
0.0
  0
LINE
  5
D93
330
1D
100
AcDbEntity
  8
0
100
AcDbLine
 10
12.9529
 20
854.8291
 30
0.0
 11
13.3392
 21
854.0981
 31
0.0
  0
LINE
  5
D94
330
1D
100
AcDbEntity
  8
0
100
AcDbLine
 10
14.0021
 20
857.0821
 30
0.0
 11
16.8602
 21
854.4181
 31
0.0
  0
LINE
  5
D95
330
1D
100
AcDbEntity
  8
0
100
AcDbLine
 10
13.3392
 20
854.0981
 30
0.0
 11
13.4424
 21
853.7631
 31
0.0
  0
LINE
  5
D96
330
1D
100
AcDbEntity
  8
0
100
AcDbLine
 10
13.0452
 20
853.8741
 30
0.0
 11
13.3541
 21
853.6411
 31
0.0
  0
LINE
  5
D97
330
1D
100
AcDbEntity
  8
0
100
AcDbLine
 10
12.783918368732
 20
854.155038638148
 30
0.0
 11
13.0452
 21
853.8741
 31
0.0
  0
LINE
  5
D98
330
1D
100
AcDbEntity
  8
0
100
AcDbLine
 10
32.4068
 20
826.1271
 30
0.0
 11
32.917189892594
 21
826.529173933264
 31
0.0
  0
LINE
  5
D99
330
1D
100
AcDbEntity
  8
0
100
AcDbLine
 10
30.7156
 20
827.2321
 30
0.0
 11
31.5191
 21
826.6291
 31
0.0
  0
LINE
  5
D9A
330
1D
100
AcDbEntity
  8
0
100
AcDbLine
 10
31.5191
 20
826.6291
 30
0.0
 11
32.2571
 21
826.1341
 31
0.0
  0
LINE
  5
D9B
330
1D
100
AcDbEntity
  8
0
100
AcDbLine
 10
32.2571
 20
826.1341
 30
0.0
 11
32.4068
 21
826.1271
 31
0.0
  0
LINE
  5
D9C
330
1D
100
AcDbEntity
  8
0
100
AcDbLine
 10
33.2365
 20
828.2611
 30
0.0
 11
33.5656
 21
827.9541
 31
0.0
  0
LINE
  5
D9D
330
1D
100
AcDbEntity
  8
0
100
AcDbLine
 10
29.5275
 20
828.2011
 30
0.0
 11
30.7156
 21
827.2321
 31
0.0
  0
LINE
  5
D9E
330
1D
100
AcDbEntity
  8
0
100
AcDbLine
 10
31.3205
 20
828.1641
 30
0.0
 11
34.5902
 21
824.8161
 31
0.0
  0
LINE
  5
D9F
330
1D
100
AcDbEntity
  8
0
100
AcDbLine
 10
34.5902
 20
824.8161
 30
0.0
 11
39.292
 21
820.2571
 31
0.0
  0
LINE
  5
DA0
330
1D
100
AcDbEntity
  8
0
100
AcDbLine
 10
33.5656
 20
827.9541
 30
0.0
 11
34.816477215874
 21
829.295583278138
 31
0.0
  0
LINE
  5
DA1
330
1D
100
AcDbEntity
  8
0
100
AcDbLine
 10
34.7614
 20
826.1551
 30
0.0
 11
35.0905
 21
825.8481
 31
0.0
  0
LINE
  5
DA2
330
1D
100
AcDbEntity
  8
0
100
AcDbLine
 10
34.7614
 20
826.1551
 30
0.0
 11
35.405272817816
 21
826.845611112831
 31
0.0
  0
LINE
  5
DA3
330
1D
100
AcDbEntity
  8
0
100
AcDbLine
 10
34.6978
 20
827.2691
 30
0.0
 11
34.8335
 21
827.2601
 31
0.0
  0
LINE
  5
DA4
330
1D
100
AcDbEntity
  8
0
100
AcDbLine
 10
34.6978
 20
827.2691
 30
0.0
 11
34.8528
 21
826.9821
 31
0.0
  0
LINE
  5
DA5
330
1D
100
AcDbEntity
  8
0
100
AcDbLine
 10
31.3715
 20
830.0001
 30
0.0
 11
31.7006
 21
829.6931
 31
0.0
  0
LINE
  5
DA6
330
1D
100
AcDbEntity
  8
0
100
AcDbLine
 10
31.3715
 20
830.0001
 30
0.0
 11
32.713209116955
 21
831.438994498741
 31
0.0
  0
LINE
  5
DA7
330
1D
100
AcDbEntity
  8
0
100
AcDbLine
 10
31.7006
 20
829.6931
 30
0.0
 11
32.4685
 21
828.9771
 31
0.0
  0
LINE
  5
DA8
330
1D
100
AcDbEntity
  8
0
100
AcDbLine
 10
32.4685
 20
828.9771
 30
0.0
 11
33.2365
 21
828.2611
 31
0.0
  0
LINE
  5
DA9
330
1D
100
AcDbEntity
  8
0
100
AcDbLine
 10
28.7122
 20
828.9711
 30
0.0
 11
29.5275
 21
828.2011
 31
0.0
  0
LINE
  5
DAA
330
1D
100
AcDbEntity
  8
0
100
AcDbLine
 10
28.7122
 20
828.9711
 30
0.0
 11
29.325395972048
 21
830.3003943843
 31
0.0
  0
LINE
  5
DAB
330
1D
100
AcDbEntity
  8
0
100
AcDbLine
 10
34.533126688293
 20
828.991708533456
 30
0.0
 11
34.6962
 21
828.8481
 31
0.0
  0
LINE
  5
DAC
330
1D
100
AcDbEntity
  8
0
100
AcDbLine
 10
34.6962
 20
828.8481
 30
0.0
 11
35.1131
 21
828.6481
 31
0.0
  0
LINE
  5
DAD
330
1D
100
AcDbEntity
  8
0
100
AcDbLine
 10
35.0905
 20
825.8481
 30
0.0
 11
35.8584
 21
825.1321
 31
0.0
  0
LINE
  5
DAE
330
1D
100
AcDbEntity
  8
0
100
AcDbLine
 10
35.8584
 20
825.1321
 30
0.0
 11
36.6263
 21
824.4161
 31
0.0
  0
LINE
  5
DAF
330
1D
100
AcDbEntity
  8
0
100
AcDbLine
 10
36.6263
 20
824.4161
 30
0.0
 11
36.9554
 21
824.1091
 31
0.0
  0
LINE
  5
DB0
330
1D
100
AcDbEntity
  8
0
100
AcDbLine
 10
35.170400542143
 20
826.59372609461
 30
0.0
 11
35.279472362212
 21
826.710698424812
 31
0.0
  0
LINE
  5
DB1
330
1D
100
AcDbEntity
  8
0
100
AcDbLine
 10
34.8528
 20
826.9821
 30
0.0
 11
35.170400542143
 21
826.59372609461
 31
0.0
  0
LINE
  5
DB2
330
1D
100
AcDbEntity
  8
0
100
AcDbLine
 10
36.461
 20
827.5781
 30
0.0
 11
36.7901
 21
827.2711
 31
0.0
  0
LINE
  5
DB3
330
1D
100
AcDbEntity
  8
0
100
AcDbLine
 10
36.461
 20
827.5781
 30
0.0
 11
37.894144583404
 21
829.115053003375
 31
0.0
  0
LINE
  5
DB4
330
1D
100
AcDbEntity
  8
0
100
AcDbLine
 10
35.2921
 20
826.9461
 30
0.0
 11
36.3057
 21
826.0461
 31
0.0
  0
LINE
  5
DB5
330
1D
100
AcDbEntity
  8
0
100
AcDbLine
 10
36.3057
 20
826.0461
 30
0.0
 11
36.8753
 21
825.4681
 31
0.0
  0
LINE
  5
DB6
330
1D
100
AcDbEntity
  8
0
100
AcDbLine
 10
34.8335
 20
827.2601
 30
0.0
 11
35.2921
 21
826.9461
 31
0.0
  0
LINE
  5
DB7
330
1D
100
AcDbEntity
  8
0
100
AcDbLine
 10
35.1063
 20
828.8201
 30
0.0
 11
35.1131
 21
828.6481
 31
0.0
  0
LINE
  5
DB8
330
1D
100
AcDbEntity
  8
0
100
AcDbLine
 10
34.793
 20
829.3341
 30
0.0
 11
35.1063
 21
828.8201
 31
0.0
  0
LINE
  5
DB9
330
1D
100
AcDbEntity
  8
0
100
AcDbLine
 10
28.8039
 20
830.7481
 30
0.0
 11
29.298058317411
 21
830.241131452961
 31
0.0
  0
LINE
  5
DBA
330
1D
100
AcDbEntity
  8
0
100
AcDbLine
 10
28.8529
 20
831.6651
 30
0.0
 11
29.413278380112
 21
832.266068837557
 31
0.0
  0
LINE
  5
DBB
330
1D
100
AcDbEntity
  8
0
100
AcDbLine
 10
28.8529
 20
831.6651
 30
0.0
 11
29.413278380112
 21
832.266068837557
 31
0.0
  0
LINE
  5
DBC
330
1D
100
AcDbEntity
  8
0
100
AcDbLine
 10
30.1059
 20
831.2531
 30
0.0
 11
30.1133
 21
831.3701
 31
0.0
  0
LINE
  5
DBD
330
1D
100
AcDbEntity
  8
0
100
AcDbLine
 10
32.1247
 20
831.5211
 30
0.0
 11
32.429271660733
 21
831.134490311818
 31
0.0
  0
LINE
  5
DBE
330
1D
100
AcDbEntity
  8
0
100
AcDbLine
 10
28.5238
 20
831.9721
 30
0.0
 11
28.8529
 21
831.6651
 31
0.0
  0
LINE
  5
DBF
330
1D
100
AcDbEntity
  8
0
100
AcDbLine
 10
26.6589
 20
833.7111
 30
0.0
 11
26.988
 21
833.4041
 31
0.0
  0
LINE
  5
DC0
330
1D
100
AcDbEntity
  8
0
100
AcDbLine
 10
26.6589
 20
833.7111
 30
0.0
 11
27.345767014923
 21
834.447741154747
 31
0.0
  0
LINE
  5
DC1
330
1D
100
AcDbEntity
  8
0
100
AcDbLine
 10
27.7559
 20
832.6881
 30
0.0
 11
28.5238
 21
831.9721
 31
0.0
  0
LINE
  5
DC2
330
1D
100
AcDbEntity
  8
0
100
AcDbLine
 10
26.988
 20
833.4041
 30
0.0
 11
27.7559
 21
832.6881
 31
0.0
  0
LINE
  5
DC3
330
1D
100
AcDbEntity
  8
0
100
AcDbLine
 10
27.257
 20
832.3311
 30
0.0
 11
28.8039
 21
830.7481
 31
0.0
  0
LINE
  5
DC4
330
1D
100
AcDbEntity
  8
0
100
AcDbLine
 10
29.444
 20
831.7601
 30
0.0
 11
30.1059
 21
831.2531
 31
0.0
  0
LINE
  5
DC5
330
1D
100
AcDbEntity
  8
0
100
AcDbLine
 10
31.1116
 20
832.5671
 30
0.0
 11
32.370064025378
 21
833.916719630735
 31
0.0
  0
LINE
  5
DC6
330
1D
100
AcDbEntity
  8
0
100
AcDbLine
 10
30.7825
 20
832.8741
 30
0.0
 11
31.1116
 21
832.5671
 31
0.0
  0
LINE
  5
DC7
330
1D
100
AcDbEntity
  8
0
100
AcDbLine
 10
30.0145
 20
833.5901
 30
0.0
 11
30.7825
 21
832.8741
 31
0.0
  0
LINE
  5
DC8
330
1D
100
AcDbEntity
  8
0
100
AcDbLine
 10
32.032149374759
 20
833.554328464367
 30
0.0
 11
32.4038
 21
833.3461
 31
0.0
  0
LINE
  5
DC9
330
1D
100
AcDbEntity
  8
0
100
AcDbLine
 10
29.180411889232
 20
832.016334891179
 30
0.0
 11
29.444
 21
831.7601
 31
0.0
  0
LINE
  5
DCA
330
1D
100
AcDbEntity
  8
0
100
AcDbLine
 10
29.713
 20
831.9181
 30
0.0
 11
30.1133
 21
831.3701
 31
0.0
  0
LINE
  5
DCB
330
1D
100
AcDbEntity
  8
0
100
AcDbLine
 10
28.8172
 20
832.9581
 30
0.0
 11
29.713
 21
831.9181
 31
0.0
  0
LINE
  5
DCC
330
1D
100
AcDbEntity
  8
0
100
AcDbLine
 10
28.0143
 20
833.7931
 30
0.0
 11
28.8172
 21
832.9581
 31
0.0
  0
LINE
  5
DCD
330
1D
100
AcDbEntity
  8
0
100
AcDbLine
 10
32.4038
 20
833.3461
 30
0.0
 11
32.5689
 21
833.3551
 31
0.0
  0
LINE
  5
DCE
330
1D
100
AcDbEntity
  8
0
100
AcDbLine
 10
32.0542
 20
831.8151
 30
0.0
 11
32.3311
 21
831.7531
 31
0.0
  0
LINE
  5
DCF
330
1D
100
AcDbEntity
  8
0
100
AcDbLine
 10
32.0542
 20
831.8151
 30
0.0
 11
32.1247
 21
831.5211
 31
0.0
  0
LINE
  5
DD0
330
1D
100
AcDbEntity
  8
0
100
AcDbLine
 10
32.3311
 20
831.7531
 30
0.0
 11
33.179
 21
831.0561
 31
0.0
  0
LINE
  5
DD1
330
1D
100
AcDbEntity
  8
0
100
AcDbLine
 10
34.8101
 20
832.5361
 30
0.0
 11
35.1393
 21
832.2291
 31
0.0
  0
LINE
  5
DD2
330
1D
100
AcDbEntity
  8
0
100
AcDbLine
 10
34.8101
 20
832.5361
 30
0.0
 11
36.136795994628
 21
833.958893915647
 31
0.0
  0
LINE
  5
DD3
330
1D
100
AcDbEntity
  8
0
100
AcDbLine
 10
35.1393
 20
832.2291
 30
0.0
 11
35.9072
 21
831.5131
 31
0.0
  0
LINE
  5
DD4
330
1D
100
AcDbEntity
  8
0
100
AcDbLine
 10
35.9072
 20
831.5131
 30
0.0
 11
36.6751
 21
830.7971
 31
0.0
  0
LINE
  5
DD5
330
1D
100
AcDbEntity
  8
0
100
AcDbLine
 10
35.1803
 20
833.6201
 30
0.0
 11
35.452163496779
 21
833.224670735402
 31
0.0
  0
LINE
  5
DD6
330
1D
100
AcDbEntity
  8
0
100
AcDbLine
 10
33.179
 20
831.0561
 30
0.0
 11
34.0474
 21
830.1981
 31
0.0
  0
LINE
  5
DD7
330
1D
100
AcDbEntity
  8
0
100
AcDbLine
 10
34.0474
 20
830.1981
 30
0.0
 11
34.793
 21
829.3341
 31
0.0
  0
LINE
  5
DD8
330
1D
100
AcDbEntity
  8
0
100
AcDbLine
 10
36.7901
 20
827.2711
 30
0.0
 11
37.558
 21
826.5551
 31
0.0
  0
LINE
  5
DD9
330
1D
100
AcDbEntity
  8
0
100
AcDbLine
 10
36.6751
 20
830.7971
 30
0.0
 11
37.0042
 21
830.4901
 31
0.0
  0
LINE
  5
DDA
330
1D
100
AcDbEntity
  8
0
100
AcDbLine
 10
36.7257
 20
829.5661
 30
0.0
 11
37.1429
 21
829.6611
 31
0.0
  0
LINE
  5
DDB
330
1D
100
AcDbEntity
  8
0
100
AcDbLine
 10
36.7257
 20
829.5661
 30
0.0
 11
37.0569
 21
829.0351
 31
0.0
  0
LINE
  5
DDC
330
1D
100
AcDbEntity
  8
0
100
AcDbLine
 10
36.9554
 20
824.1091
 30
0.0
 11
37.531729890509
 21
824.727175779939
 31
0.0
  0
LINE
  5
DDD
330
1D
100
AcDbEntity
  8
0
100
AcDbLine
 10
36.9554
 20
824.1091
 30
0.0
 11
37.531729890509
 21
824.727175779939
 31
0.0
  0
LINE
  5
DDE
330
1D
100
AcDbEntity
  8
0
100
AcDbLine
 10
37.531478503491
 20
824.72690618395
 30
0.0
 11
37.687970076408
 21
824.530793279276
 31
0.0
  0
LINE
  5
DDF
330
1D
100
AcDbEntity
  8
0
100
AcDbLine
 10
37.329602560605
 20
824.510407555464
 30
0.0
 11
37.6123
 21
824.3051
 31
0.0
  0
LINE
  5
DE0
330
1D
100
AcDbEntity
  8
0
100
AcDbLine
 10
37.0042
 20
830.4901
 30
0.0
 11
38.210423637842
 21
831.783695262049
 31
0.0
  0
LINE
  5
DE1
330
1D
100
AcDbEntity
  8
0
100
AcDbLine
 10
37.0569
 20
829.0351
 30
0.0
 11
37.443586067689
 21
828.631858724205
 31
0.0
  0
LINE
  5
DE2
330
1D
100
AcDbEntity
  8
0
100
AcDbLine
 10
37.558
 20
826.5551
 30
0.0
 11
38.326
 21
825.8391
 31
0.0
  0
LINE
  5
DE3
330
1D
100
AcDbEntity
  8
0
100
AcDbLine
 10
37.1429
 20
829.6611
 30
0.0
 11
37.7104
 21
829.3051
 31
0.0
  0
LINE
  5
DE4
330
1D
100
AcDbEntity
  8
0
100
AcDbLine
 10
37.601749531857
 20
831.130932445161
 30
0.0
 11
37.9169
 21
830.9401
 31
0.0
  0
LINE
  5
DE5
330
1D
100
AcDbEntity
  8
0
100
AcDbLine
 10
37.4037
 20
824.8881
 30
0.0
 11
37.8007
 21
824.3891
 31
0.0
  0
LINE
  5
DE6
330
1D
100
AcDbEntity
  8
0
100
AcDbLine
 10
36.8753
 20
825.4681
 30
0.0
 11
37.4037
 21
824.8881
 31
0.0
  0
LINE
  5
DE7
330
1D
100
AcDbEntity
  8
0
100
AcDbLine
 10
25.618711690716
 20
834.261630499399
 30
0.0
 11
27.257
 21
832.3311
 31
0.0
  0
LINE
  5
DE8
330
1D
100
AcDbEntity
  8
0
100
AcDbLine
 10
26.6625
 20
834.3911
 30
0.0
 11
27.807690082242
 21
835.61924080081
 31
0.0
  0
LINE
  5
DE9
330
1D
100
AcDbEntity
  8
0
100
AcDbLine
 10
26.6625
 20
834.3911
 30
0.0
 11
27.807690082242
 21
835.61924080081
 31
0.0
  0
LINE
  5
DEA
330
1D
100
AcDbEntity
  8
0
100
AcDbLine
 10
26.3334
 20
834.6981
 30
0.0
 11
26.6625
 21
834.3911
 31
0.0
  0
LINE
  5
DEB
330
1D
100
AcDbEntity
  8
0
100
AcDbLine
 10
27.162895604794
 20
834.251617882264
 30
0.0
 11
27.345767014923
 21
834.447741154747
 31
0.0
  0
LINE
  5
DEC
330
1D
100
AcDbEntity
  8
0
100
AcDbLine
 10
29.2466
 20
834.3061
 30
0.0
 11
30.0145
 21
833.5901
 31
0.0
  0
LINE
  5
DED
330
1D
100
AcDbEntity
  8
0
100
AcDbLine
 10
27.162895604794
 20
834.251617882264
 30
0.0
 11
27.345767014923
 21
834.447741154747
 31
0.0
  0
LINE
  5
DEE
330
1D
100
AcDbEntity
  8
0
100
AcDbLine
 10
34.945
 20
834.2101
 30
0.0
 11
35.0461
 21
834.4831
 31
0.0
  0
LINE
  5
DEF
330
1D
100
AcDbEntity
  8
0
100
AcDbLine
 10
34.945
 20
834.2101
 30
0.0
 11
35.1803
 21
833.6201
 31
0.0
  0
LINE
  5
DF0
330
1D
100
AcDbEntity
  8
0
100
AcDbLine
 10
35.4354
 20
834.4411
 30
0.0
 11
36.6325
 21
833.6181
 31
0.0
  0
LINE
  5
DF1
330
1D
100
AcDbEntity
  8
0
100
AcDbLine
 10
35.0461
 20
834.4831
 30
0.0
 11
35.4354
 21
834.4411
 31
0.0
  0
LINE
  5
DF2
330
1D
100
AcDbEntity
  8
0
100
AcDbLine
 10
28.9175
 20
834.6131
 30
0.0
 11
29.2466
 21
834.3061
 31
0.0
  0
LINE
  5
DF3
330
1D
100
AcDbEntity
  8
0
100
AcDbLine
 10
28.9175
 20
834.6131
 30
0.0
 11
30.339410873059
 21
836.138005590257
 31
0.0
  0
LINE
  5
DF4
330
1D
100
AcDbEntity
  8
0
100
AcDbLine
 10
31.8042
 20
834.7041
 30
0.0
 11
32.3971
 21
833.8791
 31
0.0
  0
LINE
  5
DF5
330
1D
100
AcDbEntity
  8
0
100
AcDbLine
 10
26.980608990287
 20
834.732250902487
 30
0.0
 11
27.278
 21
834.5141
 31
0.0
  0
LINE
  5
DF6
330
1D
100
AcDbEntity
  8
0
100
AcDbLine
 10
27.278
 20
834.5141
 30
0.0
 11
28.0143
 21
833.7931
 31
0.0
  0
LINE
  5
DF7
330
1D
100
AcDbEntity
  8
0
100
AcDbLine
 10
26.861461764091
 20
834.604473364012
 30
0.0
 11
27.138110005613
 21
834.225036183033
 31
0.0
  0
LINE
  5
DF8
330
1D
100
AcDbEntity
  8
0
100
AcDbLine
 10
32.3971
 20
833.8791
 30
0.0
 11
32.5689
 21
833.3551
 31
0.0
  0
LINE
  5
DF9
330
1D
100
AcDbEntity
  8
0
100
AcDbLine
 10
58.8799
 20
803.6641
 30
0.0
 11
59.52481831226
 21
804.355732336638
 31
0.0
  0
LINE
  5
DFA
330
1D
100
AcDbEntity
  8
0
100
AcDbLine
 10
58.3587
 20
803.4671
 30
0.0
 11
58.6878
 21
803.1601
 31
0.0
  0
LINE
  5
DFB
330
1D
100
AcDbEntity
  8
0
100
AcDbLine
 10
58.3587
 20
803.4671
 30
0.0
 11
58.699450152129
 21
803.832432127913
 31
0.0
  0
LINE
  5
DFC
330
1D
100
AcDbEntity
  8
0
100
AcDbLine
 10
58.6878
 20
803.1601
 30
0.0
 11
59.4558
 21
802.4441
 31
0.0
  0
LINE
  5
DFD
330
1D
100
AcDbEntity
  8
0
100
AcDbLine
 10
59.4558
 20
802.4441
 30
0.0
 11
60.2237
 21
801.7271
 31
0.0
  0
LINE
  5
DFE
330
1D
100
AcDbEntity
  8
0
100
AcDbLine
 10
59.3533
 20
803.6901
 30
0.0
 11
60.326
 21
802.8281
 31
0.0
  0
LINE
  5
DFF
330
1D
100
AcDbEntity
  8
0
100
AcDbLine
 10
59.105245778204
 20
803.905768478267
 30
0.0
 11
59.3533
 21
803.6901
 31
0.0
  0
LINE
  5
E00
330
1D
100
AcDbEntity
  8
0
100
AcDbLine
 10
60.5528
 20
801.4211
 30
0.0
 11
61.158359870333
 21
802.070345421096
 31
0.0
  0
LINE
  5
E01
330
1D
100
AcDbEntity
  8
0
100
AcDbLine
 10
60.2237
 20
801.7271
 30
0.0
 11
60.5528
 21
801.4211
 31
0.0
  0
LINE
  5
E02
330
1D
100
AcDbEntity
  8
0
100
AcDbLine
 10
60.8032
 20
802.5541
 30
0.0
 11
61.5711
 21
801.8381
 31
0.0
  0
LINE
  5
E03
330
1D
100
AcDbEntity
  8
0
100
AcDbLine
 10
61.0498
 20
802.1711
 30
0.0
 11
61.4754
 21
801.7761
 31
0.0
  0
LINE
  5
E04
330
1D
100
AcDbEntity
  8
0
100
AcDbLine
 10
62.6681
 20
800.8151
 30
0.0
 11
63.827626401565
 21
802.058615557338
 31
0.0
  0
LINE
  5
E05
330
1D
100
AcDbEntity
  8
0
100
AcDbLine
 10
62.339
 20
801.1221
 30
0.0
 11
62.6681
 21
800.8151
 31
0.0
  0
LINE
  5
E06
330
1D
100
AcDbEntity
  8
0
100
AcDbLine
 10
61.5711
 20
801.8381
 30
0.0
 11
62.339
 21
801.1221
 31
0.0
  0
LINE
  5
E07
330
1D
100
AcDbEntity
  8
0
100
AcDbLine
 10
61.480222285035
 20
801.773247684181
 30
0.0
 11
61.5851
 21
801.6761
 31
0.0
  0
LINE
  5
E08
330
1D
100
AcDbEntity
  8
0
100
AcDbLine
 10
61.5851
 20
801.6761
 30
0.0
 11
62.268996968423
 21
801.187371741905
 31
0.0
  0
LINE
  5
E09
330
1D
100
AcDbEntity
  8
0
100
AcDbLine
 10
63.4476
 20
802.4131
 30
0.0
 11
63.7767
 21
802.1061
 31
0.0
  0
LINE
  5
E0A
330
1D
100
AcDbEntity
  8
0
100
AcDbLine
 10
63.4476
 20
802.4131
 30
0.0
 11
64.641426485702
 21
803.693400134373
 31
0.0
  0
LINE
  5
E0B
330
1D
100
AcDbEntity
  8
0
100
AcDbLine
 10
63.7767
 20
802.1061
 30
0.0
 11
64.5446
 21
801.3901
 31
0.0
  0
LINE
  5
E0C
330
1D
100
AcDbEntity
  8
0
100
AcDbLine
 10
62.71681903686
 20
800.867347952433
 30
0.0
 11
63.2811
 21
800.4641
 31
0.0
  0
LINE
  5
E0D
330
1D
100
AcDbEntity
  8
0
100
AcDbLine
 10
63.2811
 20
800.4641
 30
0.0
 11
64.374932023565
 21
799.495449152545
 31
0.0
  0
LINE
  5
E0E
330
1D
100
AcDbEntity
  8
0
100
AcDbLine
 10
63.2811
 20
800.4641
 30
0.0
 11
64.374932023565
 21
799.495449152545
 31
0.0
  0
LINE
  5
E0F
330
1D
100
AcDbEntity
  8
0
100
AcDbLine
 10
61.4754
 20
801.7761
 30
0.0
 11
61.5851
 21
801.6761
 31
0.0
  0
LINE
  5
E10
330
1D
100
AcDbEntity
  8
0
100
AcDbLine
 10
60.4741
 20
802.8611
 30
0.0
 11
60.8032
 21
802.5541
 31
0.0
  0
LINE
  5
E11
330
1D
100
AcDbEntity
  8
0
100
AcDbLine
 10
60.4741
 20
802.8611
 30
0.0
 11
61.618034562366
 21
804.087894338584
 31
0.0
  0
LINE
  5
E12
330
1D
100
AcDbEntity
  8
0
100
AcDbLine
 10
60.326
 20
802.8281
 30
0.0
 11
61.0498
 21
802.1711
 31
0.0
  0
LINE
  5
E13
330
1D
100
AcDbEntity
  8
0
100
AcDbLine
 10
62.2066
 20
803.6891
 30
0.0
 11
62.9621
 21
803.1371
 31
0.0
  0
LINE
  5
E14
330
1D
100
AcDbEntity
  8
0
100
AcDbLine
 10
62.9621
 20
803.1371
 30
0.0
 11
63.6078
 21
802.6321
 31
0.0
  0
LINE
  5
E15
330
1D
100
AcDbEntity
  8
0
100
AcDbLine
 10
60.1279
 20
803.6851
 30
0.0
 11
60.2984
 21
803.6561
 31
0.0
  0
LINE
  5
E16
330
1D
100
AcDbEntity
  8
0
100
AcDbLine
 10
58.5508
 20
803.9711
 30
0.0
 11
58.8799
 21
803.6641
 31
0.0
  0
LINE
  5
E17
330
1D
100
AcDbEntity
  8
0
100
AcDbLine
 10
58.5508
 20
803.9711
 30
0.0
 11
58.699450152129
 21
803.832432127913
 31
0.0
  0
LINE
  5
E18
330
1D
100
AcDbEntity
  8
0
100
AcDbLine
 10
59.7419
 20
803.9171
 30
0.0
 11
60.1279
 21
803.6851
 31
0.0
  0
LINE
  5
E19
330
1D
100
AcDbEntity
  8
0
100
AcDbLine
 10
66.8754
 20
795.5251
 30
0.0
 11
67.451408976612
 21
796.142662703371
 31
0.0
  0
LINE
  5
E1A
330
1D
100
AcDbEntity
  8
0
100
AcDbLine
 10
66.5463
 20
795.8321
 30
0.0
 11
66.8754
 21
795.5251
 31
0.0
  0
LINE
  5
E1B
330
1D
100
AcDbEntity
  8
0
100
AcDbLine
 10
67.6453
 20
795.8931
 30
0.0
 11
67.7811
 21
795.6821
 31
0.0
  0
LINE
  5
E1C
330
1D
100
AcDbEntity
  8
0
100
AcDbLine
 10
67.6453
 20
795.8931
 30
0.0
 11
71.3903
 21
790.3701
 31
0.0
  0
LINE
  5
E1D
330
1D
100
AcDbEntity
  8
0
100
AcDbLine
 10
67.447794722704
 20
796.13878771443
 30
0.0
 11
67.7811
 21
795.6821
 31
0.0
  0
LINE
  5
E1E
330
1D
100
AcDbEntity
  8
0
100
AcDbLine
 10
71.3903
 20
790.3701
 30
0.0
 11
74.5451
 21
785.6493
 31
0.0
  0
LINE
  5
E1F
330
1D
100
AcDbEntity
  8
0
100
AcDbLine
 10
70.3165
 20
796.0081
 30
0.0
 11
71.762708028741
 21
797.558638578615
 31
0.0
  0
LINE
  5
E20
330
1D
100
AcDbEntity
  8
0
100
AcDbLine
 10
66.4334
 20
797.3041
 30
0.0
 11
67.367249148952
 21
798.305591594639
 31
0.0
  0
LINE
  5
E21
330
1D
100
AcDbEntity
  8
0
100
AcDbLine
 10
65.0105
 20
797.2641
 30
0.0
 11
65.7784
 21
796.5481
 31
0.0
  0
LINE
  5
E22
330
1D
100
AcDbEntity
  8
0
100
AcDbLine
 10
65.7784
 20
796.5481
 30
0.0
 11
66.5463
 21
795.8321
 31
0.0
  0
LINE
  5
E23
330
1D
100
AcDbEntity
  8
0
100
AcDbLine
 10
69.2194
 20
797.0311
 30
0.0
 11
69.9874
 21
796.3151
 31
0.0
  0
LINE
  5
E24
330
1D
100
AcDbEntity
  8
0
100
AcDbLine
 10
69.9874
 20
796.3151
 30
0.0
 11
70.3165
 21
796.0081
 31
0.0
  0
LINE
  5
E25
330
1D
100
AcDbEntity
  8
0
100
AcDbLine
 10
66.7784
 20
797.0091
 30
0.0
 11
67.3423
 21
796.2831
 31
0.0
  0
LINE
  5
E26
330
1D
100
AcDbEntity
  8
0
100
AcDbLine
 10
67.3423
 20
796.2831
 30
0.0
 11
67.6453
 21
795.8931
 31
0.0
  0
LINE
  5
E27
330
1D
100
AcDbEntity
  8
0
100
AcDbLine
 10
87.5711
 20
763.1578
 30
0.0
 11
87.6243
 21
763.0623
 31
0.0
  0
LINE
  5
E28
330
1D
100
AcDbEntity
  8
0
100
AcDbLine
 10
87.5711
 20
763.1578
 30
0.0
 11
87.7118
 21
763.5391
 31
0.0
  0
LINE
  5
E29
330
1D
100
AcDbEntity
  8
0
100
AcDbLine
 10
87.6243
 20
763.0623
 30
0.0
 11
125.792
 21
697.27733
 31
0.0
  0
LINE
  5
E2A
330
1D
100
AcDbEntity
  8
0
100
AcDbLine
 10
87.6243
 20
763.0623
 30
0.0
 11
125.792
 21
697.27733
 31
0.0
  0
LINE
  5
E2B
330
1D
100
AcDbEntity
  8
0
100
AcDbLine
 10
87.7118
 20
763.5391
 30
0.0
 11
87.9723
 21
764.4101
 31
0.0
  0
LINE
  5
E2C
330
1D
100
AcDbEntity
  8
0
100
AcDbLine
 10
87.9723
 20
764.4101
 30
0.0
 11
88.3207
 21
766.0909
 31
0.0
  0
LINE
  5
E2D
330
1D
100
AcDbEntity
  8
0
100
AcDbLine
 10
88.3207
 20
766.0909
 30
0.0
 11
88.6222
 21
767.796
 31
0.0
  0
LINE
  5
E2E
330
1D
100
AcDbEntity
  8
0
100
AcDbLine
 10
84.3467
 20
768.1808
 30
0.0
 11
84.4852
 21
768.0974
 31
0.0
  0
LINE
  5
E2F
330
1D
100
AcDbEntity
  8
0
100
AcDbLine
 10
84.4852
 20
768.0974
 30
0.0
 11
84.8651
 21
768.101
 31
0.0
  0
LINE
  5
E30
330
1D
100
AcDbEntity
  8
0
100
AcDbLine
 10
84.241
 20
768.3073
 30
0.0
 11
84.3467
 21
768.1808
 31
0.0
  0
LINE
  5
E31
330
1D
100
AcDbEntity
  8
0
100
AcDbLine
 10
84.993
 20
769.6569
 30
0.0
 11
85.0909
 21
770.9222
 31
0.0
  0
LINE
  5
E32
330
1D
100
AcDbEntity
  8
0
100
AcDbLine
 10
84.545460463457
 20
775.779974284052
 30
0.0
 11
85.1187
 21
772.023
 31
0.0
  0
LINE
  5
E33
330
1D
100
AcDbEntity
  8
0
100
AcDbLine
 10
84.044
 20
777.2496
 30
0.0
 11
84.543
 21
775.7961
 31
0.0
  0
LINE
  5
E34
330
1D
100
AcDbEntity
  8
0
100
AcDbLine
 10
88.6222
 20
767.796
 30
0.0
 11
88.9471
 21
769.6918
 31
0.0
  0
LINE
  5
E35
330
1D
100
AcDbEntity
  8
0
100
AcDbLine
 10
85.0909
 20
770.9222
 30
0.0
 11
85.1187
 21
772.023
 31
0.0
  0
LINE
  5
E36
330
1D
100
AcDbEntity
  8
0
100
AcDbLine
 10
84.8857
 20
767.6944
 30
0.0
 11
87.6585
 21
763.7428
 31
0.0
  0
LINE
  5
E37
330
1D
100
AcDbEntity
  8
0
100
AcDbLine
 10
84.8857
 20
767.6944
 30
0.0
 11
84.993
 21
769.6569
 31
0.0
  0
LINE
  5
E38
330
1D
100
AcDbEntity
  8
0
100
AcDbLine
 10
74.6383
 20
784.8579
 30
0.0
 11
74.6563
 21
785.0547
 31
0.0
  0
LINE
  5
E39
330
1D
100
AcDbEntity
  8
0
100
AcDbLine
 10
74.6563
 20
785.0547
 30
0.0
 11
74.6905
 21
785.1293
 31
0.0
  0
LINE
  5
E3A
330
1D
100
AcDbEntity
  8
0
100
AcDbLine
 10
76.6047
 20
784.4291
 30
0.0
 11
77.3225
 21
784.0133
 31
0.0
  0
LINE
  5
E3B
330
1D
100
AcDbEntity
  8
0
100
AcDbLine
 10
75.9046
 20
784.8084
 30
0.0
 11
76.6047
 21
784.4291
 31
0.0
  0
LINE
  5
E3C
330
1D
100
AcDbEntity
  8
0
100
AcDbLine
 10
75.4051
 20
785.0682
 30
0.0
 11
75.9046
 21
784.8084
 31
0.0
  0
LINE
  5
E3D
330
1D
100
AcDbEntity
  8
0
100
AcDbLine
 10
77.3225
 20
784.0133
 30
0.0
 11
77.812951272912
 21
783.715411392241
 31
0.0
  0
LINE
  5
E3E
330
1D
100
AcDbEntity
  8
0
100
AcDbLine
 10
82.2902
 20
780.1354
 30
0.0
 11
82.6325
 21
779.731
 31
0.0
  0
LINE
  5
E3F
330
1D
100
AcDbEntity
  8
0
100
AcDbLine
 10
81.9152
 20
780.5394
 30
0.0
 11
82.2902
 21
780.1354
 31
0.0
  0
LINE
  5
E40
330
1D
100
AcDbEntity
  8
0
100
AcDbLine
 10
74.6905
 20
785.1293
 30
0.0
 11
74.9124
 21
785.316
 31
0.0
  0
LINE
  5
E41
330
1D
100
AcDbEntity
  8
0
100
AcDbLine
 10
74.9124
 20
785.316
 30
0.0
 11
75.0592
 21
785.2481
 31
0.0
  0
LINE
  5
E42
330
1D
100
AcDbEntity
  8
0
100
AcDbLine
 10
75.0592
 20
785.2481
 30
0.0
 11
75.4051
 21
785.0682
 31
0.0
  0
LINE
  5
E43
330
1D
100
AcDbEntity
  8
0
100
AcDbLine
 10
82.6153
 20
793.1171
 30
0.0
 11
84.5292
 21
791.3331
 31
0.0
  0
LINE
  5
E44
330
1D
100
AcDbEntity
  8
0
100
AcDbLine
 10
74.5451
 20
785.6493
 30
0.0
 11
74.9124
 21
785.316
 31
0.0
  0
LINE
  5
E45
330
1D
100
AcDbEntity
  8
0
100
AcDbLine
 10
86.7257
 20
789.2671
 30
0.0
 11
87.0353
 21
788.9761
 31
0.0
  0
LINE
  5
E46
330
1D
100
AcDbEntity
  8
0
100
AcDbLine
 10
86.2123
 20
789.7631
 30
0.0
 11
86.7257
 21
789.2671
 31
0.0
  0
LINE
  5
E47
330
1D
100
AcDbEntity
  8
0
100
AcDbLine
 10
84.5292
 20
791.3331
 30
0.0
 11
86.2123
 21
789.7631
 31
0.0
  0
LINE
  5
E4A
330
1D
100
AcDbEntity
  8
0
100
AcDbLine
 10
125.792
 20
697.27733
 30
0.0
 11
126.105
 21
696.97764
 31
0.0
  0
LINE
  5
E4B
330
1D
100
AcDbEntity
  8
0
100
AcDbLine
 10
126.105
 20
696.97764
 30
0.0
 11
126.387
 21
696.86998
 31
0.0
  0
LINE
  5
E4C
330
1D
100
AcDbEntity
  8
0
100
AcDbLine
 10
126.387
 20
696.86998
 30
0.0
 11
126.988760335337
 21
697.17559691569
 31
0.0
  0
LINE
  5
E59
330
1D
100
AcDbEntity
  8
0
100
AcDbLine
 10
89.7199
 20
775.4049
 30
0.0
 11
89.9663
 21
779.1566
 31
0.0
  0
LINE
  5
E5D
330
1D
100
AcDbEntity
  8
0
100
AcDbLine
 10
147.987368444765
 20
708.803921425894
 30
0.0
 11
148.363
 21
709.036
 31
0.0
  0
LINE
  5
E5E
330
1D
100
AcDbEntity
  8
0
100
AcDbLine
 10
148.814
 20
710.0425
 30
0.0
 11
148.898
 21
709.5063
 31
0.0
  0
LINE
  5
E5F
330
1D
100
AcDbEntity
  8
0
100
AcDbLine
 10
148.363
 20
709.036
 30
0.0
 11
148.898
 21
709.5063
 31
0.0
  0
LINE
  5
E60
330
1D
100
AcDbEntity
  8
0
100
AcDbLine
 10
147.987368444765
 20
708.803921425894
 30
0.0
 11
148.363
 21
709.036
 31
0.0
  0
LINE
  5
E61
330
1D
100
AcDbEntity
  8
0
100
AcDbLine
 10
105.156
 20
791.6861
 30
0.0
 11
107.895
 21
786.4895
 31
0.0
  0
LINE
  5
E62
330
1D
100
AcDbEntity
  8
0
100
AcDbLine
 10
107.895
 20
786.4895
 30
0.0
 11
148.814
 21
710.0425
 31
0.0
  0
LINE
  5
E63
330
1D
100
AcDbEntity
  8
0
100
AcDbLine
 10
73.5397
 20
796.4201
 30
0.0
 11
73.8689
 21
796.1131
 31
0.0
  0
LINE
  5
E64
330
1D
100
AcDbEntity
  8
0
100
AcDbLine
 10
73.5397
 20
796.4201
 30
0.0
 11
74.58811410471
 21
797.544454950418
 31
0.0
  0
LINE
  5
E65
330
1D
100
AcDbEntity
  8
0
100
AcDbLine
 10
73.8689
 20
796.1131
 30
0.0
 11
74.6368
 21
795.3971
 31
0.0
  0
LINE
  5
E66
330
1D
100
AcDbEntity
  8
0
100
AcDbLine
 10
74.6368
 20
795.3971
 30
0.0
 11
75.4047
 21
794.6811
 31
0.0
  0
LINE
  5
E67
330
1D
100
AcDbEntity
  8
0
100
AcDbLine
 10
75.4047
 20
794.6811
 30
0.0
 11
75.7338
 21
794.3741
 31
0.0
  0
LINE
  5
E68
330
1D
100
AcDbEntity
  8
0
100
AcDbLine
 10
75.7338
 20
794.3741
 30
0.0
 11
77.10713984633
 21
795.846916368923
 31
0.0
  0
LINE
  5
E69
330
1D
100
AcDbEntity
  8
0
100
AcDbLine
 10
76.782
 20
796.1481
 30
0.0
 11
77.2516
 21
795.7131
 31
0.0
  0
LINE
  5
E6A
330
1D
100
AcDbEntity
  8
0
100
AcDbLine
 10
74.116601959907
 20
797.038789286622
 30
0.0
 11
74.58811410471
 21
797.544454950418
 31
0.0
  0
LINE
  5
E6B
330
1D
100
AcDbEntity
  8
0
100
AcDbLine
 10
75.7185
 20
796.8841
 30
0.0
 11
76.782
 21
796.1481
 31
0.0
  0
LINE
  5
E6C
330
1D
100
AcDbEntity
  8
0
100
AcDbLine
 10
103.479
 20
795.3511
 30
0.0
 11
105.156
 21
791.6861
 31
0.0
  0
LINE
  5
E6D
330
1D
100
AcDbEntity
  8
0
100
AcDbLine
 10
77.2894
 20
795.6691
 30
0.0
 11
77.3219
 21
795.6291
 31
0.0
  0
LINE
  5
E6E
330
1D
100
AcDbEntity
  8
0
100
AcDbLine
 10
77.2894
 20
795.6691
 30
0.0
 11
77.3218
 21
795.6291
 31
0.0
  0
LINE
  5
E6F
330
1D
100
AcDbEntity
  8
0
100
AcDbLine
 10
77.2516
 20
795.7131
 30
0.0
 11
77.2894
 21
795.6691
 31
0.0
  0
LINE
  5
E70
330
1D
100
AcDbEntity
  8
0
100
AcDbLine
 10
103.364
 20
796.0781
 30
0.0
 11
103.479
 21
795.3511
 31
0.0
  0
LINE
  5
E71
330
1D
100
AcDbEntity
  8
0
100
AcDbLine
 10
103.148
 20
796.9741
 30
0.0
 11
103.364
 21
796.0781
 31
0.0
  0
LINE
  5
E72
330
1D
100
AcDbEntity
  8
0
100
AcDbLine
 10
79.7251
 20
795.8111
 30
0.0
 11
82.6153
 21
793.1171
 31
0.0
  0
LINE
  5
E73
330
1D
100
AcDbEntity
  8
0
100
AcDbLine
 10
76.872220312502
 20
795.5058765625
 30
0.0
 11
77.2089
 21
795.4021
 31
0.0
  0
LINE
  5
E74
330
1D
100
AcDbEntity
  8
0
100
AcDbLine
 10
71.7969
 20
797.1921
 30
0.0
 11
72.1468
 21
797.1481
 31
0.0
  0
LINE
  5
E75
330
1D
100
AcDbEntity
  8
0
100
AcDbLine
 10
66.1043
 20
797.6111
 30
0.0
 11
66.4334
 21
797.3041
 31
0.0
  0
LINE
  5
E76
330
1D
100
AcDbEntity
  8
0
100
AcDbLine
 10
64.6814
 20
797.5711
 30
0.0
 11
65.0105
 21
797.2641
 31
0.0
  0
LINE
  5
E77
330
1D
100
AcDbEntity
  8
0
100
AcDbLine
 10
64.6814
 20
797.5711
 30
0.0
 11
65.363212849619
 21
798.302099348448
 31
0.0
  0
LINE
  5
E78
330
1D
100
AcDbEntity
  8
0
100
AcDbLine
 10
66.480102052173
 20
797.354184869441
 30
0.0
 11
66.7784
 21
797.0091
 31
0.0
  0
LINE
  5
E79
330
1D
100
AcDbEntity
  8
0
100
AcDbLine
 10
64.2394
 20
799.3501
 30
0.0
 11
64.5685
 21
799.0431
 31
0.0
  0
LINE
  5
E7A
330
1D
100
AcDbEntity
  8
0
100
AcDbLine
 10
64.2394
 20
799.3501
 30
0.0
 11
65.137851391279
 21
800.313629835164
 31
0.0
  0
LINE
  5
E7B
330
1D
100
AcDbEntity
  8
0
100
AcDbLine
 10
64.2394
 20
799.3501
 30
0.0
 11
64.374932023565
 21
799.495449152545
 31
0.0
  0
LINE
  5
E7C
330
1D
100
AcDbEntity
  8
0
100
AcDbLine
 10
64.5685
 20
799.0431
 30
0.0
 11
65.3364
 21
798.3271
 31
0.0
  0
LINE
  5
E7D
330
1D
100
AcDbEntity
  8
0
100
AcDbLine
 10
65.3364
 20
798.3271
 30
0.0
 11
66.1043
 21
797.6111
 31
0.0
  0
LINE
  5
E7E
330
1D
100
AcDbEntity
  8
0
100
AcDbLine
 10
67.020675270375
 20
797.933913977642
 30
0.0
 11
67.458
 21
797.6401
 31
0.0
  0
LINE
  5
E7F
330
1D
100
AcDbEntity
  8
0
100
AcDbLine
 10
66.489
 20
799.2071
 30
0.0
 11
67.5236
 21
798.1451
 31
0.0
  0
LINE
  5
E80
330
1D
100
AcDbEntity
  8
0
100
AcDbLine
 10
67.458
 20
797.6401
 30
0.0
 11
67.718
 21
797.5841
 31
0.0
  0
LINE
  5
E81
330
1D
100
AcDbEntity
  8
0
100
AcDbLine
 10
67.718
 20
797.5841
 30
0.0
 11
67.7362
 21
797.7331
 31
0.0
  0
LINE
  5
E82
330
1D
100
AcDbEntity
  8
0
100
AcDbLine
 10
68.1224
 20
798.0541
 30
0.0
 11
68.4515
 21
797.7471
 31
0.0
  0
LINE
  5
E83
330
1D
100
AcDbEntity
  8
0
100
AcDbLine
 10
68.1224
 20
798.0541
 30
0.0
 11
69.251417843218
 21
799.264566051263
 31
0.0
  0
LINE
  5
E84
330
1D
100
AcDbEntity
  8
0
100
AcDbLine
 10
68.4515
 20
797.7471
 30
0.0
 11
69.2194
 21
797.0311
 31
0.0
  0
LINE
  5
E85
330
1D
100
AcDbEntity
  8
0
100
AcDbLine
 10
67.5236
 20
798.1451
 30
0.0
 11
67.7362
 21
797.7331
 31
0.0
  0
LINE
  5
E86
330
1D
100
AcDbEntity
  8
0
100
AcDbLine
 10
64.1128
 20
800.7221
 30
0.0
 11
64.506687992772
 21
800.273871446185
 31
0.0
  0
LINE
  5
E87
330
1D
100
AcDbEntity
  8
0
100
AcDbLine
 10
64.807378719867
 20
799.959219700456
 30
0.0
 11
65.137851391279
 21
800.313629835164
 31
0.0
  0
LINE
  5
E88
330
1D
100
AcDbEntity
  8
0
100
AcDbLine
 10
65.6416
 20
800.3671
 30
0.0
 11
67.118938258219
 21
801.95144780361
 31
0.0
  0
LINE
  5
E89
330
1D
100
AcDbEntity
  8
0
100
AcDbLine
 10
65.3125
 20
800.6741
 30
0.0
 11
65.6416
 21
800.3671
 31
0.0
  0
LINE
  5
E8A
330
1D
100
AcDbEntity
  8
0
100
AcDbLine
 10
65.1986
 20
800.2731
 30
0.0
 11
66.489
 21
799.2071
 31
0.0
  0
LINE
  5
E8B
330
1D
100
AcDbEntity
  8
0
100
AcDbLine
 10
64.4692
 20
800.3131
 30
0.0
 11
64.807378719867
 21
799.959219700456
 31
0.0
  0
LINE
  5
E8C
330
1D
100
AcDbEntity
  8
0
100
AcDbLine
 10
64.4087
 20
800.8001
 30
0.0
 11
65.1986
 21
800.2731
 31
0.0
  0
LINE
  5
E8D
330
1D
100
AcDbEntity
  8
0
100
AcDbLine
 10
69.5207
 20
800.1681
 30
0.0
 11
70.2887
 21
799.4521
 31
0.0
  0
LINE
  5
E8E
330
1D
100
AcDbEntity
  8
0
100
AcDbLine
 10
68.5092
 20
799.4741
 30
0.0
 11
69.025130031975
 21
799.02195366478
 31
0.0
  0
LINE
  5
E8F
330
1D
100
AcDbEntity
  8
0
100
AcDbLine
 10
68.5066
 20
799.6091
 30
0.0
 11
68.916
 21
799.4621
 31
0.0
  0
LINE
  5
E90
330
1D
100
AcDbEntity
  8
0
100
AcDbLine
 10
68.5066
 20
799.6091
 30
0.0
 11
68.5092
 21
799.4741
 31
0.0
  0
LINE
  5
E91
330
1D
100
AcDbEntity
  8
0
100
AcDbLine
 10
68.916
 20
799.4621
 30
0.0
 11
69.9484
 21
798.8541
 31
0.0
  0
LINE
  5
E92
330
1D
100
AcDbEntity
  8
0
100
AcDbLine
 10
70.6178
 20
799.1451
 30
0.0
 11
71.948182406906
 21
800.571847349576
 31
0.0
  0
LINE
  5
E93
330
1D
100
AcDbEntity
  8
0
100
AcDbLine
 10
70.2887
 20
799.4521
 30
0.0
 11
70.6178
 21
799.1451
 31
0.0
  0
LINE
  5
E94
330
1D
100
AcDbEntity
  8
0
100
AcDbLine
 10
71.0529
 20
798.1111
 30
0.0
 11
71.8649
 21
797.4791
 31
0.0
  0
LINE
  5
E95
330
1D
100
AcDbEntity
  8
0
100
AcDbLine
 10
69.9484
 20
798.8541
 30
0.0
 11
71.0529
 21
798.1111
 31
0.0
  0
LINE
  5
E96
330
1D
100
AcDbEntity
  8
0
100
AcDbLine
 10
64.0604
 20
800.9741
 30
0.0
 11
64.1128
 21
800.7221
 31
0.0
  0
LINE
  5
E97
330
1D
100
AcDbEntity
  8
0
100
AcDbLine
 10
64.0604
 20
800.9741
 30
0.0
 11
64.4087
 21
800.8001
 31
0.0
  0
LINE
  5
E98
330
1D
100
AcDbEntity
  8
0
100
AcDbLine
 10
68.4237
 20
801.1911
 30
0.0
 11
68.7528
 21
800.8841
 31
0.0
  0
LINE
  5
E99
330
1D
100
AcDbEntity
  8
0
100
AcDbLine
 10
68.4237
 20
801.1911
 30
0.0
 11
69.402261678089
 21
802.240542831897
 31
0.0
  0
LINE
  5
E9A
330
1D
100
AcDbEntity
  8
0
100
AcDbLine
 10
68.7528
 20
800.8841
 30
0.0
 11
69.5207
 21
800.1681
 31
0.0
  0
LINE
  5
E9B
330
1D
100
AcDbEntity
  8
0
100
AcDbLine
 10
71.3363
 20
801.0901
 30
0.0
 11
71.9076
 21
800.6161
 31
0.0
  0
LINE
  5
E9C
330
1D
100
AcDbEntity
  8
0
100
AcDbLine
 10
64.5446
 20
801.3901
 30
0.0
 11
65.3125
 21
800.6741
 31
0.0
  0
LINE
  5
E9D
330
1D
100
AcDbEntity
  8
0
100
AcDbLine
 10
67.4488
 20
801.2201
 30
0.0
 11
67.7989
 21
801.1661
 31
0.0
  0
LINE
  5
E9E
330
1D
100
AcDbEntity
  8
0
100
AcDbLine
 10
71.567115458586
 20
800.163178191216
 30
0.0
 11
72.2634
 21
799.9291
 31
0.0
  0
LINE
  5
E9F
330
1D
100
AcDbEntity
  8
0
100
AcDbLine
 10
66.888
 20
802.1541
 30
0.0
 11
67.484
 21
801.6311
 31
0.0
  0
LINE
  5
EA0
330
1D
100
AcDbEntity
  8
0
100
AcDbLine
 10
66.0388
 20
802.8051
 30
0.0
 11
66.888
 21
802.1541
 31
0.0
  0
LINE
  5
EA1
330
1D
100
AcDbEntity
  8
0
100
AcDbLine
 10
68.5455
 20
802.4871
 30
0.0
 11
68.596
 21
802.2201
 31
0.0
  0
LINE
  5
EA2
330
1D
100
AcDbEntity
  8
0
100
AcDbLine
 10
68.5455
 20
802.4871
 30
0.0
 11
69.1663
 21
802.3561
 31
0.0
  0
LINE
  5
EA3
330
1D
100
AcDbEntity
  8
0
100
AcDbLine
 10
67.484
 20
801.6311
 30
0.0
 11
67.7989
 21
801.1661
 31
0.0
  0
LINE
  5
EA4
330
1D
100
AcDbEntity
  8
0
100
AcDbLine
 10
64.798
 20
803.6191
 30
0.0
 11
66.0388
 21
802.8051
 31
0.0
  0
LINE
  5
EA5
330
1D
100
AcDbEntity
  8
0
100
AcDbLine
 10
68.596
 20
802.2201
 30
0.0
 11
68.956
 21
801.8221
 31
0.0
  0
LINE
  5
EA6
330
1D
100
AcDbEntity
  8
0
100
AcDbLine
 10
70.2567
 20
801.8221
 30
0.0
 11
71.3363
 21
801.0901
 31
0.0
  0
LINE
  5
EA7
330
1D
100
AcDbEntity
  8
0
100
AcDbLine
 10
69.1663
 20
802.3561
 30
0.0
 11
70.2567
 21
801.8221
 31
0.0
  0
LINE
  5
EA8
330
1D
100
AcDbEntity
  8
0
100
AcDbLine
 10
66.781453083029
 20
801.589517221301
 30
0.0
 11
67.4488
 21
801.2201
 31
0.0
  0
LINE
  5
EA9
330
1D
100
AcDbEntity
  8
0
100
AcDbLine
 10
77.660364065872
 20
797.736209789403
 30
0.0
 11
77.7559
 21
797.6341
 31
0.0
  0
LINE
  5
EAA
330
1D
100
AcDbEntity
  8
0
100
AcDbLine
 10
73.446
 20
797.5451
 30
0.0
 11
74.116601959907
 21
797.038789286622
 31
0.0
  0
LINE
  5
EAB
330
1D
100
AcDbEntity
  8
0
100
AcDbLine
 10
71.9076
 20
800.6161
 30
0.0
 11
72.2946
 21
800.1941
 31
0.0
  0
LINE
  5
EAC
330
1D
100
AcDbEntity
  8
0
100
AcDbLine
 10
102.561
 20
797.8051
 30
0.0
 11
103.091
 21
797.0821
 31
0.0
  0
LINE
  5
EAD
330
1D
100
AcDbEntity
  8
0
100
AcDbLine
 10
102.561
 20
797.8051
 30
0.0
 11
103.148
 21
796.9741
 31
0.0
  0
LINE
  5
EAE
330
1D
100
AcDbEntity
  8
0
100
AcDbLine
 10
72.9147
 20
802.1601
 30
0.0
 11
76.4807
 21
798.8361
 31
0.0
  0
LINE
  5
EAF
330
1D
100
AcDbEntity
  8
0
100
AcDbLine
 10
76.4807
 20
798.8361
 30
0.0
 11
79.7251
 21
795.8111
 31
0.0
  0
LINE
  5
EB0
330
1D
100
AcDbEntity
  8
0
100
AcDbLine
 10
73.2926
 20
798.0801
 30
0.0
 11
74.2515
 21
797.7411
 31
0.0
  0
LINE
  5
EB1
330
1D
100
AcDbEntity
  8
0
100
AcDbLine
 10
73.0445
 20
798.0111
 30
0.0
 11
73.446
 21
797.5451
 31
0.0
  0
LINE
  5
EB2
330
1D
100
AcDbEntity
  8
0
100
AcDbLine
 10
73.0445
 20
798.0111
 30
0.0
 11
73.2926
 21
798.0801
 31
0.0
  0
LINE
  5
EB3
330
1D
100
AcDbEntity
  8
0
100
AcDbLine
 10
72.2634
 20
799.9291
 30
0.0
 11
72.2946
 21
800.1941
 31
0.0
  0
LINE
  5
EB4
330
1D
100
AcDbEntity
  8
0
100
AcDbLine
 10
74.2515
 20
797.7411
 30
0.0
 11
75.7185
 21
796.8841
 31
0.0
  0
LINE
  5
EB5
330
1D
100
AcDbEntity
  8
0
100
AcDbLine
 10
71.8649
 20
797.4791
 30
0.0
 11
72.1468
 21
797.1481
 31
0.0
  0
LINE
  5
EB6
330
1D
100
AcDbEntity
  8
0
100
AcDbLine
 10
71.54742257699
 20
797.327822270227
 30
0.0
 11
71.7969
 21
797.1921
 31
0.0
  0
LINE
  5
EB7
330
1D
100
AcDbEntity
  8
0
100
AcDbLine
 10
63.789
 20
803.8731
 30
0.0
 11
64.307622209323
 21
803.335417073165
 31
0.0
  0
LINE
  5
EB8
330
1D
100
AcDbEntity
  8
0
100
AcDbLine
 10
63.789
 20
803.8731
 30
0.0
 11
63.9045
 21
804.0431
 31
0.0
  0
LINE
  5
EB9
330
1D
100
AcDbEntity
  8
0
100
AcDbLine
 10
49.7249
 20
812.8851
 30
0.0
 11
51.056553176146
 21
814.313210165738
 31
0.0
  0
LINE
  5
EBA
330
1D
100
AcDbEntity
  8
0
100
AcDbLine
 10
49.3958
 20
813.1921
 30
0.0
 11
49.7249
 21
812.8851
 31
0.0
  0
LINE
  5
EBB
330
1D
100
AcDbEntity
  8
0
100
AcDbLine
 10
51.1254
 20
811.6501
 30
0.0
 11
51.48
 21
811.2611
 31
0.0
  0
LINE
  5
EBC
330
1D
100
AcDbEntity
  8
0
100
AcDbLine
 10
51.1254
 20
811.6501
 30
0.0
 11
51.1931
 21
811.7031
 31
0.0
  0
LINE
  5
EBD
330
1D
100
AcDbEntity
  8
0
100
AcDbLine
 10
51.3835
 20
810.6551
 30
0.0
 11
51.7126
 21
810.3481
 31
0.0
  0
LINE
  5
EBE
330
1D
100
AcDbEntity
  8
0
100
AcDbLine
 10
51.3835
 20
810.6551
 30
0.0
 11
51.923588835863
 21
811.234309640102
 31
0.0
  0
LINE
  5
EBF
330
1D
100
AcDbEntity
  8
0
100
AcDbLine
 10
51.730177826369
 20
811.026889094144
 30
0.0
 11
51.923588835863
 21
811.234309640102
 31
0.0
  0
LINE
  5
EC0
330
1D
100
AcDbEntity
  8
0
100
AcDbLine
 10
51.7126
 20
810.3481
 30
0.0
 11
52.4805
 21
809.6321
 31
0.0
  0
LINE
  5
EC1
330
1D
100
AcDbEntity
  8
0
100
AcDbLine
 10
51.48
 20
811.2611
 30
0.0
 11
51.730177826369
 21
811.026889094144
 31
0.0
  0
LINE
  5
EC2
330
1D
100
AcDbEntity
  8
0
100
AcDbLine
 10
52.4805
 20
809.6321
 30
0.0
 11
53.2484
 21
808.9161
 31
0.0
  0
LINE
  5
EC3
330
1D
100
AcDbEntity
  8
0
100
AcDbLine
 10
51.7585
 20
811.3571
 30
0.0
 11
52.6714
 21
810.6781
 31
0.0
  0
LINE
  5
EC4
330
1D
100
AcDbEntity
  8
0
100
AcDbLine
 10
51.1931
 20
811.7031
 30
0.0
 11
51.7585
 21
811.3571
 31
0.0
  0
LINE
  5
EC5
330
1D
100
AcDbEntity
  8
0
100
AcDbLine
 10
52.4325
 20
812.6851
 30
0.0
 11
53.2004
 21
811.9691
 31
0.0
  0
LINE
  5
EC6
330
1D
100
AcDbEntity
  8
0
100
AcDbLine
 10
51.3355
 20
813.7081
 30
0.0
 11
51.6646
 21
813.4011
 31
0.0
  0
LINE
  5
EC7
330
1D
100
AcDbEntity
  8
0
100
AcDbLine
 10
51.3355
 20
813.7081
 30
0.0
 11
52.703582095956
 21
815.174876581471
 31
0.0
  0
LINE
  5
EC8
330
1D
100
AcDbEntity
  8
0
100
AcDbLine
 10
51.6646
 20
813.4011
 30
0.0
 11
52.4325
 21
812.6851
 31
0.0
  0
LINE
  5
EC9
330
1D
100
AcDbEntity
  8
0
100
AcDbLine
 10
48.6279
 20
813.9081
 30
0.0
 11
49.3958
 21
813.1921
 31
0.0
  0
LINE
  5
ECA
330
1D
100
AcDbEntity
  8
0
100
AcDbLine
 10
44.8651
 20
814.4711
 30
0.0
 11
45.0804
 21
814.3431
 31
0.0
  0
LINE
  5
ECB
330
1D
100
AcDbEntity
  8
0
100
AcDbLine
 10
45.0804
 20
814.3431
 30
0.0
 11
45.824293621894
 21
814.982434875833
 31
0.0
  0
LINE
  5
ECC
330
1D
100
AcDbEntity
  8
0
100
AcDbLine
 10
44.8418
 20
814.5921
 30
0.0
 11
45.0804
 21
814.3431
 31
0.0
  0
LINE
  5
ECD
330
1D
100
AcDbEntity
  8
0
100
AcDbLine
 10
46.7686
 20
814.1171
 30
0.0
 11
47.9653
 21
812.8611
 31
0.0
  0
LINE
  5
ECE
330
1D
100
AcDbEntity
  8
0
100
AcDbLine
 10
47.86
 20
814.6241
 30
0.0
 11
48.6279
 21
813.9081
 31
0.0
  0
LINE
  5
ECF
330
1D
100
AcDbEntity
  8
0
100
AcDbLine
 10
47.724
 20
814.2161
 30
0.0
 11
51.541320932165
 21
810.824352536342
 31
0.0
  0
LINE
  5
ED0
330
1D
100
AcDbEntity
  8
0
100
AcDbLine
 10
50.810925425356
 20
814.049790610126
 30
0.0
 11
51.0514
 21
813.8961
 31
0.0
  0
LINE
  5
ED1
330
1D
100
AcDbEntity
  8
0
100
AcDbLine
 10
45.52526590419
 20
814.725437311744
 30
0.0
 11
47.9653
 21
812.8611
 31
0.0
  0
LINE
  5
ED2
330
1D
100
AcDbEntity
  8
0
100
AcDbLine
 10
50.718
 20
814.6881
 30
0.0
 11
51.1587
 21
814.2001
 31
0.0
  0
LINE
  5
ED3
330
1D
100
AcDbEntity
  8
0
100
AcDbLine
 10
52.203362315045
 20
814.638570564166
 30
0.0
 11
52.703582095956
 21
815.174876581471
 31
0.0
  0
LINE
  5
ED4
330
1D
100
AcDbEntity
  8
0
100
AcDbLine
 10
51.1587
 20
814.2001
 30
0.0
 11
51.3985
 21
813.8431
 31
0.0
  0
LINE
  5
ED5
330
1D
100
AcDbEntity
  8
0
100
AcDbLine
 10
51.0514
 20
813.8961
 30
0.0
 11
51.3985
 21
813.8431
 31
0.0
  0
LINE
  5
ED6
330
1D
100
AcDbEntity
  8
0
100
AcDbLine
 10
43.8401
 20
815.2071
 30
0.0
 11
44.1358
 21
814.9861
 31
0.0
  0
LINE
  5
ED7
330
1D
100
AcDbEntity
  8
0
100
AcDbLine
 10
44.1358
 20
814.9861
 30
0.0
 11
44.8651
 21
814.4711
 31
0.0
  0
LINE
  5
ED8
330
1D
100
AcDbEntity
  8
0
100
AcDbLine
 10
47.5309
 20
814.9311
 30
0.0
 11
47.86
 21
814.6241
 31
0.0
  0
LINE
  5
ED9
330
1D
100
AcDbEntity
  8
0
100
AcDbLine
 10
47.5309
 20
814.9311
 30
0.0
 11
48.794613364228
 21
816.286349200288
 31
0.0
  0
LINE
  5
EDA
330
1D
100
AcDbEntity
  8
0
100
AcDbLine
 10
43.5625
 20
815.4131
 30
0.0
 11
43.8401
 21
815.2071
 31
0.0
  0
LINE
  5
EDB
330
1D
100
AcDbEntity
  8
0
100
AcDbLine
 10
43.9422
 20
815.3141
 30
0.0
 11
44.8418
 21
814.5921
 31
0.0
  0
LINE
  5
EDC
330
1D
100
AcDbEntity
  8
0
100
AcDbLine
 10
50.0935
 20
815.2721
 30
0.0
 11
50.718
 21
814.6881
 31
0.0
  0
LINE
  5
EDD
330
1D
100
AcDbEntity
  8
0
100
AcDbLine
 10
51.7656
 20
815.1251
 30
0.0
 11
52.197061880139
 21
814.631815611081
 31
0.0
  0
LINE
  5
EDE
330
1D
100
AcDbEntity
  8
0
100
AcDbLine
 10
51.5331
 20
815.5381
 30
0.0
 11
51.6235
 21
815.6831
 31
0.0
  0
LINE
  5
EDF
330
1D
100
AcDbEntity
  8
0
100
AcDbLine
 10
51.5331
 20
815.5381
 30
0.0
 11
51.7656
 21
815.1251
 31
0.0
  0
LINE
  5
EE0
330
1D
100
AcDbEntity
  8
0
100
AcDbLine
 10
56.6859
 20
805.7101
 30
0.0
 11
57.015
 21
805.4031
 31
0.0
  0
LINE
  5
EE1
330
1D
100
AcDbEntity
  8
0
100
AcDbLine
 10
56.6859
 20
805.7101
 30
0.0
 11
57.154588649305
 21
806.212752391715
 31
0.0
  0
LINE
  5
EE2
330
1D
100
AcDbEntity
  8
0
100
AcDbLine
 10
56.6859
 20
805.7101
 30
0.0
 11
56.845230073672
 21
805.880976002059
 31
0.0
  0
LINE
  5
EE3
330
1D
100
AcDbEntity
  8
0
100
AcDbLine
 10
57.0202
 20
806.0821
 30
0.0
 11
58.179561133502
 21
807.325438318245
 31
0.0
  0
LINE
  5
EE4
330
1D
100
AcDbEntity
  8
0
100
AcDbLine
 10
57.027191376193
 20
806.076123215559
 30
0.0
 11
57.154588649305
 21
806.212752391715
 31
0.0
  0
LINE
  5
EE5
330
1D
100
AcDbEntity
  8
0
100
AcDbLine
 10
57.015
 20
805.4031
 30
0.0
 11
57.7829
 21
804.6871
 31
0.0
  0
LINE
  5
EE6
330
1D
100
AcDbEntity
  8
0
100
AcDbLine
 10
57.7829
 20
804.6871
 30
0.0
 11
58.5508
 21
803.9711
 31
0.0
  0
LINE
  5
EE7
330
1D
100
AcDbEntity
  8
0
100
AcDbLine
 10
57.14707855366
 20
806.218168877049
 30
0.0
 11
57.8751
 21
805.6931
 31
0.0
  0
LINE
  5
EE8
330
1D
100
AcDbEntity
  8
0
100
AcDbLine
 10
57.8751
 20
805.6931
 30
0.0
 11
59.1728
 21
804.6741
 31
0.0
  0
LINE
  5
EE9
330
1D
100
AcDbEntity
  8
0
100
AcDbLine
 10
59.1728
 20
804.6741
 30
0.0
 11
60.2984
 21
803.6561
 31
0.0
  0
LINE
  5
EEA
330
1D
100
AcDbEntity
  8
0
100
AcDbLine
 10
59.6815
 20
805.9251
 30
0.0
 11
60.0106
 21
805.6181
 31
0.0
  0
LINE
  5
EEB
330
1D
100
AcDbEntity
  8
0
100
AcDbLine
 10
59.37278761912
 20
804.192689449595
 30
0.0
 11
59.7419
 21
803.9171
 31
0.0
  0
LINE
  5
EEC
330
1D
100
AcDbEntity
  8
0
100
AcDbLine
 10
58.9136
 20
806.6411
 30
0.0
 11
59.6815
 21
805.9251
 31
0.0
  0
LINE
  5
EED
330
1D
100
AcDbEntity
  8
0
100
AcDbLine
 10
56.6911
 20
806.3891
 30
0.0
 11
57.0202
 21
806.0821
 31
0.0
  0
LINE
  5
EEE
330
1D
100
AcDbEntity
  8
0
100
AcDbLine
 10
56.6435
 20
806.0581
 30
0.0
 11
56.845230073672
 21
805.880976002059
 31
0.0
  0
LINE
  5
EEF
330
1D
100
AcDbEntity
  8
0
100
AcDbLine
 10
53.5775
 20
808.6091
 30
0.0
 11
54.238635826089
 21
809.318124550149
 31
0.0
  0
LINE
  5
EF0
330
1D
100
AcDbEntity
  8
0
100
AcDbLine
 10
53.2484
 20
808.9161
 30
0.0
 11
53.5775
 21
808.6091
 31
0.0
  0
LINE
  5
EF1
330
1D
100
AcDbEntity
  8
0
100
AcDbLine
 10
53.5296
 20
811.6621
 30
0.0
 11
54.918184002803
 21
813.150901171368
 31
0.0
  0
LINE
  5
EF2
330
1D
100
AcDbEntity
  8
0
100
AcDbLine
 10
53.2004
 20
811.9691
 30
0.0
 11
53.5296
 21
811.6621
 31
0.0
  0
LINE
  5
EF3
330
1D
100
AcDbEntity
  8
0
100
AcDbLine
 10
52.6714
 20
810.6781
 30
0.0
 11
53.6019
 21
809.9021
 31
0.0
  0
LINE
  5
EF4
330
1D
100
AcDbEntity
  8
0
100
AcDbLine
 10
53.6019
 20
809.9021
 30
0.0
 11
54.3248
 21
809.2391
 31
0.0
  0
LINE
  5
EF5
330
1D
100
AcDbEntity
  8
0
100
AcDbLine
 10
53.77527518294
 20
808.821200834021
 30
0.0
 11
55.7937
 21
806.9481
 31
0.0
  0
LINE
  5
EF6
330
1D
100
AcDbEntity
  8
0
100
AcDbLine
 10
53.3786
 20
814.6991
 30
0.0
 11
53.9481
 21
814.2381
 31
0.0
  0
LINE
  5
EF7
330
1D
100
AcDbEntity
  8
0
100
AcDbLine
 10
54.3081
 20
808.9941
 30
0.0
 11
54.5743
 21
808.9091
 31
0.0
  0
LINE
  5
EF8
330
1D
100
AcDbEntity
  8
0
100
AcDbLine
 10
54.085136343722
 20
809.153506483575
 30
0.0
 11
54.3081
 21
808.9941
 31
0.0
  0
LINE
  5
EF9
330
1D
100
AcDbEntity
  8
0
100
AcDbLine
 10
54.085136343722
 20
809.153506483575
 30
0.0
 11
54.238635826089
 21
809.318124550149
 31
0.0
  0
LINE
  5
EFA
330
1D
100
AcDbEntity
  8
0
100
AcDbLine
 10
54.3248
 20
809.2391
 30
0.0
 11
54.5743
 21
808.9091
 31
0.0
  0
LINE
  5
EFB
330
1D
100
AcDbEntity
  8
0
100
AcDbLine
 10
53.9481
 20
814.2381
 30
0.0
 11
54.9866
 21
813.0611
 31
0.0
  0
LINE
  5
EFC
330
1D
100
AcDbEntity
  8
0
100
AcDbLine
 10
55.9232
 20
807.1051
 30
0.0
 11
56.6911
 21
806.3891
 31
0.0
  0
LINE
  5
EFD
330
1D
100
AcDbEntity
  8
0
100
AcDbLine
 10
55.7937
 20
806.9481
 30
0.0
 11
56.6435
 21
806.0581
 31
0.0
  0
LINE
  5
EFE
330
1D
100
AcDbEntity
  8
0
100
AcDbLine
 10
54.8261
 20
808.1281
 30
0.0
 11
55.1552
 21
807.8211
 31
0.0
  0
LINE
  5
EFF
330
1D
100
AcDbEntity
  8
0
100
AcDbLine
 10
54.8261
 20
808.1281
 30
0.0
 11
56.074109343972
 21
809.466507674752
 31
0.0
  0
LINE
  5
F00
330
1D
100
AcDbEntity
  8
0
100
AcDbLine
 10
55.1552
 20
807.8211
 30
0.0
 11
55.9232
 21
807.1051
 31
0.0
  0
LINE
  5
F01
330
1D
100
AcDbEntity
  8
0
100
AcDbLine
 10
55.761230403818
 20
809.130965655942
 30
0.0
 11
56.074109343972
 21
809.466507674752
 31
0.0
  0
LINE
  5
F02
330
1D
100
AcDbEntity
  8
0
100
AcDbLine
 10
57.8165
 20
807.6641
 30
0.0
 11
58.1456
 21
807.3571
 31
0.0
  0
LINE
  5
F03
330
1D
100
AcDbEntity
  8
0
100
AcDbLine
 10
57.8165
 20
807.6641
 30
0.0
 11
59.055291568133
 21
808.992622218376
 31
0.0
  0
LINE
  5
F04
330
1D
100
AcDbEntity
  8
0
100
AcDbLine
 10
58.1456
 20
807.3571
 30
0.0
 11
58.9136
 21
806.6411
 31
0.0
  0
LINE
  5
F05
330
1D
100
AcDbEntity
  8
0
100
AcDbLine
 10
58.2423
 20
808.2871
 30
0.0
 11
58.33028103762
 21
808.215096262339
 31
0.0
  0
LINE
  5
F06
330
1D
100
AcDbEntity
  8
0
100
AcDbLine
 10
56.5898
 20
809.0981
 30
0.0
 11
57.3957
 21
808.4661
 31
0.0
  0
LINE
  5
F07
330
1D
100
AcDbEntity
  8
0
100
AcDbLine
 10
57.3957
 20
808.4661
 30
0.0
 11
58.044003967823
 21
807.908082994231
 31
0.0
  0
LINE
  5
F08
330
1D
100
AcDbEntity
  8
0
100
AcDbLine
 10
55.9459
 20
809.5581
 30
0.0
 11
56.5898
 21
809.0981
 31
0.0
  0
LINE
  5
F09
330
1D
100
AcDbEntity
  8
0
100
AcDbLine
 10
58.3391
 20
809.2731
 30
0.0
 11
58.9131
 21
809.0821
 31
0.0
  0
LINE
  5
F0A
330
1D
100
AcDbEntity
  8
0
100
AcDbLine
 10
54.9142
 20
810.1101
 30
0.0
 11
55.0722
 21
809.7951
 31
0.0
  0
LINE
  5
F0B
330
1D
100
AcDbEntity
  8
0
100
AcDbLine
 10
54.9142
 20
810.1101
 30
0.0
 11
55.4156
 21
809.8861
 31
0.0
  0
LINE
  5
F0C
330
1D
100
AcDbEntity
  8
0
100
AcDbLine
 10
56.9393
 20
809.7151
 30
0.0
 11
58.2423
 21
808.2871
 31
0.0
  0
LINE
  5
F0D
330
1D
100
AcDbEntity
  8
0
100
AcDbLine
 10
56.9393
 20
809.7151
 30
0.0
 11
56.9917
 21
809.7111
 31
0.0
  0
LINE
  5
F0E
330
1D
100
AcDbEntity
  8
0
100
AcDbLine
 10
56.649
 20
812.1711
 30
0.0
 11
57.4169
 21
811.4551
 31
0.0
  0
LINE
  5
F0F
330
1D
100
AcDbEntity
  8
0
100
AcDbLine
 10
57.4169
 20
811.4551
 30
0.0
 11
58.1849
 21
810.7391
 31
0.0
  0
LINE
  5
F10
330
1D
100
AcDbEntity
  8
0
100
AcDbLine
 10
58.1849
 20
810.7391
 30
0.0
 11
58.514
 21
810.4321
 31
0.0
  0
LINE
  5
F11
330
1D
100
AcDbEntity
  8
0
100
AcDbLine
 10
55.4156
 20
809.8861
 30
0.0
 11
55.9459
 21
809.5581
 31
0.0
  0
LINE
  5
F12
330
1D
100
AcDbEntity
  8
0
100
AcDbLine
 10
55.0722
 20
809.7951
 30
0.0
 11
55.752743663982
 21
809.121864187443
 31
0.0
  0
LINE
  5
F13
330
1D
100
AcDbEntity
  8
0
100
AcDbLine
 10
56.3199
 20
812.4781
 30
0.0
 11
56.649
 21
812.1711
 31
0.0
  0
LINE
  5
F14
330
1D
100
AcDbEntity
  8
0
100
AcDbLine
 10
56.3199
 20
812.4781
 30
0.0
 11
57.443581153319
 21
813.68317389375
 31
0.0
  0
LINE
  5
F15
330
1D
100
AcDbEntity
  8
0
100
AcDbLine
 10
56.907324591271
 20
813.108074114451
 30
0.0
 11
57.443581153319
 21
813.68317389375
 31
0.0
  0
LINE
  5
F16
330
1D
100
AcDbEntity
  8
0
100
AcDbLine
 10
56.8047
 20
813.2161
 30
0.0
 11
56.907324591271
 21
813.108074114451
 31
0.0
  0
LINE
  5
F17
330
1D
100
AcDbEntity
  8
0
100
AcDbLine
 10
56.4705
 20
813.7761
 30
0.0
 11
56.9217
 21
813.9401
 31
0.0
  0
LINE
  5
F18
330
1D
100
AcDbEntity
  8
0
100
AcDbLine
 10
56.4705
 20
813.7761
 30
0.0
 11
56.8047
 21
813.2161
 31
0.0
  0
LINE
  5
F19
330
1D
100
AcDbEntity
  8
0
100
AcDbLine
 10
56.9217
 20
813.9401
 30
0.0
 11
57.8642
 21
813.4761
 31
0.0
  0
LINE
  5
F1A
330
1D
100
AcDbEntity
  8
0
100
AcDbLine
 10
57.8642
 20
813.4761
 30
0.0
 11
58.6164
 21
812.9511
 31
0.0
  0
LINE
  5
F1B
330
1D
100
AcDbEntity
  8
0
100
AcDbLine
 10
54.9866
 20
813.0611
 30
0.0
 11
55.37
 21
812.6921
 31
0.0
  0
LINE
  5
F1C
330
1D
100
AcDbEntity
  8
0
100
AcDbLine
 10
55.3524
 20
812.4321
 30
0.0
 11
55.37
 21
812.6921
 31
0.0
  0
LINE
  5
F1D
330
1D
100
AcDbEntity
  8
0
100
AcDbLine
 10
54.573408695708
 20
812.781242670315
 30
0.0
 11
55.3524
 21
812.4321
 31
0.0
  0
LINE
  5
F1E
330
1D
100
AcDbEntity
  8
0
100
AcDbLine
 10
56.9917
 20
809.7111
 30
0.0
 11
58.3391
 21
809.2731
 31
0.0
  0
LINE
  5
F1F
330
1D
100
AcDbEntity
  8
0
100
AcDbLine
 10
58.514
 20
810.4321
 30
0.0
 11
59.816381818761
 21
811.828818566337
 31
0.0
  0
LINE
  5
F20
330
1D
100
AcDbEntity
  8
0
100
AcDbLine
 10
59.7416
 20
811.1291
 30
0.0
 11
60.1294
 21
811.2461
 31
0.0
  0
LINE
  5
F21
330
1D
100
AcDbEntity
  8
0
100
AcDbLine
 10
59.32828130874
 20
811.305362975385
 30
0.0
 11
59.7416
 21
811.1291
 31
0.0
  0
LINE
  5
F22
330
1D
100
AcDbEntity
  8
0
100
AcDbLine
 10
58.6164
 20
812.9511
 30
0.0
 11
59.2696
 21
812.4011
 31
0.0
  0
LINE
  5
F23
330
1D
100
AcDbEntity
  8
0
100
AcDbLine
 10
59.2696
 20
812.4011
 30
0.0
 11
59.8314
 21
811.8131
 31
0.0
  0
LINE
  5
F24
330
1D
100
AcDbEntity
  8
0
100
AcDbLine
 10
59.8314
 20
811.8131
 30
0.0
 11
60.1294
 21
811.2461
 31
0.0
  0
LINE
  5
F25
330
1D
100
AcDbEntity
  8
0
100
AcDbLine
 10
58.9131
 20
809.0821
 30
0.0
 11
59.9508
 21
808.4291
 31
0.0
  0
LINE
  5
F26
330
1D
100
AcDbEntity
  8
0
100
AcDbLine
 10
52.5245
 20
815.3011
 30
0.0
 11
53.3786
 21
814.6991
 31
0.0
  0
LINE
  5
F27
330
1D
100
AcDbEntity
  8
0
100
AcDbLine
 10
39.292
 20
820.2571
 30
0.0
 11
41.691751846316
 21
818.094628730459
 31
0.0
  0
LINE
  5
F28
330
1D
100
AcDbEntity
  8
0
100
AcDbLine
 10
39.6596
 20
820.1221
 30
0.0
 11
41.3702
 21
818.8811
 31
0.0
  0
LINE
  5
F29
330
1D
100
AcDbEntity
  8
0
100
AcDbLine
 10
39.6596
 20
820.1221
 30
0.0
 11
40.9197
 21
819.6571
 31
0.0
  0
LINE
  5
F2A
330
1D
100
AcDbEntity
  8
0
100
AcDbLine
 10
40.6267
 20
821.3691
 30
0.0
 11
41.3946
 21
820.6531
 31
0.0
  0
LINE
  5
F2B
330
1D
100
AcDbEntity
  8
0
100
AcDbLine
 10
41.2633
 20
817.2581
 30
0.0
 11
41.5843
 21
817.0681
 31
0.0
  0
LINE
  5
F2C
330
1D
100
AcDbEntity
  8
0
100
AcDbLine
 10
41.2633
 20
817.2581
 30
0.0
 11
41.962915523475
 21
818.624060937488
 31
0.0
  0
LINE
  5
F2D
330
1D
100
AcDbEntity
  8
0
100
AcDbLine
 10
41.2633
 20
817.2581
 30
0.0
 11
41.6065
 21
816.9321
 31
0.0
  0
LINE
  5
F2E
330
1D
100
AcDbEntity
  8
0
100
AcDbLine
 10
41.6065
 20
816.9321
 30
0.0
 11
42.2834
 21
816.3921
 31
0.0
  0
LINE
  5
F2F
330
1D
100
AcDbEntity
  8
0
100
AcDbLine
 10
41.5843
 20
817.0681
 30
0.0
 11
42.7521
 21
816.2301
 31
0.0
  0
LINE
  5
F30
330
1D
100
AcDbEntity
  8
0
100
AcDbLine
 10
42.5294
 20
816.2031
 30
0.0
 11
43.1015
 21
815.7591
 31
0.0
  0
LINE
  5
F31
330
1D
100
AcDbEntity
  8
0
100
AcDbLine
 10
42.2834
 20
816.3921
 30
0.0
 11
42.5294
 21
816.2031
 31
0.0
  0
LINE
  5
F32
330
1D
100
AcDbEntity
  8
0
100
AcDbLine
 10
41.7237
 20
820.3461
 30
0.0
 11
43.029227754269
 21
821.746192374593
 31
0.0
  0
LINE
  5
F33
330
1D
100
AcDbEntity
  8
0
100
AcDbLine
 10
41.3946
 20
820.6531
 30
0.0
 11
41.7237
 21
820.3461
 31
0.0
  0
LINE
  5
F34
330
1D
100
AcDbEntity
  8
0
100
AcDbLine
 10
41.3702
 20
818.8811
 30
0.0
 11
41.845936993281
 21
818.395666773253
 31
0.0
  0
LINE
  5
F35
330
1D
100
AcDbEntity
  8
0
100
AcDbLine
 10
40.9197
 20
819.6571
 30
0.0
 11
43.3595
 21
817.2411
 31
0.0
  0
LINE
  5
F36
330
1D
100
AcDbEntity
  8
0
100
AcDbLine
 10
39.5296
 20
822.3921
 30
0.0
 11
39.8588
 21
822.0851
 31
0.0
  0
LINE
  5
F37
330
1D
100
AcDbEntity
  8
0
100
AcDbLine
 10
39.5296
 20
822.3921
 30
0.0
 11
40.882181772857
 21
823.842654704791
 31
0.0
  0
LINE
  5
F38
330
1D
100
AcDbEntity
  8
0
100
AcDbLine
 10
37.8007
 20
824.3891
 30
0.0
 11
37.8185
 21
824.2271
 31
0.0
  0
LINE
  5
F39
330
1D
100
AcDbEntity
  8
0
100
AcDbLine
 10
38.6551
 20
825.5321
 30
0.0
 11
40.023505273026
 21
826.99962436465
 31
0.0
  0
LINE
  5
F3A
330
1D
100
AcDbEntity
  8
0
100
AcDbLine
 10
38.326
 20
825.8391
 30
0.0
 11
38.6551
 21
825.5321
 31
0.0
  0
LINE
  5
F3B
330
1D
100
AcDbEntity
  8
0
100
AcDbLine
 10
39.8588
 20
822.0851
 30
0.0
 11
40.6267
 21
821.3691
 31
0.0
  0
LINE
  5
F3C
330
1D
100
AcDbEntity
  8
0
100
AcDbLine
 10
39.9794
 20
824.4401
 30
0.0
 11
40.3678
 21
824.2261
 31
0.0
  0
LINE
  5
F3D
330
1D
100
AcDbEntity
  8
0
100
AcDbLine
 10
39.7782
 20
824.3741
 30
0.0
 11
39.9794
 21
824.4401
 31
0.0
  0
LINE
  5
F3E
330
1D
100
AcDbEntity
  8
0
100
AcDbLine
 10
39.7782
 20
824.3741
 30
0.0
 11
40.2001
 21
823.7371
 31
0.0
  0
LINE
  5
F3F
330
1D
100
AcDbEntity
  8
0
100
AcDbLine
 10
37.7104
 20
829.3051
 30
0.0
 11
38.276
 21
828.7201
 31
0.0
  0
LINE
  5
F40
330
1D
100
AcDbEntity
  8
0
100
AcDbLine
 10
38.276
 20
828.7201
 30
0.0
 11
39.3176
 21
827.8671
 31
0.0
  0
LINE
  5
F41
330
1D
100
AcDbEntity
  8
0
100
AcDbLine
 10
38.2328
 20
831.7531
 30
0.0
 11
38.3528
 21
830.8361
 31
0.0
  0
LINE
  5
F42
330
1D
100
AcDbEntity
  8
0
100
AcDbLine
 10
37.9169
 20
830.9401
 30
0.0
 11
38.3528
 21
830.8361
 31
0.0
  0
LINE
  5
F43
330
1D
100
AcDbEntity
  8
0
100
AcDbLine
 10
37.9569
 20
834.7501
 30
0.0
 11
41.9085
 21
831.0671
 31
0.0
  0
LINE
  5
F44
330
1D
100
AcDbEntity
  8
0
100
AcDbLine
 10
37.6535
 20
832.5371
 30
0.0
 11
37.7245
 21
832.4481
 31
0.0
  0
LINE
  5
F45
330
1D
100
AcDbEntity
  8
0
100
AcDbLine
 10
37.7245
 20
832.4481
 30
0.0
 11
38.2328
 21
831.7531
 31
0.0
  0
LINE
  5
F46
330
1D
100
AcDbEntity
  8
0
100
AcDbLine
 10
39.581296379187
 20
826.525384504013
 30
0.0
 11
39.961
 21
826.2821
 31
0.0
  0
LINE
  5
F47
330
1D
100
AcDbEntity
  8
0
100
AcDbLine
 10
39.3176
 20
827.8671
 30
0.0
 11
39.9909
 21
827.0511
 31
0.0
  0
LINE
  5
F48
330
1D
100
AcDbEntity
  8
0
100
AcDbLine
 10
39.961
 20
826.2821
 30
0.0
 11
40.3999
 21
826.1581
 31
0.0
  0
LINE
  5
F49
330
1D
100
AcDbEntity
  8
0
100
AcDbLine
 10
39.9909
 20
827.0511
 30
0.0
 11
40.2601
 21
826.6261
 31
0.0
  0
LINE
  5
F4A
330
1D
100
AcDbEntity
  8
0
100
AcDbLine
 10
40.492696837346
 20
823.424957810608
 30
0.0
 11
40.882181772857
 21
823.842654704791
 31
0.0
  0
LINE
  5
F4B
330
1D
100
AcDbEntity
  8
0
100
AcDbLine
 10
40.2001
 20
823.7371
 30
0.0
 11
40.492696837346
 21
823.424957810608
 31
0.0
  0
LINE
  5
F4C
330
1D
100
AcDbEntity
  8
0
100
AcDbLine
 10
42.4772
 20
822.4051
 30
0.0
 11
43.3728
 21
821.3361
 31
0.0
  0
LINE
  5
F4D
330
1D
100
AcDbEntity
  8
0
100
AcDbLine
 10
41.7648
 20
823.0951
 30
0.0
 11
42.4772
 21
822.4051
 31
0.0
  0
LINE
  5
F4E
330
1D
100
AcDbEntity
  8
0
100
AcDbLine
 10
41.005
 20
823.7511
 30
0.0
 11
41.7648
 21
823.0951
 31
0.0
  0
LINE
  5
F4F
330
1D
100
AcDbEntity
  8
0
100
AcDbLine
 10
42.2196
 20
825.6271
 30
0.0
 11
42.5487
 21
825.3201
 31
0.0
  0
LINE
  5
F50
330
1D
100
AcDbEntity
  8
0
100
AcDbLine
 10
42.2196
 20
825.6271
 30
0.0
 11
43.420338938028
 21
826.914461160537
 31
0.0
  0
LINE
  5
F51
330
1D
100
AcDbEntity
  8
0
100
AcDbLine
 10
42.5487
 20
825.3201
 30
0.0
 11
43.3166
 21
824.6041
 31
0.0
  0
LINE
  5
F52
330
1D
100
AcDbEntity
  8
0
100
AcDbLine
 10
41.9085
 20
831.0671
 30
0.0
 11
45.9014
 21
827.3441
 31
0.0
  0
LINE
  5
F53
330
1D
100
AcDbEntity
  8
0
100
AcDbLine
 10
40.2601
 20
826.6261
 30
0.0
 11
40.3999
 21
826.1581
 31
0.0
  0
LINE
  5
F54
330
1D
100
AcDbEntity
  8
0
100
AcDbLine
 10
40.3678
 20
824.2261
 30
0.0
 11
41.005
 21
823.7511
 31
0.0
  0
LINE
  5
F55
330
1D
100
AcDbEntity
  8
0
100
AcDbLine
 10
43.1015
 20
815.7591
 30
0.0
 11
43.5625
 21
815.4131
 31
0.0
  0
LINE
  5
F56
330
1D
100
AcDbEntity
  8
0
100
AcDbLine
 10
45.6537
 20
815.9981
 30
0.0
 11
46.317519980473
 21
816.710003128619
 31
0.0
  0
LINE
  5
F57
330
1D
100
AcDbEntity
  8
0
100
AcDbLine
 10
42.7521
 20
816.2301
 30
0.0
 11
43.9422
 21
815.3141
 31
0.0
  0
LINE
  5
F58
330
1D
100
AcDbEntity
  8
0
100
AcDbLine
 10
45.3246
 20
816.3051
 30
0.0
 11
45.6537
 21
815.9981
 31
0.0
  0
LINE
  5
F59
330
1D
100
AcDbEntity
  8
0
100
AcDbLine
 10
46.049840223166
 20
816.422934251061
 30
0.0
 11
46.1334
 21
816.3561
 31
0.0
  0
LINE
  5
F5A
330
1D
100
AcDbEntity
  8
0
100
AcDbLine
 10
46.1334
 20
816.3561
 30
0.0
 11
46.7284
 21
815.9981
 31
0.0
  0
LINE
  5
F5B
330
1D
100
AcDbEntity
  8
0
100
AcDbLine
 10
46.7731
 20
815.9791
 30
0.0
 11
46.7933
 21
816.1611
 31
0.0
  0
LINE
  5
F5C
330
1D
100
AcDbEntity
  8
0
100
AcDbLine
 10
48.3376
 20
816.1211
 30
0.0
 11
48.495447682165
 21
815.965513745946
 31
0.0
  0
LINE
  5
F5D
330
1D
100
AcDbEntity
  8
0
100
AcDbLine
 10
49.2368
 20
815.9891
 30
0.0
 11
50.0935
 21
815.2721
 31
0.0
  0
LINE
  5
F5E
330
1D
100
AcDbEntity
  8
0
100
AcDbLine
 10
46.7174
 20
816.0081
 30
0.0
 11
46.7731
 21
815.9791
 31
0.0
  0
LINE
  5
F5F
330
1D
100
AcDbEntity
  8
0
100
AcDbLine
 10
44.5567
 20
817.0211
 30
0.0
 11
45.3246
 21
816.3051
 31
0.0
  0
LINE
  5
F60
330
1D
100
AcDbEntity
  8
0
100
AcDbLine
 10
46.2975
 20
816.7331
 30
0.0
 11
46.7933
 21
816.1611
 31
0.0
  0
LINE
  5
F61
330
1D
100
AcDbEntity
  8
0
100
AcDbLine
 10
51.7758
 20
816.7151
 30
0.0
 11
53.057881293184
 21
818.090047592133
 31
0.0
  0
LINE
  5
F62
330
1D
100
AcDbEntity
  8
0
100
AcDbLine
 10
51.4466
 20
817.0221
 30
0.0
 11
51.7758
 21
816.7151
 31
0.0
  0
LINE
  5
F63
330
1D
100
AcDbEntity
  8
0
100
AcDbLine
 10
48.2654
 20
816.6421
 30
0.0
 11
49.2368
 21
815.9891
 31
0.0
  0
LINE
  5
F64
330
1D
100
AcDbEntity
  8
0
100
AcDbLine
 10
43.0026
 20
819.3871
 30
0.0
 11
43.5356
 21
819.1071
 31
0.0
  0
LINE
  5
F65
330
1D
100
AcDbEntity
  8
0
100
AcDbLine
 10
43.0026
 20
819.3871
 30
0.0
 11
43.4016
 21
818.8321
 31
0.0
  0
LINE
  5
F66
330
1D
100
AcDbEntity
  8
0
100
AcDbLine
 10
43.4597
 20
818.0441
 30
0.0
 11
43.7888
 21
817.7371
 31
0.0
  0
LINE
  5
F67
330
1D
100
AcDbEntity
  8
0
100
AcDbLine
 10
43.4597
 20
818.0441
 30
0.0
 11
44.083098260416
 21
818.71265350098
 31
0.0
  0
LINE
  5
F68
330
1D
100
AcDbEntity
  8
0
100
AcDbLine
 10
43.7888
 20
817.7371
 30
0.0
 11
44.5567
 21
817.0211
 31
0.0
  0
LINE
  5
F69
330
1D
100
AcDbEntity
  8
0
100
AcDbLine
 10
43.4016
 20
818.8321
 30
0.0
 11
43.798672447711
 21
818.407625583953
 31
0.0
  0
LINE
  5
F6A
330
1D
100
AcDbEntity
  8
0
100
AcDbLine
 10
44.2701
 20
820.2961
 30
0.0
 11
44.5992
 21
819.9891
 31
0.0
  0
LINE
  5
F6B
330
1D
100
AcDbEntity
  8
0
100
AcDbLine
 10
44.2701
 20
820.2961
 30
0.0
 11
45.64869090025
 21
821.774547777775
 31
0.0
  0
LINE
  5
F6C
330
1D
100
AcDbEntity
  8
0
100
AcDbLine
 10
44.5992
 20
819.9891
 30
0.0
 11
45.3671
 21
819.2731
 31
0.0
  0
LINE
  5
F6D
330
1D
100
AcDbEntity
  8
0
100
AcDbLine
 10
43.5356
 20
819.1071
 30
0.0
 11
44.2074
 21
818.6231
 31
0.0
  0
LINE
  5
F6E
330
1D
100
AcDbEntity
  8
0
100
AcDbLine
 10
44.2074
 20
818.6231
 30
0.0
 11
45.5707
 21
817.4491
 31
0.0
  0
LINE
  5
F6F
330
1D
100
AcDbEntity
  8
0
100
AcDbLine
 10
44.4136
 20
823.5811
 30
0.0
 11
45.654112658397
 21
824.91110418742
 31
0.0
  0
LINE
  5
F70
330
1D
100
AcDbEntity
  8
0
100
AcDbLine
 10
42.887386295122
 20
826.343060907615
 30
0.0
 11
43.420338938028
 21
826.914461160537
 31
0.0
  0
LINE
  5
F71
330
1D
100
AcDbEntity
  8
0
100
AcDbLine
 10
43.3166
 20
824.6041
 30
0.0
 11
44.0845
 21
823.8881
 31
0.0
  0
LINE
  5
F72
330
1D
100
AcDbEntity
  8
0
100
AcDbLine
 10
44.0845
 20
823.8881
 30
0.0
 11
44.4136
 21
823.5811
 31
0.0
  0
LINE
  5
F73
330
1D
100
AcDbEntity
  8
0
100
AcDbLine
 10
43.3728
 20
821.3361
 30
0.0
 11
43.4134
 21
821.0041
 31
0.0
  0
LINE
  5
F74
330
1D
100
AcDbEntity
  8
0
100
AcDbLine
 10
42.7301
 20
826.5481
 30
0.0
 11
42.884160730843
 21
826.339602648669
 31
0.0
  0
LINE
  5
F75
330
1D
100
AcDbEntity
  8
0
100
AcDbLine
 10
42.7301
 20
826.5481
 30
0.0
 11
42.7962
 21
827.1881
 31
0.0
  0
LINE
  5
F76
330
1D
100
AcDbEntity
  8
0
100
AcDbLine
 10
43.7747
 20
826.7591
 30
0.0
 11
44.8464
 21
825.8551
 31
0.0
  0
LINE
  5
F77
330
1D
100
AcDbEntity
  8
0
100
AcDbLine
 10
42.7962
 20
827.1881
 30
0.0
 11
43.7747
 21
826.7591
 31
0.0
  0
LINE
  5
F78
330
1D
100
AcDbEntity
  8
0
100
AcDbLine
 10
42.789893802168
 20
827.127041503588
 30
0.0
 11
42.90649484963
 21
827.139743852334
 31
0.0
  0
LINE
  5
F79
330
1D
100
AcDbEntity
  8
0
100
AcDbLine
 10
42.7359
 20
826.5531
 30
0.0
 11
42.887386295122
 21
826.343060907615
 31
0.0
  0
LINE
  5
F7A
330
1D
100
AcDbEntity
  8
0
100
AcDbLine
 10
45.07538647233
 20
824.290628253032
 30
0.0
 11
45.3203
 21
824.1291
 31
0.0
  0
LINE
  5
F7B
330
1D
100
AcDbEntity
  8
0
100
AcDbLine
 10
44.8044
 20
822.2361
 30
0.0
 11
45.2866
 21
822.0151
 31
0.0
  0
LINE
  5
F7C
330
1D
100
AcDbEntity
  8
0
100
AcDbLine
 10
46.4642
 20
818.2501
 30
0.0
 11
47.784392770465
 21
819.66591963683
 31
0.0
  0
LINE
  5
F7D
330
1D
100
AcDbEntity
  8
0
100
AcDbLine
 10
45.3671
 20
819.2731
 30
0.0
 11
46.1351
 21
818.5571
 31
0.0
  0
LINE
  5
F7E
330
1D
100
AcDbEntity
  8
0
100
AcDbLine
 10
46.1351
 20
818.5571
 30
0.0
 11
46.4642
 21
818.2501
 31
0.0
  0
LINE
  5
F7F
330
1D
100
AcDbEntity
  8
0
100
AcDbLine
 10
45.5707
 20
817.4491
 30
0.0
 11
46.2975
 21
816.7331
 31
0.0
  0
LINE
  5
F80
330
1D
100
AcDbEntity
  8
0
100
AcDbLine
 10
45.8315
 20
821.6531
 30
0.0
 11
46.506
 21
821.1131
 31
0.0
  0
LINE
  5
F81
330
1D
100
AcDbEntity
  8
0
100
AcDbLine
 10
46.506
 20
821.1131
 30
0.0
 11
47.1176
 21
820.5291
 31
0.0
  0
LINE
  5
F82
330
1D
100
AcDbEntity
  8
0
100
AcDbLine
 10
49.5817
 20
818.7611
 30
0.0
 11
49.9108
 21
818.4551
 31
0.0
  0
LINE
  5
F83
330
1D
100
AcDbEntity
  8
0
100
AcDbLine
 10
49.5817
 20
818.7611
 30
0.0
 11
50.860210077627
 21
820.132217699086
 31
0.0
  0
LINE
  5
F84
330
1D
100
AcDbEntity
  8
0
100
AcDbLine
 10
49.9108
 20
818.4551
 30
0.0
 11
50.6787
 21
817.7381
 31
0.0
  0
LINE
  5
F85
330
1D
100
AcDbEntity
  8
0
100
AcDbLine
 10
50.6787
 20
817.7381
 30
0.0
 11
51.4466
 21
817.0221
 31
0.0
  0
LINE
  5
F86
330
1D
100
AcDbEntity
  8
0
100
AcDbLine
 10
49.8317
 20
819.6591
 30
0.0
 11
50.129874447723
 21
819.348980925315
 31
0.0
  0
LINE
  5
F87
330
1D
100
AcDbEntity
  8
0
100
AcDbLine
 10
47.5497
 20
819.3461
 30
0.0
 11
47.9856
 21
819.2941
 31
0.0
  0
LINE
  5
F88
330
1D
100
AcDbEntity
  8
0
100
AcDbLine
 10
49.4631
 20
820.3011
 30
0.0
 11
49.8317
 21
819.6591
 31
0.0
  0
LINE
  5
F89
330
1D
100
AcDbEntity
  8
0
100
AcDbLine
 10
49.4631
 20
820.3011
 30
0.0
 11
49.4716
 21
820.6311
 31
0.0
  0
LINE
  5
F8A
330
1D
100
AcDbEntity
  8
0
100
AcDbLine
 10
49.9293
 20
820.6141
 30
0.0
 11
50.5833
 21
820.3231
 31
0.0
  0
LINE
  5
F8B
330
1D
100
AcDbEntity
  8
0
100
AcDbLine
 10
49.4716
 20
820.6311
 30
0.0
 11
49.9293
 21
820.6141
 31
0.0
  0
LINE
  5
F8C
330
1D
100
AcDbEntity
  8
0
100
AcDbLine
 10
47.616
 20
819.9771
 30
0.0
 11
47.9856
 21
819.2941
 31
0.0
  0
LINE
  5
F8D
330
1D
100
AcDbEntity
  8
0
100
AcDbLine
 10
47.1176
 20
820.5291
 30
0.0
 11
47.616
 21
819.9771
 31
0.0
  0
LINE
  5
F8E
330
1D
100
AcDbEntity
  8
0
100
AcDbLine
 10
50.4181
 20
823.1331
 30
0.0
 11
53.8886
 21
819.8981
 31
0.0
  0
LINE
  5
F8F
330
1D
100
AcDbEntity
  8
0
100
AcDbLine
 10
45.6526
 20
824.9141
 30
0.0
 11
45.9192
 21
824.3861
 31
0.0
  0
LINE
  5
F90
330
1D
100
AcDbEntity
  8
0
100
AcDbLine
 10
45.8701
 20
824.0361
 30
0.0
 11
45.9192
 21
824.3861
 31
0.0
  0
LINE
  5
F91
330
1D
100
AcDbEntity
  8
0
100
AcDbLine
 10
45.3203
 20
824.1291
 30
0.0
 11
45.8701
 21
824.0361
 31
0.0
  0
LINE
  5
F92
330
1D
100
AcDbEntity
  8
0
100
AcDbLine
 10
45.2866
 20
822.0151
 30
0.0
 11
45.8315
 21
821.6531
 31
0.0
  0
LINE
  5
F93
330
1D
100
AcDbEntity
  8
0
100
AcDbLine
 10
45.0938
 20
821.3961
 30
0.0
 11
45.19289478704
 21
821.285736520881
 31
0.0
  0
LINE
  5
F94
330
1D
100
AcDbEntity
  8
0
100
AcDbLine
 10
45.9014
 20
827.3441
 30
0.0
 11
50.4181
 21
823.1331
 31
0.0
  0
LINE
  5
F95
330
1D
100
AcDbEntity
  8
0
100
AcDbLine
 10
44.8464
 20
825.8551
 30
0.0
 11
45.6526
 21
824.9141
 31
0.0
  0
LINE
  5
F96
330
1D
100
AcDbEntity
  8
0
100
AcDbLine
 10
44.6938
 20
821.9641
 30
0.0
 11
45.0938
 21
821.3961
 31
0.0
  0
LINE
  5
F97
330
1D
100
AcDbEntity
  8
0
100
AcDbLine
 10
44.6938
 20
821.9641
 30
0.0
 11
44.8044
 21
822.2361
 31
0.0
  0
LINE
  5
F98
330
1D
100
AcDbEntity
  8
0
100
AcDbLine
 10
43.3595
 20
817.2411
 30
0.0
 11
46.7686
 21
814.1171
 31
0.0
  0
LINE
  5
F99
330
1D
100
AcDbEntity
  8
0
100
AcDbLine
 10
52.7786
 20
817.3801
 30
0.0
 11
53.2611
 21
817.4461
 31
0.0
  0
LINE
  5
F9A
330
1D
100
AcDbEntity
  8
0
100
AcDbLine
 10
57.306
 20
816.7121
 30
0.0
 11
60.6495
 21
813.5951
 31
0.0
  0
LINE
  5
F9B
330
1D
100
AcDbEntity
  8
0
100
AcDbLine
 10
53.237
 20
817.8241
 30
0.0
 11
53.2611
 21
817.4461
 31
0.0
  0
LINE
  5
F9C
330
1D
100
AcDbEntity
  8
0
100
AcDbLine
 10
52.909
 20
818.3111
 30
0.0
 11
53.237
 21
817.8241
 31
0.0
  0
LINE
  5
F9D
330
1D
100
AcDbEntity
  8
0
100
AcDbLine
 10
53.527275695081
 20
820.234905684026
 30
0.0
 11
53.624
 21
820.1321
 31
0.0
  0
LINE
  5
F9E
330
1D
100
AcDbEntity
  8
0
100
AcDbLine
 10
53.8886
 20
819.8981
 30
0.0
 11
57.306
 21
816.7121
 31
0.0
  0
LINE
  5
F9F
330
1D
100
AcDbEntity
  8
0
100
AcDbLine
 10
53.624
 20
820.1321
 30
0.0
 11
53.765372880683
 21
820.012965215672
 31
0.0
  0
LINE
  5
FA0
330
1D
100
AcDbEntity
  8
0
100
AcDbLine
 10
53.624
 20
820.1321
 30
0.0
 11
53.765372880683
 21
820.012965215672
 31
0.0
  0
LINE
  5
FA1
330
1D
100
AcDbEntity
  8
0
100
AcDbLine
 10
52.518624068287
 20
817.51172979992
 30
0.0
 11
52.7786
 21
817.3801
 31
0.0
  0
LINE
  5
FA2
330
1D
100
AcDbEntity
  8
0
100
AcDbLine
 10
47.9588
 20
816.6221
 30
0.0
 11
48.2654
 21
816.6421
 31
0.0
  0
LINE
  5
FA3
330
1D
100
AcDbEntity
  8
0
100
AcDbLine
 10
47.9588
 20
816.6221
 30
0.0
 11
48.3376
 21
816.1211
 31
0.0
  0
LINE
  5
FA4
330
1D
100
AcDbEntity
  8
0
100
AcDbLine
 10
42.7133
 20
821.3961
 30
0.0
 11
43.4134
 21
821.0041
 31
0.0
  0
LINE
  5
FA5
330
1D
100
AcDbEntity
  8
0
100
AcDbLine
 10
51.6235
 20
815.6831
 30
0.0
 11
52.5245
 21
815.3011
 31
0.0
  0
LINE
  5
FA6
330
1D
100
AcDbEntity
  8
0
100
AcDbLine
 10
61.0075
 20
804.2611
 30
0.0
 11
61.436508686121
 21
803.893219813826
 31
0.0
  0
LINE
  5
FA7
330
1D
100
AcDbEntity
  8
0
100
AcDbLine
 10
61.0198
 20
804.4481
 30
0.0
 11
61.479
 21
804.1821
 31
0.0
  0
LINE
  5
FA8
330
1D
100
AcDbEntity
  8
0
100
AcDbLine
 10
60.0106
 20
805.6181
 30
0.0
 11
61.450239191601
 21
807.162018042137
 31
0.0
  0
LINE
  5
FA9
330
1D
100
AcDbEntity
  8
0
100
AcDbLine
 10
60.8425
 20
804.4981
 30
0.0
 11
61.0075
 21
804.2611
 31
0.0
  0
LINE
  5
FAA
330
1D
100
AcDbEntity
  8
0
100
AcDbLine
 10
60.8425
 20
804.4981
 30
0.0
 11
61.0198
 21
804.4481
 31
0.0
  0
LINE
  5
FAB
330
1D
100
AcDbEntity
  8
0
100
AcDbLine
 10
63.7808
 20
805.5211
 30
0.0
 11
64.5487
 21
804.8041
 31
0.0
  0
LINE
  5
FAC
330
1D
100
AcDbEntity
  8
0
100
AcDbLine
 10
62.6838
 20
806.5441
 30
0.0
 11
63.0129
 21
806.2371
 31
0.0
  0
LINE
  5
FAD
330
1D
100
AcDbEntity
  8
0
100
AcDbLine
 10
62.6838
 20
806.5441
 30
0.0
 11
63.795294358246
 21
807.73581335633
 31
0.0
  0
LINE
  5
FAE
330
1D
100
AcDbEntity
  8
0
100
AcDbLine
 10
63.0129
 20
806.2371
 30
0.0
 11
63.7808
 21
805.5211
 31
0.0
  0
LINE
  5
FAF
330
1D
100
AcDbEntity
  8
0
100
AcDbLine
 10
61.479
 20
804.1821
 30
0.0
 11
62.2066
 21
803.6891
 31
0.0
  0
LINE
  5
FB0
330
1D
100
AcDbEntity
  8
0
100
AcDbLine
 10
61.4771
 20
806.6351
 30
0.0
 11
61.8438
 21
806.5981
 31
0.0
  0
LINE
  5
FB1
330
1D
100
AcDbEntity
  8
0
100
AcDbLine
 10
61.131492865977
 20
806.820183639554
 30
0.0
 11
61.4771
 21
806.6351
 31
0.0
  0
LINE
  5
FB2
330
1D
100
AcDbEntity
  8
0
100
AcDbLine
 10
62.7076
 20
807.6531
 30
0.0
 11
63.214125787928
 21
807.112700569127
 31
0.0
  0
LINE
  5
FB3
330
1D
100
AcDbEntity
  8
0
100
AcDbLine
 10
61.5014
 20
807.1141
 30
0.0
 11
61.8438
 21
806.5981
 31
0.0
  0
LINE
  5
FB4
330
1D
100
AcDbEntity
  8
0
100
AcDbLine
 10
64.8778
 20
804.4981
 30
0.0
 11
66.252414922607
 21
805.971880691217
 31
0.0
  0
LINE
  5
FB5
330
1D
100
AcDbEntity
  8
0
100
AcDbLine
 10
64.5487
 20
804.8041
 30
0.0
 11
64.8778
 21
804.4981
 31
0.0
  0
LINE
  5
FB6
330
1D
100
AcDbEntity
  8
0
100
AcDbLine
 10
65.5571
 20
806.6001
 30
0.0
 11
66.1352
 21
806.0881
 31
0.0
  0
LINE
  5
FB7
330
1D
100
AcDbEntity
  8
0
100
AcDbLine
 10
65.5571
 20
806.6001
 30
0.0
 11
66.1194
 21
806.1061
 31
0.0
  0
LINE
  5
FB8
330
1D
100
AcDbEntity
  8
0
100
AcDbLine
 10
66.4321
 20
805.7801
 30
0.0
 11
66.4817
 21
805.7211
 31
0.0
  0
LINE
  5
FB9
330
1D
100
AcDbEntity
  8
0
100
AcDbLine
 10
66.4023
 20
805.8111
 30
0.0
 11
66.458
 21
805.7471
 31
0.0
  0
LINE
  5
FBA
330
1D
100
AcDbEntity
  8
0
100
AcDbLine
 10
66.4022
 20
805.8111
 30
0.0
 11
66.458
 21
805.7471
 31
0.0
  0
LINE
  5
FBB
330
1D
100
AcDbEntity
  8
0
100
AcDbLine
 10
66.3778
 20
805.8411
 30
0.0
 11
66.4321
 21
805.7801
 31
0.0
  0
LINE
  5
FBC
330
1D
100
AcDbEntity
  8
0
100
AcDbLine
 10
66.3419
 20
805.8781
 30
0.0
 11
66.3778
 21
805.8411
 31
0.0
  0
LINE
  5
FBD
330
1D
100
AcDbEntity
  8
0
100
AcDbLine
 10
66.3419
 20
805.8781
 30
0.0
 11
66.4023
 21
805.8111
 31
0.0
  0
LINE
  5
FBE
330
1D
100
AcDbEntity
  8
0
100
AcDbLine
 10
66.3419
 20
805.8781
 30
0.0
 11
66.4022
 21
805.8111
 31
0.0
  0
LINE
  5
FBF
330
1D
100
AcDbEntity
  8
0
100
AcDbLine
 10
66.2767
 20
805.9471
 30
0.0
 11
66.3192
 21
805.9051
 31
0.0
  0
LINE
  5
FC0
330
1D
100
AcDbEntity
  8
0
100
AcDbLine
 10
66.2767
 20
805.9471
 30
0.0
 11
66.3419
 21
805.8781
 31
0.0
  0
LINE
  5
FC1
330
1D
100
AcDbEntity
  8
0
100
AcDbLine
 10
66.2766
 20
805.9471
 30
0.0
 11
66.3419
 21
805.8781
 31
0.0
  0
LINE
  5
FC2
330
1D
100
AcDbEntity
  8
0
100
AcDbLine
 10
66.2567
 20
805.9701
 30
0.0
 11
66.3192
 21
805.9051
 31
0.0
  0
LINE
  5
FC3
330
1D
100
AcDbEntity
  8
0
100
AcDbLine
 10
66.2081
 20
806.0171
 30
0.0
 11
66.2567
 21
805.9701
 31
0.0
  0
LINE
  5
FC4
330
1D
100
AcDbEntity
  8
0
100
AcDbLine
 10
66.2081
 20
806.0171
 30
0.0
 11
66.2767
 21
805.9471
 31
0.0
  0
LINE
  5
FC5
330
1D
100
AcDbEntity
  8
0
100
AcDbLine
 10
66.1352
 20
806.0881
 30
0.0
 11
66.2081
 21
806.0171
 31
0.0
  0
LINE
  5
FC6
330
1D
100
AcDbEntity
  8
0
100
AcDbLine
 10
66.19
 20
806.0381
 30
0.0
 11
66.2567
 21
805.9701
 31
0.0
  0
LINE
  5
FC7
330
1D
100
AcDbEntity
  8
0
100
AcDbLine
 10
66.1194
 20
806.1061
 30
0.0
 11
66.19
 21
806.0381
 31
0.0
  0
LINE
  5
FC8
330
1D
100
AcDbEntity
  8
0
100
AcDbLine
 10
65.695559043561
 20
805.374852804475
 30
0.0
 11
66.4446
 21
805.1021
 31
0.0
  0
LINE
  5
FC9
330
1D
100
AcDbEntity
  8
0
100
AcDbLine
 10
66.659316026769
 20
805.197515486772
 30
0.0
 11
66.757099848495
 21
805.302382183562
 31
0.0
  0
LINE
  5
FCA
330
1D
100
AcDbEntity
  8
0
100
AcDbLine
 10
69.6261
 20
805.2261
 30
0.0
 11
72.9147
 21
802.1601
 31
0.0
  0
LINE
  5
FCB
330
1D
100
AcDbEntity
  8
0
100
AcDbLine
 10
66.4817
 20
805.7211
 30
0.0
 11
66.7889
 21
805.2551
 31
0.0
  0
LINE
  5
FCC
330
1D
100
AcDbEntity
  8
0
100
AcDbLine
 10
66.458
 20
805.7471
 30
0.0
 11
66.498812327462
 21
805.685323894876
 31
0.0
  0
LINE
  5
FCD
330
1D
100
AcDbEntity
  8
0
100
AcDbLine
 10
66.4446
 20
805.1021
 30
0.0
 11
66.7889
 21
805.2551
 31
0.0
  0
LINE
  5
FCE
330
1D
100
AcDbEntity
  8
0
100
AcDbLine
 10
64.4938
 20
807.3511
 30
0.0
 11
65.5571
 21
806.6001
 31
0.0
  0
LINE
  5
FCF
330
1D
100
AcDbEntity
  8
0
100
AcDbLine
 10
60.6495
 20
813.5951
 30
0.0
 11
63.7472
 21
810.7071
 31
0.0
  0
LINE
  5
FD0
330
1D
100
AcDbEntity
  8
0
100
AcDbLine
 10
63.0101
 20
808.0611
 30
0.0
 11
63.6586
 21
807.8111
 31
0.0
  0
LINE
  5
FD1
330
1D
100
AcDbEntity
  8
0
100
AcDbLine
 10
62.6297
 20
808.0231
 30
0.0
 11
62.7076
 21
807.6531
 31
0.0
  0
LINE
  5
FD2
330
1D
100
AcDbEntity
  8
0
100
AcDbLine
 10
62.6297
 20
808.0231
 30
0.0
 11
63.0101
 21
808.0611
 31
0.0
  0
LINE
  5
FD3
330
1D
100
AcDbEntity
  8
0
100
AcDbLine
 10
62.6297
 20
808.0231
 30
0.0
 11
63.010387279025
 21
808.060989252496
 31
0.0
  0
LINE
  5
FD4
330
1D
100
AcDbEntity
  8
0
100
AcDbLine
 10
63.6586
 20
807.8111
 30
0.0
 11
64.4938
 21
807.3511
 31
0.0
  0
LINE
  5
FD5
330
1D
100
AcDbEntity
  8
0
100
AcDbLine
 10
63.7472
 20
810.7071
 30
0.0
 11
66.7442
 21
807.9131
 31
0.0
  0
LINE
  5
FD6
330
1D
100
AcDbEntity
  8
0
100
AcDbLine
 10
81.5158
 20
820.9281
 30
0.0
 11
91.977
 21
809.7161
 31
0.0
  0
LINE
  5
FD7
330
1D
100
AcDbEntity
  8
0
100
AcDbLine
 10
91.977
 20
809.7161
 30
0.0
 11
102.561
 21
797.8051
 31
0.0
  0
LINE
  5
FD8
330
1D
100
AcDbEntity
  8
0
100
AcDbLine
 10
71.0911
 20
831.4421
 30
0.0
 11
81.5158
 21
820.9281
 31
0.0
  0
LINE
  5
FD9
330
1D
100
AcDbEntity
  8
0
100
AcDbLine
 10
66.7442
 20
807.9131
 30
0.0
 11
69.6261
 21
805.2261
 31
0.0
  0
LINE
  5
FDA
330
1D
100
AcDbEntity
  8
0
100
AcDbLine
 10
60.9003
 20
807.6771
 30
0.0
 11
61.5014
 21
807.1141
 31
0.0
  0
LINE
  5
FDB
330
1D
100
AcDbEntity
  8
0
100
AcDbLine
 10
59.9508
 20
808.4291
 30
0.0
 11
60.9003
 21
807.6771
 31
0.0
  0
LINE
  5
FDC
330
1D
100
AcDbEntity
  8
0
100
AcDbLine
 10
63.9045
 20
804.0431
 30
0.0
 11
64.798
 21
803.6191
 31
0.0
  0
LINE
  5
FDD
330
1D
100
AcDbEntity
  8
0
100
AcDbLine
 10
37.6123
 20
824.3051
 30
0.0
 11
37.8185
 21
824.2271
 31
0.0
  0
LINE
  5
FDE
330
1D
100
AcDbEntity
  8
0
100
AcDbLine
 10
20.5439
 20
840.0971
 30
0.0
 11
21.671844136342
 21
841.30674566176
 31
0.0
  0
LINE
  5
FDF
330
1D
100
AcDbEntity
  8
0
100
AcDbLine
 10
19.8387
 20
840.0711
 30
0.0
 11
20.6066
 21
839.3551
 31
0.0
  0
LINE
  5
FE0
330
1D
100
AcDbEntity
  8
0
100
AcDbLine
 10
20.6066
 20
839.3551
 30
0.0
 11
21.3745
 21
838.6391
 31
0.0
  0
LINE
  5
FE1
330
1D
100
AcDbEntity
  8
0
100
AcDbLine
 10
18.679
 20
841.8361
 30
0.0
 11
19.4469
 21
841.1201
 31
0.0
  0
LINE
  5
FE2
330
1D
100
AcDbEntity
  8
0
100
AcDbLine
 10
19.4469
 20
841.1201
 30
0.0
 11
20.2148
 21
840.4041
 31
0.0
  0
LINE
  5
FE3
330
1D
100
AcDbEntity
  8
0
100
AcDbLine
 10
19.4469
 20
841.1201
 30
0.0
 11
19.850592438106
 21
840.743691892585
 31
0.0
  0
LINE
  5
FE4
330
1D
100
AcDbEntity
  8
0
100
AcDbLine
 10
20.2148
 20
840.4041
 30
0.0
 11
20.5439
 21
840.0971
 31
0.0
  0
LINE
  5
FE5
330
1D
100
AcDbEntity
  8
0
100
AcDbLine
 10
19.5096
 20
840.3781
 30
0.0
 11
19.8387
 21
840.0711
 31
0.0
  0
LINE
  5
FE6
330
1D
100
AcDbEntity
  8
0
100
AcDbLine
 10
19.5096
 20
840.3781
 30
0.0
 11
19.850592438106
 21
840.743691892585
 31
0.0
  0
LINE
  5
FE7
330
1D
100
AcDbEntity
  8
0
100
AcDbLine
 10
20.740561412826
 20
840.308006389063
 30
0.0
 11
21.0365
 21
839.9681
 31
0.0
  0
LINE
  5
FE8
330
1D
100
AcDbEntity
  8
0
100
AcDbLine
 10
21.3745
 20
838.6391
 30
0.0
 11
21.7036
 21
838.3321
 31
0.0
  0
LINE
  5
FE9
330
1D
100
AcDbEntity
  8
0
100
AcDbLine
 10
21.5002
 20
839.8241
 30
0.0
 11
21.6833
 21
839.6771
 31
0.0
  0
LINE
  5
FEA
330
1D
100
AcDbEntity
  8
0
100
AcDbLine
 10
21.5002
 20
839.8241
 30
0.0
 11
21.7676
 21
839.4241
 31
0.0
  0
LINE
  5
FEB
330
1D
100
AcDbEntity
  8
0
100
AcDbLine
 10
21.0365
 20
839.9681
 30
0.0
 11
21.7492
 21
839.1471
 31
0.0
  0
LINE
  5
FEC
330
1D
100
AcDbEntity
  8
0
100
AcDbLine
 10
18.3499
 20
842.1431
 30
0.0
 11
18.679
 21
841.8361
 31
0.0
  0
LINE
  5
FED
330
1D
100
AcDbEntity
  8
0
100
AcDbLine
 10
18.3499
 20
842.1431
 30
0.0
 11
19.710588466535
 21
843.602348598862
 31
0.0
  0
LINE
  5
FEE
330
1D
100
AcDbEntity
  8
0
100
AcDbLine
 10
18.3499
 20
842.1431
 30
0.0
 11
18.7672947082
 21
842.590728283838
 31
0.0
  0
LINE
  5
FEF
330
1D
100
AcDbEntity
  8
0
100
AcDbLine
 10
18.6129
 20
843.1551
 30
0.0
 11
18.936291577232
 21
842.771966275055
 31
0.0
  0
LINE
  5
FF0
330
1D
100
AcDbEntity
  8
0
100
AcDbLine
 10
18.6129
 20
843.1551
 30
0.0
 11
18.936113245417
 21
842.771775025951
 31
0.0
  0
LINE
  5
FF1
330
1D
100
AcDbEntity
  8
0
100
AcDbLine
 10
18.3589
 20
843.0711
 30
0.0
 11
18.7672947082
 21
842.590728283838
 31
0.0
  0
LINE
  5
FF2
330
1D
100
AcDbEntity
  8
0
100
AcDbLine
 10
18.3589
 20
843.0711
 30
0.0
 11
18.6129
 21
843.1551
 31
0.0
  0
LINE
  5
FF3
330
1D
100
AcDbEntity
  8
0
100
AcDbLine
 10
20.4067
 20
842.8561
 30
0.0
 11
21.2165
 21
841.8991
 31
0.0
  0
LINE
  5
FF4
330
1D
100
AcDbEntity
  8
0
100
AcDbLine
 10
21.2165
 20
841.8991
 30
0.0
 11
21.8207
 21
841.1131
 31
0.0
  0
LINE
  5
FF5
330
1D
100
AcDbEntity
  8
0
100
AcDbLine
 10
21.6544
 20
838.3781
 30
0.0
 11
21.9835
 21
838.0711
 31
0.0
  0
LINE
  5
FF6
330
1D
100
AcDbEntity
  8
0
100
AcDbLine
 10
21.6544
 20
838.3781
 30
0.0
 11
22.288353221345
 21
839.057807022856
 31
0.0
  0
LINE
  5
FF7
330
1D
100
AcDbEntity
  8
0
100
AcDbLine
 10
21.6833
 20
839.6771
 30
0.0
 11
22.1538
 21
839.2051
 31
0.0
  0
LINE
  5
FF8
330
1D
100
AcDbEntity
  8
0
100
AcDbLine
 10
21.9835
 20
838.0711
 30
0.0
 11
22.7514
 21
837.3551
 31
0.0
  0
LINE
  5
FF9
330
1D
100
AcDbEntity
  8
0
100
AcDbLine
 10
22.7514
 20
837.3551
 30
0.0
 11
23.5193
 21
836.6391
 31
0.0
  0
LINE
  5
FFA
330
1D
100
AcDbEntity
  8
0
100
AcDbLine
 10
22.3406
 20
840.7461
 30
0.0
 11
23.1085
 21
840.0301
 31
0.0
  0
LINE
  5
FFB
330
1D
100
AcDbEntity
  8
0
100
AcDbLine
 10
21.7676
 20
839.4241
 30
0.0
 11
22.17357944766
 21
838.93474977291
 31
0.0
  0
LINE
  5
FFC
330
1D
100
AcDbEntity
  8
0
100
AcDbLine
 10
22.1538
 20
839.2051
 30
0.0
 11
22.9586
 21
838.3241
 31
0.0
  0
LINE
  5
FFD
330
1D
100
AcDbEntity
  8
0
100
AcDbLine
 10
21.7492
 20
839.1471
 30
0.0
 11
22.025609801968
 21
838.776100831695
 31
0.0
  0
LINE
  5
FFE
330
1D
100
AcDbEntity
  8
0
100
AcDbLine
 10
22.0115
 20
841.0531
 30
0.0
 11
22.3406
 21
840.7461
 31
0.0
  0
LINE
  5
FFF
330
1D
100
AcDbEntity
  8
0
100
AcDbLine
 10
22.0115
 20
841.0531
 30
0.0
 11
23.469774403525
 21
842.616575430876
 31
0.0
  0
LINE
  5
1000
330
1D
100
AcDbEntity
  8
0
100
AcDbLine
 10
22.7706
 20
842.6921
 30
0.0
 11
23.086857336307
 21
842.206034434469
 31
0.0
  0
LINE
  5
1001
330
1D
100
AcDbEntity
  8
0
100
AcDbLine
 10
21.8207
 20
841.1131
 30
0.0
 11
22.1
 21
840.6431
 31
0.0
  0
LINE
  5
1002
330
1D
100
AcDbEntity
  8
0
100
AcDbLine
 10
21.8023
 20
840.8241
 30
0.0
 11
22.1
 21
840.6431
 31
0.0
  0
LINE
  5
1003
330
1D
100
AcDbEntity
  8
0
100
AcDbLine
 10
21.501903962077
 20
841.124496037923
 30
0.0
 11
21.8023
 21
840.8241
 31
0.0
  0
LINE
  5
1004
330
1D
100
AcDbEntity
  8
0
100
AcDbLine
 10
16.7787
 20
843.6081
 30
0.0
 11
17.868659005133
 21
844.777043394753
 31
0.0
  0
LINE
  5
1005
330
1D
100
AcDbEntity
  8
0
100
AcDbLine
 10
16.7787
 20
843.6081
 30
0.0
 11
17.588461658482
 21
844.47654141619
 31
0.0
  0
LINE
  5
1006
330
1D
100
AcDbEntity
  8
0
100
AcDbLine
 10
16.4495
 20
843.9151
 30
0.0
 11
16.7787
 21
843.6081
 31
0.0
  0
LINE
  5
1007
330
1D
100
AcDbEntity
  8
0
100
AcDbLine
 10
19.1216
 20
844.0071
 30
0.0
 11
19.1663
 21
844.0761
 31
0.0
  0
LINE
  5
1008
330
1D
100
AcDbEntity
  8
0
100
AcDbLine
 10
19.1216
 20
844.0071
 30
0.0
 11
19.4433
 21
843.5281
 31
0.0
  0
LINE
  5
1009
330
1D
100
AcDbEntity
  8
0
100
AcDbLine
 10
18.461
 20
844.0111
 30
0.0
 11
18.508
 21
843.8521
 31
0.0
  0
LINE
  5
100A
330
1D
100
AcDbEntity
  8
0
100
AcDbLine
 10
19.534471276352
 20
843.413474533026
 30
0.0
 11
19.710588466535
 21
843.602348598862
 31
0.0
  0
LINE
  5
100B
330
1D
100
AcDbEntity
  8
0
100
AcDbLine
 10
19.4433
 20
843.5281
 30
0.0
 11
19.532920440779
 21
843.411811364202
 31
0.0
  0
LINE
  5
100C
330
1D
100
AcDbEntity
  8
0
100
AcDbLine
 10
19.3551
 20
843.9391
 30
0.0
 11
19.6875
 21
843.6271
 31
0.0
  0
LINE
  5
100D
330
1D
100
AcDbEntity
  8
0
100
AcDbLine
 10
22.7598
 20
843.7731
 30
0.0
 11
23.0889
 21
843.4661
 31
0.0
  0
LINE
  5
100E
330
1D
100
AcDbEntity
  8
0
100
AcDbLine
 10
19.6875
 20
843.6271
 30
0.0
 11
20.4067
 21
842.8561
 31
0.0
  0
LINE
  5
100F
330
1D
100
AcDbEntity
  8
0
100
AcDbLine
 10
22.5673
 20
843.2281
 30
0.0
 11
22.8582
 21
843.1551
 31
0.0
  0
LINE
  5
1010
330
1D
100
AcDbEntity
  8
0
100
AcDbLine
 10
22.5673
 20
843.2281
 30
0.0
 11
22.7706
 21
842.6921
 31
0.0
  0
LINE
  5
1011
330
1D
100
AcDbEntity
  8
0
100
AcDbLine
 10
23.5193
 20
836.6391
 30
0.0
 11
23.8484
 21
836.3321
 31
0.0
  0
LINE
  5
1012
330
1D
100
AcDbEntity
  8
0
100
AcDbLine
 10
23.0889
 20
843.4661
 30
0.0
 11
24.100872027317
 21
844.55137322695
 31
0.0
  0
LINE
  5
1013
330
1D
100
AcDbEntity
  8
0
100
AcDbLine
 10
23.1085
 20
840.0301
 30
0.0
 11
23.8765
 21
839.3141
 31
0.0
  0
LINE
  5
1014
330
1D
100
AcDbEntity
  8
0
100
AcDbLine
 10
23.2797
 20
842.8451
 30
0.0
 11
23.8561
 21
842.1521
 31
0.0
  0
LINE
  5
1015
330
1D
100
AcDbEntity
  8
0
100
AcDbLine
 10
22.9586
 20
838.3241
 30
0.0
 11
23.9287
 21
837.2061
 31
0.0
  0
LINE
  5
1016
330
1D
100
AcDbEntity
  8
0
100
AcDbLine
 10
22.8582
 20
843.1551
 30
0.0
 11
23.2797
 21
842.8451
 31
0.0
  0
LINE
  5
1017
330
1D
100
AcDbEntity
  8
0
100
AcDbLine
 10
14.5846
 20
845.6541
 30
0.0
 11
15.6816
 21
844.6311
 31
0.0
  0
LINE
  5
1018
330
1D
100
AcDbEntity
  8
0
100
AcDbLine
 10
16.2211
 20
846.4521
 30
0.0
 11
16.5502
 21
846.1451
 31
0.0
  0
LINE
  5
1019
330
1D
100
AcDbEntity
  8
0
100
AcDbLine
 10
16.2211
 20
846.4521
 30
0.0
 11
17.668413879852
 21
848.004248638891
 31
0.0
  0
LINE
  5
101A
330
1D
100
AcDbEntity
  8
0
100
AcDbLine
 10
16.5502
 20
846.1451
 30
0.0
 11
17.3181
 21
845.4291
 31
0.0
  0
LINE
  5
101B
330
1D
100
AcDbEntity
  8
0
100
AcDbLine
 10
15.6816
 20
844.6311
 30
0.0
 11
16.4495
 21
843.9151
 31
0.0
  0
LINE
  5
101C
330
1D
100
AcDbEntity
  8
0
100
AcDbLine
 10
15.3091
 20
848.5811
 30
0.0
 11
15.3406
 21
848.5071
 31
0.0
  0
LINE
  5
101D
330
1D
100
AcDbEntity
  8
0
100
AcDbLine
 10
15.5004
 20
849.1541
 30
0.0
 11
15.6349
 21
848.7671
 31
0.0
  0
LINE
  5
101E
330
1D
100
AcDbEntity
  8
0
100
AcDbLine
 10
15.3592
 20
848.9701
 30
0.0
 11
15.6349
 21
848.7671
 31
0.0
  0
LINE
  5
101F
330
1D
100
AcDbEntity
  8
0
100
AcDbLine
 10
15.3526
 20
847.7211
 30
0.0
 11
15.5978
 21
847.4781
 31
0.0
  0
LINE
  5
1020
330
1D
100
AcDbEntity
  8
0
100
AcDbLine
 10
16.7961
 20
849.3341
 30
0.0
 11
17.1252
 21
849.0281
 31
0.0
  0
LINE
  5
1021
330
1D
100
AcDbEntity
  8
0
100
AcDbLine
 10
15.5978
 20
847.4781
 30
0.0
 11
15.9346
 21
847.1081
 31
0.0
  0
LINE
  5
1022
330
1D
100
AcDbEntity
  8
0
100
AcDbLine
 10
15.9346
 20
847.1081
 30
0.0
 11
16.367360018338
 21
846.60895421908
 31
0.0
  0
LINE
  5
1023
330
1D
100
AcDbEntity
  8
0
100
AcDbLine
 10
15.516
 20
847.4021
 30
0.0
 11
15.829847331604
 21
846.989545598732
 31
0.0
  0
LINE
  5
1024
330
1D
100
AcDbEntity
  8
0
100
AcDbLine
 10
15.6631
 20
846.9601
 30
0.0
 11
15.726333554274
 21
846.878533902633
 31
0.0
  0
LINE
  5
1025
330
1D
100
AcDbEntity
  8
0
100
AcDbLine
 10
17.588461658482
 20
844.47654141619
 30
0.0
 11
18.6129
 21
843.1551
 31
0.0
  0
LINE
  5
1026
330
1D
100
AcDbEntity
  8
0
100
AcDbLine
 10
18.086
 20
844.7131
 30
0.0
 11
18.4151
 21
844.4061
 31
0.0
  0
LINE
  5
1027
330
1D
100
AcDbEntity
  8
0
100
AcDbLine
 10
17.758791288154
 20
844.659214062225
 30
0.0
 11
18.1267
 21
844.2391
 31
0.0
  0
LINE
  5
1028
330
1D
100
AcDbEntity
  8
0
100
AcDbLine
 10
17.758791288154
 20
844.659214062225
 30
0.0
 11
17.868659005133
 21
844.777043394753
 31
0.0
  0
LINE
  5
1029
330
1D
100
AcDbEntity
  8
0
100
AcDbLine
 10
18.4151
 20
844.4061
 30
0.0
 11
19.566363325605
 21
845.640753953589
 31
0.0
  0
LINE
  5
102A
330
1D
100
AcDbEntity
  8
0
100
AcDbLine
 10
18.1267
 20
844.2391
 30
0.0
 11
18.508
 21
843.8521
 31
0.0
  0
LINE
  5
102B
330
1D
100
AcDbEntity
  8
0
100
AcDbLine
 10
17.7704
 20
844.9041
 30
0.0
 11
18.461
 21
844.0111
 31
0.0
  0
LINE
  5
102C
330
1D
100
AcDbEntity
  8
0
100
AcDbLine
 10
17.3181
 20
845.4291
 30
0.0
 11
18.086
 21
844.7131
 31
0.0
  0
LINE
  5
102D
330
1D
100
AcDbEntity
  8
0
100
AcDbLine
 10
17.2683
 20
847.9231
 30
0.0
 11
17.40510503186
 21
847.721867273171
 31
0.0
  0
LINE
  5
102E
330
1D
100
AcDbEntity
  8
0
100
AcDbLine
 10
17.422248582654
 20
845.33199049983
 30
0.0
 11
17.7704
 21
844.9041
 31
0.0
  0
LINE
  5
102F
330
1D
100
AcDbEntity
  8
0
100
AcDbLine
 10
18.4038
 20
847.2021
 30
0.0
 11
19.566363325605
 21
845.640753953589
 31
0.0
  0
LINE
  5
1030
330
1D
100
AcDbEntity
  8
0
100
AcDbLine
 10
19.7804
 20
844.9701
 30
0.0
 11
19.845954456054
 21
845.04491069453
 31
0.0
  0
LINE
  5
1031
330
1D
100
AcDbEntity
  8
0
100
AcDbLine
 10
19.31191449853
 20
845.367874375696
 30
0.0
 11
19.4328
 21
845.2411
 31
0.0
  0
LINE
  5
1032
330
1D
100
AcDbEntity
  8
0
100
AcDbLine
 10
19.4328
 20
845.2411
 30
0.0
 11
19.7804
 21
844.9701
 31
0.0
  0
LINE
  5
1033
330
1D
100
AcDbEntity
  8
0
100
AcDbLine
 10
19.55752202971
 20
845.631272247111
 30
0.0
 11
19.8702
 21
845.1031
 31
0.0
  0
LINE
  5
1034
330
1D
100
AcDbEntity
  8
0
100
AcDbLine
 10
20.8949
 20
845.5121
 30
0.0
 11
21.224
 21
845.2051
 31
0.0
  0
LINE
  5
1035
330
1D
100
AcDbEntity
  8
0
100
AcDbLine
 10
20.8949
 20
845.5121
 30
0.0
 11
22.271894059034
 21
846.988878578224
 31
0.0
  0
LINE
  5
1036
330
1D
100
AcDbEntity
  8
0
100
AcDbLine
 10
21.224
 20
845.2051
 30
0.0
 11
21.9919
 21
844.4891
 31
0.0
  0
LINE
  5
1037
330
1D
100
AcDbEntity
  8
0
100
AcDbLine
 10
21.2526
 20
847.0071
 30
0.0
 11
21.650042071978
 21
846.321963795778
 31
0.0
  0
LINE
  5
1038
330
1D
100
AcDbEntity
  8
0
100
AcDbLine
 10
21.0961
 20
847.5011
 30
0.0
 11
21.2526
 21
847.0071
 31
0.0
  0
LINE
  5
1039
330
1D
100
AcDbEntity
  8
0
100
AcDbLine
 10
21.0961
 20
847.5011
 30
0.0
 11
21.2014
 21
847.7231
 31
0.0
  0
LINE
  5
103A
330
1D
100
AcDbEntity
  8
0
100
AcDbLine
 10
19.845954456054
 20
845.04491069453
 30
0.0
 11
19.8702
 21
845.1031
 31
0.0
  0
LINE
  5
103B
330
1D
100
AcDbEntity
  8
0
100
AcDbLine
 10
19.1663
 20
844.0761
 30
0.0
 11
19.3551
 21
843.9391
 31
0.0
  0
LINE
  5
103C
330
1D
100
AcDbEntity
  8
0
100
AcDbLine
 10
21.650042071978
 20
846.321963795778
 30
0.0
 11
22.271894059034
 21
846.988878578224
 31
0.0
  0
LINE
  5
103D
330
1D
100
AcDbEntity
  8
0
100
AcDbLine
 10
21.9919
 20
844.4891
 30
0.0
 11
22.7598
 21
843.7731
 31
0.0
  0
LINE
  5
103E
330
1D
100
AcDbEntity
  8
0
100
AcDbLine
 10
22.8738
 20
846.3381
 30
0.0
 11
22.9461
 21
846.2521
 31
0.0
  0
LINE
  5
103F
330
1D
100
AcDbEntity
  8
0
100
AcDbLine
 10
23.5889
 20
845.4031
 30
0.0
 11
24.2453
 21
844.3111
 31
0.0
  0
LINE
  5
1040
330
1D
100
AcDbEntity
  8
0
100
AcDbLine
 10
23.454
 20
845.5971
 30
0.0
 11
23.5889
 21
845.4031
 31
0.0
  0
LINE
  5
1041
330
1D
100
AcDbEntity
  8
0
100
AcDbLine
 10
23.3881
 20
845.6871
 30
0.0
 11
23.454
 21
845.5971
 31
0.0
  0
LINE
  5
1042
330
1D
100
AcDbEntity
  8
0
100
AcDbLine
 10
23.3197
 20
845.7791
 30
0.0
 11
23.3881
 21
845.6871
 31
0.0
  0
LINE
  5
1043
330
1D
100
AcDbEntity
  8
0
100
AcDbLine
 10
23.2456
 20
845.8771
 30
0.0
 11
23.3197
 21
845.7791
 31
0.0
  0
LINE
  5
1044
330
1D
100
AcDbEntity
  8
0
100
AcDbLine
 10
23.1778
 20
845.9641
 30
0.0
 11
23.2456
 21
845.8771
 31
0.0
  0
LINE
  5
1045
330
1D
100
AcDbEntity
  8
0
100
AcDbLine
 10
23.1013
 20
846.0611
 30
0.0
 11
23.1716
 21
845.9731
 31
0.0
  0
LINE
  5
1046
330
1D
100
AcDbEntity
  8
0
100
AcDbLine
 10
23.0171
 20
846.1661
 30
0.0
 11
23.1013
 21
846.0611
 31
0.0
  0
LINE
  5
1047
330
1D
100
AcDbEntity
  8
0
100
AcDbLine
 10
22.9461
 20
846.2521
 30
0.0
 11
23.0171
 21
846.1661
 31
0.0
  0
LINE
  5
1048
330
1D
100
AcDbEntity
  8
0
100
AcDbLine
 10
22.7255
 20
846.5101
 30
0.0
 11
22.8002
 21
846.4241
 31
0.0
  0
LINE
  5
1049
330
1D
100
AcDbEntity
  8
0
100
AcDbLine
 10
22.6944
 20
846.5431
 30
0.0
 11
22.7782
 21
846.4481
 31
0.0
  0
LINE
  5
104A
330
1D
100
AcDbEntity
  8
0
100
AcDbLine
 10
22.65
 20
846.5951
 30
0.0
 11
22.6944
 21
846.5431
 31
0.0
  0
LINE
  5
104B
330
1D
100
AcDbEntity
  8
0
100
AcDbLine
 10
22.65
 20
846.5951
 30
0.0
 11
22.7255
 21
846.5101
 31
0.0
  0
LINE
  5
104C
330
1D
100
AcDbEntity
  8
0
100
AcDbLine
 10
22.6129
 20
846.6331
 30
0.0
 11
22.65
 21
846.5951
 31
0.0
  0
LINE
  5
104D
330
1D
100
AcDbEntity
  8
0
100
AcDbLine
 10
22.6129
 20
846.6331
 30
0.0
 11
22.6944
 21
846.5431
 31
0.0
  0
LINE
  5
104E
330
1D
100
AcDbEntity
  8
0
100
AcDbLine
 10
22.5737
 20
846.6781
 30
0.0
 11
22.65
 21
846.5951
 31
0.0
  0
LINE
  5
104F
330
1D
100
AcDbEntity
  8
0
100
AcDbLine
 10
22.5314
 20
846.7221
 30
0.0
 11
22.5737
 21
846.6781
 31
0.0
  0
LINE
  5
1050
330
1D
100
AcDbEntity
  8
0
100
AcDbLine
 10
22.5314
 20
846.7221
 30
0.0
 11
22.6129
 21
846.6331
 31
0.0
  0
LINE
  5
1051
330
1D
100
AcDbEntity
  8
0
100
AcDbLine
 10
22.4968
 20
846.7611
 30
0.0
 11
22.5314
 21
846.7221
 31
0.0
  0
LINE
  5
1052
330
1D
100
AcDbEntity
  8
0
100
AcDbLine
 10
22.4968
 20
846.7611
 30
0.0
 11
22.5737
 21
846.6781
 31
0.0
  0
LINE
  5
1053
330
1D
100
AcDbEntity
  8
0
100
AcDbLine
 10
22.4494
 20
846.8091
 30
0.0
 11
22.4968
 21
846.7611
 31
0.0
  0
LINE
  5
1054
330
1D
100
AcDbEntity
  8
0
100
AcDbLine
 10
22.4494
 20
846.8091
 30
0.0
 11
22.5314
 21
846.7221
 31
0.0
  0
LINE
  5
1055
330
1D
100
AcDbEntity
  8
0
100
AcDbLine
 10
22.4196
 20
846.8421
 30
0.0
 11
22.4968
 21
846.7611
 31
0.0
  0
LINE
  5
1056
330
1D
100
AcDbEntity
  8
0
100
AcDbLine
 10
22.367
 20
846.8931
 30
0.0
 11
22.4196
 21
846.8421
 31
0.0
  0
LINE
  5
1057
330
1D
100
AcDbEntity
  8
0
100
AcDbLine
 10
22.367
 20
846.8931
 30
0.0
 11
22.4494
 21
846.8091
 31
0.0
  0
LINE
  5
1058
330
1D
100
AcDbEntity
  8
0
100
AcDbLine
 10
22.2869
 20
846.9741
 30
0.0
 11
22.367
 21
846.8931
 31
0.0
  0
LINE
  5
1059
330
1D
100
AcDbEntity
  8
0
100
AcDbLine
 10
22.343
 20
846.9201
 30
0.0
 11
22.4196
 21
846.8421
 31
0.0
  0
LINE
  5
105A
330
1D
100
AcDbEntity
  8
0
100
AcDbLine
 10
22.2669
 20
846.9971
 30
0.0
 11
22.343
 21
846.9201
 31
0.0
  0
LINE
  5
105B
330
1D
100
AcDbEntity
  8
0
100
AcDbLine
 10
22.1913
 20
847.0701
 30
0.0
 11
22.2669
 21
846.9971
 31
0.0
  0
LINE
  5
105C
330
1D
100
AcDbEntity
  8
0
100
AcDbLine
 10
22.1167
 20
847.1401
 30
0.0
 11
22.1913
 21
847.0701
 31
0.0
  0
LINE
  5
105D
330
1D
100
AcDbEntity
  8
0
100
AcDbLine
 10
22.0436
 20
847.2071
 30
0.0
 11
22.1167
 21
847.1401
 31
0.0
  0
LINE
  5
105E
330
1D
100
AcDbEntity
  8
0
100
AcDbLine
 10
21.9777
 20
847.2631
 30
0.0
 11
22.0436
 21
847.2071
 31
0.0
  0
LINE
  5
105F
330
1D
100
AcDbEntity
  8
0
100
AcDbLine
 10
22.8002
 20
846.4241
 30
0.0
 11
22.861
 21
846.3521
 31
0.0
  0
LINE
  5
1060
330
1D
100
AcDbEntity
  8
0
100
AcDbLine
 10
22.7782
 20
846.4481
 30
0.0
 11
22.861
 21
846.3521
 31
0.0
  0
LINE
  5
1061
330
1D
100
AcDbEntity
  8
0
100
AcDbLine
 10
21.9049
 20
847.3261
 30
0.0
 11
21.9777
 21
847.2631
 31
0.0
  0
LINE
  5
1062
330
1D
100
AcDbEntity
  8
0
100
AcDbLine
 10
21.8346
 20
847.3841
 30
0.0
 11
21.9049
 21
847.3261
 31
0.0
  0
LINE
  5
1063
330
1D
100
AcDbEntity
  8
0
100
AcDbLine
 10
21.5567
 20
847.5871
 30
0.0
 11
21.8346
 21
847.3841
 31
0.0
  0
LINE
  5
1064
330
1D
100
AcDbEntity
  8
0
100
AcDbLine
 10
21.2014
 20
847.7231
 30
0.0
 11
21.5567
 21
847.5871
 31
0.0
  0
LINE
  5
1065
330
1D
100
AcDbEntity
  8
0
100
AcDbLine
 10
17.1252
 20
849.0281
 30
0.0
 11
18.025636174391
 21
849.993494326561
 31
0.0
  0
LINE
  5
1066
330
1D
100
AcDbEntity
  8
0
100
AcDbLine
 10
23.2022
 20
848.5051
 30
0.0
 11
26.6421
 21
845.2991
 31
0.0
  0
LINE
  5
1067
330
1D
100
AcDbEntity
  8
0
100
AcDbLine
 10
17.2865
 20
848.3351
 30
0.0
 11
17.739
 21
847.9431
 31
0.0
  0
LINE
  5
1068
330
1D
100
AcDbEntity
  8
0
100
AcDbLine
 10
17.739
 20
847.9431
 30
0.0
 11
18.4038
 21
847.2021
 31
0.0
  0
LINE
  5
1069
330
1D
100
AcDbEntity
  8
0
100
AcDbLine
 10
17.0538
 20
848.4221
 30
0.0
 11
17.2865
 21
848.3351
 31
0.0
  0
LINE
  5
106A
330
1D
100
AcDbEntity
  8
0
100
AcDbLine
 10
17.0538
 20
848.4221
 30
0.0
 11
17.2683
 21
847.9231
 31
0.0
  0
LINE
  5
106B
330
1D
100
AcDbEntity
  8
0
100
AcDbLine
 10
23.62658049763
 20
844.042726856256
 30
0.0
 11
23.8013
 21
843.8971
 31
0.0
  0
LINE
  5
106C
330
1D
100
AcDbEntity
  8
0
100
AcDbLine
 10
23.8484
 20
836.3321
 30
0.0
 11
24.25323059872
 21
836.76613538678
 31
0.0
  0
LINE
  5
106D
330
1D
100
AcDbEntity
  8
0
100
AcDbLine
 10
23.8484
 20
836.3321
 30
0.0
 11
24.25323059872
 21
836.76613538678
 31
0.0
  0
LINE
  5
106E
330
1D
100
AcDbEntity
  8
0
100
AcDbLine
 10
23.9287
 20
837.2061
 30
0.0
 11
24.483818651614
 21
836.453528243095
 31
0.0
  0
LINE
  5
106F
330
1D
100
AcDbEntity
  8
0
100
AcDbLine
 10
24.4685
 20
836.4371
 30
0.0
 11
24.7976
 21
836.1301
 31
0.0
  0
LINE
  5
1070
330
1D
100
AcDbEntity
  8
0
100
AcDbLine
 10
24.4685
 20
836.4371
 30
0.0
 11
25.850383885206
 21
837.919079286862
 31
0.0
  0
LINE
  5
1071
330
1D
100
AcDbEntity
  8
0
100
AcDbLine
 10
24.2585
 20
835.7791
 30
0.0
 11
25.618711690716
 21
834.261630499399
 31
0.0
  0
LINE
  5
1072
330
1D
100
AcDbEntity
  8
0
100
AcDbLine
 10
23.842144101869
 20
836.337935796798
 30
0.0
 11
24.2585
 21
835.7791
 31
0.0
  0
LINE
  5
1073
330
1D
100
AcDbEntity
  8
0
100
AcDbLine
 10
23.8765
 20
839.3141
 30
0.0
 11
24.2056
 21
839.0071
 31
0.0
  0
LINE
  5
1074
330
1D
100
AcDbEntity
  8
0
100
AcDbLine
 10
23.8561
 20
842.1521
 30
0.0
 11
24.3763
 21
841.7441
 31
0.0
  0
LINE
  5
1075
330
1D
100
AcDbEntity
  8
0
100
AcDbLine
 10
23.8013
 20
843.8971
 30
0.0
 11
24.2372
 21
843.7561
 31
0.0
  0
LINE
  5
1076
330
1D
100
AcDbEntity
  8
0
100
AcDbLine
 10
24.2056
 20
839.0071
 30
0.0
 11
25.449370815957
 21
840.34059739095
 31
0.0
  0
LINE
  5
1077
330
1D
100
AcDbEntity
  8
0
100
AcDbLine
 10
24.3763
 20
841.7441
 30
0.0
 11
25.1231
 21
840.8461
 31
0.0
  0
LINE
  5
1078
330
1D
100
AcDbEntity
  8
0
100
AcDbLine
 10
24.2372
 20
843.7561
 30
0.0
 11
24.2453
 21
844.3111
 31
0.0
  0
LINE
  5
1079
330
1D
100
AcDbEntity
  8
0
100
AcDbLine
 10
24.6775
 20
838.8571
 30
0.0
 11
24.9242
 21
838.7461
 31
0.0
  0
LINE
  5
107A
330
1D
100
AcDbEntity
  8
0
100
AcDbLine
 10
24.6775
 20
838.8571
 30
0.0
 11
24.6912
 21
838.7041
 31
0.0
  0
LINE
  5
107B
330
1D
100
AcDbEntity
  8
0
100
AcDbLine
 10
16.0282
 20
850.0511
 30
0.0
 11
16.7961
 21
849.3341
 31
0.0
  0
LINE
  5
107C
330
1D
100
AcDbEntity
  8
0
100
AcDbLine
 10
17.0027
 20
851.6261
 30
0.0
 11
17.5964
 21
850.7671
 31
0.0
  0
LINE
  5
107D
330
1D
100
AcDbEntity
  8
0
100
AcDbLine
 10
17.5964
 20
850.7671
 30
0.0
 11
18.0102
 21
850.0401
 31
0.0
  0
LINE
  5
107E
330
1D
100
AcDbEntity
  8
0
100
AcDbLine
 10
15.66
 20
853.0091
 30
0.0
 11
16.1661
 21
852.6031
 31
0.0
  0
LINE
  5
107F
330
1D
100
AcDbEntity
  8
0
100
AcDbLine
 10
16.1661
 20
852.6031
 30
0.0
 11
17.0027
 21
851.6261
 31
0.0
  0
LINE
  5
1080
330
1D
100
AcDbEntity
  8
0
100
AcDbLine
 10
15.4991
 20
852.6251
 30
0.0
 11
15.84255556296
 21
852.051201448147
 31
0.0
  0
LINE
  5
1081
330
1D
100
AcDbEntity
  8
0
100
AcDbLine
 10
17.697820951368
 20
849.642030263402
 30
0.0
 11
17.9601
 21
849.4391
 31
0.0
  0
LINE
  5
1082
330
1D
100
AcDbEntity
  8
0
100
AcDbLine
 10
16.8602
 20
854.4181
 30
0.0
 11
19.9339
 21
851.5521
 31
0.0
  0
LINE
  5
1083
330
1D
100
AcDbEntity
  8
0
100
AcDbLine
 10
15.4279
 20
853.0351
 30
0.0
 11
15.4991
 21
852.6251
 31
0.0
  0
LINE
  5
1084
330
1D
100
AcDbEntity
  8
0
100
AcDbLine
 10
15.4279
 20
853.0351
 30
0.0
 11
15.66
 21
853.0091
 31
0.0
  0
LINE
  5
1085
330
1D
100
AcDbEntity
  8
0
100
AcDbLine
 10
19.9339
 20
851.5521
 30
0.0
 11
23.2022
 21
848.5051
 31
0.0
  0
LINE
  5
1086
330
1D
100
AcDbEntity
  8
0
100
AcDbLine
 10
18.0102
 20
850.0401
 30
0.0
 11
18.2076
 21
849.4441
 31
0.0
  0
LINE
  5
1087
330
1D
100
AcDbEntity
  8
0
100
AcDbLine
 10
17.9601
 20
849.4391
 30
0.0
 11
18.2076
 21
849.4441
 31
0.0
  0
LINE
  5
1088
330
1D
100
AcDbEntity
  8
0
100
AcDbLine
 10
24.7976
 20
836.1301
 30
0.0
 11
25.5655
 21
835.4141
 31
0.0
  0
LINE
  5
1089
330
1D
100
AcDbEntity
  8
0
100
AcDbLine
 10
25.516416083334
 20
837.560920855353
 30
0.0
 11
25.850383885206
 21
837.919079286862
 31
0.0
  0
LINE
  5
108A
330
1D
100
AcDbEntity
  8
0
100
AcDbLine
 10
25.5655
 20
835.4141
 30
0.0
 11
26.3334
 21
834.6981
 31
0.0
  0
LINE
  5
108B
330
1D
100
AcDbEntity
  8
0
100
AcDbLine
 10
24.8971
 20
838.3461
 30
0.0
 11
25.508492059684
 21
837.552422862834
 31
0.0
  0
LINE
  5
108C
330
1D
100
AcDbEntity
  8
0
100
AcDbLine
 10
25.3795
 20
838.3711
 30
0.0
 11
25.9212
 21
837.8511
 31
0.0
  0
LINE
  5
108D
330
1D
100
AcDbEntity
  8
0
100
AcDbLine
 10
29.8676
 20
835.9561
 30
0.0
 11
29.985336968981
 21
835.758284690781
 31
0.0
  0
LINE
  5
108E
330
1D
100
AcDbEntity
  8
0
100
AcDbLine
 10
29.8676
 20
835.9561
 30
0.0
 11
29.989013934684
 21
835.762227993883
 31
0.0
  0
LINE
  5
108F
330
1D
100
AcDbEntity
  8
0
100
AcDbLine
 10
29.5617
 20
836.5051
 30
0.0
 11
29.8237
 21
836.5601
 31
0.0
  0
LINE
  5
1090
330
1D
100
AcDbEntity
  8
0
100
AcDbLine
 10
29.5617
 20
836.5051
 30
0.0
 11
29.8676
 21
835.9561
 31
0.0
  0
LINE
  5
1091
330
1D
100
AcDbEntity
  8
0
100
AcDbLine
 10
29.7152
 20
837.2871
 30
0.0
 11
30.759145073226
 21
838.406662209028
 31
0.0
  0
LINE
  5
1092
330
1D
100
AcDbEntity
  8
0
100
AcDbLine
 10
29.8237
 20
836.5601
 30
0.0
 11
30.861
 21
835.7111
 31
0.0
  0
LINE
  5
1093
330
1D
100
AcDbEntity
  8
0
100
AcDbLine
 10
30.861
 20
835.7111
 30
0.0
 11
31.8042
 21
834.7041
 31
0.0
  0
LINE
  5
1094
330
1D
100
AcDbEntity
  8
0
100
AcDbLine
 10
27.607501167689
 20
835.404551398897
 30
0.0
 11
27.9999
 21
835.1211
 31
0.0
  0
LINE
  5
1095
330
1D
100
AcDbEntity
  8
0
100
AcDbLine
 10
27.1635
 20
836.4931
 30
0.0
 11
27.9943
 21
835.3661
 31
0.0
  0
LINE
  5
1096
330
1D
100
AcDbEntity
  8
0
100
AcDbLine
 10
29.3861
 20
837.5941
 30
0.0
 11
29.7152
 21
837.2871
 31
0.0
  0
LINE
  5
1097
330
1D
100
AcDbEntity
  8
0
100
AcDbLine
 10
28.6182
 20
838.3101
 30
0.0
 11
29.3861
 21
837.5941
 31
0.0
  0
LINE
  5
1098
330
1D
100
AcDbEntity
  8
0
100
AcDbLine
 10
30.330220281785
 20
837.946668671698
 30
0.0
 11
30.6632
 21
837.7701
 31
0.0
  0
LINE
  5
1099
330
1D
100
AcDbEntity
  8
0
100
AcDbLine
 10
34.0764
 20
838.3681
 30
0.0
 11
37.9569
 21
834.7501
 31
0.0
  0
LINE
  5
109A
330
1D
100
AcDbEntity
  8
0
100
AcDbLine
 10
30.8849
 20
837.7791
 30
0.0
 11
30.9026
 21
838.0381
 31
0.0
  0
LINE
  5
109B
330
1D
100
AcDbEntity
  8
0
100
AcDbLine
 10
30.6632
 20
837.7701
 30
0.0
 11
30.8849
 21
837.7791
 31
0.0
  0
LINE
  5
109C
330
1D
100
AcDbEntity
  8
0
100
AcDbLine
 10
26.4292
 20
837.3211
 30
0.0
 11
27.1635
 21
836.4931
 31
0.0
  0
LINE
  5
109D
330
1D
100
AcDbEntity
  8
0
100
AcDbLine
 10
25.9212
 20
837.8511
 30
0.0
 11
26.4292
 21
837.3211
 31
0.0
  0
LINE
  5
109E
330
1D
100
AcDbEntity
  8
0
100
AcDbLine
 10
27.5212
 20
839.3331
 30
0.0
 11
27.8503
 21
839.0261
 31
0.0
  0
LINE
  5
109F
330
1D
100
AcDbEntity
  8
0
100
AcDbLine
 10
27.5212
 20
839.3331
 30
0.0
 11
28.837039533912
 21
840.744251077864
 31
0.0
  0
LINE
  5
10A0
330
1D
100
AcDbEntity
  8
0
100
AcDbLine
 10
27.8503
 20
839.0261
 30
0.0
 11
28.6182
 21
838.3101
 31
0.0
  0
LINE
  5
10A1
330
1D
100
AcDbEntity
  8
0
100
AcDbLine
 10
25.8518
 20
839.7171
 30
0.0
 11
25.8603
 21
839.4311
 31
0.0
  0
LINE
  5
10A2
330
1D
100
AcDbEntity
  8
0
100
AcDbLine
 10
25.5186
 20
839.5461
 30
0.0
 11
25.8603
 21
839.4311
 31
0.0
  0
LINE
  5
10A3
330
1D
100
AcDbEntity
  8
0
100
AcDbLine
 10
25.06665489991
 20
839.930272056912
 30
0.0
 11
25.5186
 21
839.5461
 31
0.0
  0
LINE
  5
10A4
330
1D
100
AcDbEntity
  8
0
100
AcDbLine
 10
25.1231
 20
840.8461
 30
0.0
 11
25.8518
 21
839.7171
 31
0.0
  0
LINE
  5
10A5
330
1D
100
AcDbEntity
  8
0
100
AcDbLine
 10
27.8785
 20
841.0541
 30
0.0
 11
28.1846
 21
840.2601
 31
0.0
  0
LINE
  5
10A6
330
1D
100
AcDbEntity
  8
0
100
AcDbLine
 10
27.8785
 20
841.0541
 30
0.0
 11
28.1285
 21
841.1921
 31
0.0
  0
LINE
  5
10A7
330
1D
100
AcDbEntity
  8
0
100
AcDbLine
 10
28.274597493059
 20
840.141069100327
 30
0.0
 11
28.837039533912
 21
840.744251077864
 31
0.0
  0
LINE
  5
10A8
330
1D
100
AcDbEntity
  8
0
100
AcDbLine
 10
29.1733
 20
840.4661
 30
0.0
 11
29.8149
 21
839.8071
 31
0.0
  0
LINE
  5
10A9
330
1D
100
AcDbEntity
  8
0
100
AcDbLine
 10
28.1846
 20
840.2601
 30
0.0
 11
28.267020604453
 21
840.132943387239
 31
0.0
  0
LINE
  5
10AA
330
1D
100
AcDbEntity
  8
0
100
AcDbLine
 10
29.8149
 20
839.8071
 30
0.0
 11
30.6352
 21
838.7251
 31
0.0
  0
LINE
  5
10AB
330
1D
100
AcDbEntity
  8
0
100
AcDbLine
 10
30.6352
 20
838.7251
 30
0.0
 11
30.9026
 21
838.0381
 31
0.0
  0
LINE
  5
10AC
330
1D
100
AcDbEntity
  8
0
100
AcDbLine
 10
28.6172
 20
840.9261
 30
0.0
 11
29.1733
 21
840.4661
 31
0.0
  0
LINE
  5
10AD
330
1D
100
AcDbEntity
  8
0
100
AcDbLine
 10
11.4308
 20
882.3761
 30
0.0
 11
36.8758
 21
862.5131
 31
0.0
  0
LINE
  5
10AE
330
1D
100
AcDbEntity
  8
0
100
AcDbLine
 10
59.8042
 20
842.2531
 30
0.0
 11
71.0911
 21
831.4421
 31
0.0
  0
LINE
  5
10AF
330
1D
100
AcDbEntity
  8
0
100
AcDbLine
 10
30.2958
 20
841.8921
 30
0.0
 11
34.0764
 21
838.3681
 31
0.0
  0
LINE
  5
10B0
330
1D
100
AcDbEntity
  8
0
100
AcDbLine
 10
36.8758
 20
862.5131
 30
0.0
 11
49.8561
 21
851.3111
 31
0.0
  0
LINE
  5
10B1
330
1D
100
AcDbEntity
  8
0
100
AcDbLine
 10
49.8561
 20
851.3111
 30
0.0
 11
59.8042
 21
842.2531
 31
0.0
  0
LINE
  5
10B2
330
1D
100
AcDbEntity
  8
0
100
AcDbLine
 10
26.6421
 20
845.2991
 30
0.0
 11
30.2958
 21
841.8921
 31
0.0
  0
LINE
  5
10B3
330
1D
100
AcDbEntity
  8
0
100
AcDbLine
 10
26.73102526848
 20
845.216179018608
 30
0.0
 11
26.78
 21
845.1571
 31
0.0
  0
LINE
  5
10B4
330
1D
100
AcDbEntity
  8
0
100
AcDbLine
 10
28.1285
 20
841.1921
 30
0.0
 11
28.6172
 21
840.9261
 31
0.0
  0
LINE
  5
10B5
330
1D
100
AcDbEntity
  8
0
100
AcDbLine
 10
24.9242
 20
838.7461
 30
0.0
 11
25.3795
 21
838.3711
 31
0.0
  0
LINE
  5
10B6
330
1D
100
AcDbEntity
  8
0
100
AcDbLine
 10
24.6912
 20
838.7041
 30
0.0
 11
24.8971
 21
838.3461
 31
0.0
  0
LINE
  5
10B7
330
1D
100
AcDbEntity
  8
0
100
AcDbLine
 10
27.9943
 20
835.3661
 30
0.0
 11
27.9999
 21
835.1211
 31
0.0
  0
LINE
  5
10B8
330
1D
100
AcDbEntity
  8
0
100
AcDbLine
 10
15.3037
 20
847.7191
 30
0.0
 11
15.516
 21
847.4021
 31
0.0
  0
LINE
  5
10B9
330
1D
100
AcDbEntity
  8
0
100
AcDbLine
 10
126.988760335337
 20
697.17559691569
 30
0.0
 11
147.987368444765
 21
708.803921425894
 31
0.0
  0
LINE
  5
10BA
330
1D
100
AcDbEntity
  8
0
100
AcDbLine
 10
88.9471
 20
769.6918
 30
0.0
 11
89.7199
 21
775.4049
 31
0.0
  0
LINE
  5
10BB
330
1D
100
AcDbEntity
  8
0
100
AcDbLine
 10
89.9663
 20
779.1566
 30
0.0
 11
89.818324934411
 21
781.331072063088
 31
0.0
  0
LINE
  5
10BC
330
1D
100
AcDbEntity
  8
0
100
AcDbLine
 10
89.818324934411
 20
781.331072063088
 30
0.0
 11
89.510087914721
 21
782.909245603902
 31
0.0
  0
LINE
  5
10BD
330
1D
100
AcDbEntity
  8
0
100
AcDbLine
 10
89.510087914721
 20
782.909245603902
 30
0.0
 11
88.862348550986
 21
785.563268129324
 31
0.0
  0
LINE
  5
10BE
330
1D
100
AcDbEntity
  8
0
100
AcDbLine
 10
88.862348550986
 20
785.563268129324
 30
0.0
 11
87.853659547418
 21
787.718194636946
 31
0.0
  0
LINE
  5
10BF
330
1D
100
AcDbEntity
  8
0
100
AcDbLine
 10
87.853659547418
 20
787.718194636946
 30
0.0
 11
87.0353
 21
788.9761
 31
0.0
  0
LINE
  5
10C0
330
1D
100
AcDbEntity
  8
0
100
AcDbLine
 10
84.044
 20
777.2496
 30
0.0
 11
83.475388274945
 21
778.382500655319
 31
0.0
  0
LINE
  5
10C1
330
1D
100
AcDbEntity
  8
0
100
AcDbLine
 10
83.475388274945
 20
778.382500655319
 30
0.0
 11
82.6325
 21
779.731
 31
0.0
  0
LINE
  5
10C2
330
1D
100
AcDbEntity
  8
0
100
AcDbLine
 10
81.9152
 20
780.5394
 30
0.0
 11
81.1964
 21
781.2372
 31
0.0
  0
LINE
  5
10C3
330
1D
100
AcDbEntity
  8
0
100
AcDbLine
 10
81.1964
 20
781.2372
 30
0.0
 11
79.93717937913
 21
782.233358535872
 31
0.0
  0
LINE
  5
10C4
330
1D
100
AcDbEntity
  8
0
100
AcDbLine
 10
79.93717937913
 20
782.233358535872
 30
0.0
 11
78.671956903732
 21
783.165022358666
 31
0.0
  0
LINE
  5
10C5
330
1D
100
AcDbEntity
  8
0
100
AcDbLine
 10
78.671956903732
 20
783.165022358666
 30
0.0
 11
77.812951272912
 21
783.715411392241
 31
0.0
  0
LINE
  5
10C6
330
1D
100
AcDbEntity
  8
0
100
AcDbLine
 10
74.6383
 20
784.8579
 30
0.0
 11
84.241
 21
768.3073
 31
0.0
  0
LINE
  5
10C7
330
1D
100
AcDbEntity
  8
0
100
AcDbLine
 10
77.2089
 20
795.4021
 30
0.0
 11
77.291218766492
 21
795.433896201991
 31
0.0
  0
LINE
  5
10C8
330
1D
100
AcDbEntity
  8
0
100
AcDbLine
 10
77.291218766492
 20
795.433896201991
 30
0.0
 11
77.336942863932
 21
795.525344396871
 31
0.0
  0
LINE
  5
10C9
330
1D
100
AcDbEntity
  8
0
100
AcDbLine
 10
77.336942863932
 20
795.525344396871
 30
0.0
 11
77.3218
 21
795.6291
 31
0.0
  0
LINE
  5
10CA
330
1D
100
AcDbEntity
  8
0
100
AcDbLine
 10
50.5833
 20
820.3231
 30
0.0
 11
50.860210077627
 21
820.132217699086
 31
0.0
  0
LINE
  5
10CB
330
1D
100
AcDbEntity
  8
0
100
AcDbLine
 10
50.860210077627
 20
820.132217699086
 30
0.0
 11
52.087212601178
 21
819.157535825209
 31
0.0
  0
LINE
  5
10CC
330
1D
100
AcDbEntity
  8
0
100
AcDbLine
 10
52.087212601178
 20
819.157535825209
 30
0.0
 11
52.909
 21
818.3111
 31
0.0
  0
LINE
  5
10CD
330
1D
100
AcDbEntity
  8
0
100
AcDbLine
 10
36.6325
 20
833.6181
 30
0.0
 11
37.6535
 21
832.5371
 31
0.0
  0
ENDSEC
  0
SECTION
  2
OBJECTS
  0
DICTIONARY
  5
C
330
0
100
AcDbDictionary
281
     1
  3
ACAD_GROUP
350
D
  3
ACAD_LAYOUT
350
1A
  3
ACAD_MLEADERSTYLE
350
10D0
  3
ACAD_MLINESTYLE
350
17
  3
ACAD_PLOTSETTINGS
350
19
  3
ACAD_PLOTSTYLENAME
350
E
  3
ACAD_SCALELIST
350
91D
  3
AcDbVariableDictionary
350
10CE
  3
DWGPROPS
350
10D3
  0
DICTIONARY
  5
D
102
{ACAD_REACTORS
330
C
102
}
330
C
100
AcDbDictionary
281
     1
  0
DICTIONARY
  5
1A
102
{ACAD_REACTORS
330
C
102
}
330
C
100
AcDbDictionary
281
     1
  3
Layout1
350
1C
  3
Model
350
1E
  0
DICTIONARY
  5
10D0
102
{ACAD_REACTORS
330
C
102
}
330
C
100
AcDbDictionary
281
     1
  0
DICTIONARY
  5
17
102
{ACAD_REACTORS
330
C
102
}
330
C
100
AcDbDictionary
281
     1
  3
Standard
350
18
  0
DICTIONARY
  5
19
102
{ACAD_REACTORS
330
C
102
}
330
C
100
AcDbDictionary
281
     1
  0
ACDBDICTIONARYWDFLT
  5
E
102
{ACAD_REACTORS
330
C
102
}
330
C
100
AcDbDictionary
281
     1
  3
Normal
350
F
100
AcDbDictionaryWithDefault
340
F
  0
DICTIONARY
  5
91D
102
{ACAD_REACTORS
330
C
102
}
330
C
100
AcDbDictionary
281
     1
  3
A0
350
91E
  3
A1
350
91F
  3
A2
350
920
  3
A3
350
921
  3
A4
350
922
  3
A5
350
923
  3
A6
350
924
  3
A7
350
925
  3
A8
350
926
  3
A9
350
927
  3
B0
350
928
  3
B1
350
929
  3
B2
350
92A
  3
B3
350
92B
  3
B4
350
92C
  3
B5
350
92D
  3
B6
350
92E
  3
B7
350
92F
  3
B8
350
930
  3
B9
350
931
  3
C0
350
932
  3
C1
350
933
  3
C2
350
934
  3
C3
350
935
  3
C4
350
936
  3
C5
350
937
  3
C6
350
938
  3
C7
350
939
  3
C8
350
93A
  3
C9
350
93B
  3
D0
350
93C
  3
D1
350
93D
  3
D2
350
93E
  0
DICTIONARY
  5
10CE
102
{ACAD_REACTORS
330
C
102
}
330
C
100
AcDbDictionary
281
     1
  3
CANNOSCALE
350
10D1
  0
XRECORD
  5
10D3
102
{ACAD_REACTORS
330
C
102
}
330
C
100
AcDbXrecord
280
     1
  1
DWGPROPS COOKIE
  2

  3

  4

  6

  7

  8
MARTIN
  9

300
=
301
=
302
=
303
=
304
=
305
=
306
=
307
=
308
=
309
=
 40
0.0
 41
2456466.548616354
 42
2456466.549647349
  1

 90
        0
  0
LAYOUT
  5
1C
102
{ACAD_REACTORS
330
1A
102
}
330
1A
100
AcDbPlotSettings
  1

  2
none_device
  4

  6

 40
0.0
 41
0.0
 42
0.0
 43
0.0
 44
0.0
 45
0.0
 46
0.0
 47
0.0
 48
0.0
 49
0.0
140
0.0
141
0.0
142
1.0
143
1.0
 70
   688
 72
     0
 73
     0
 74
     5
  7

 75
    16
147
1.0
148
0.0
149
0.0
100
AcDbLayout
  1
Layout1
 70
     1
 71
     1
 10
0.0
 20
0.0
 11
12.0
 21
9.0
 12
0.0
 22
0.0
 32
0.0
 14
1.000000000000E+20
 24
1.000000000000E+20
 34
1.000000000000E+20
 15
-1.000000000000E+20
 25
-1.000000000000E+20
 35
-1.000000000000E+20
146
0.0
 13
0.0
 23
0.0
 33
0.0
 16
1.0
 26
0.0
 36
0.0
 17
0.0
 27
1.0
 37
0.0
 76
     0
330
1B
  0
LAYOUT
  5
1E
102
{ACAD_REACTORS
330
1A
102
}
330
1A
100
AcDbPlotSettings
  1

  2
none_device
  4

  6

 40
0.0
 41
0.0
 42
0.0
 43
0.0
 44
0.0
 45
0.0
 46
0.0
 47
0.0
 48
0.0
 49
0.0
140
0.0
141
0.0
142
1.0
143
1.0
 70
  1712
 72
     0
 73
     0
 74
     0
  7

 75
     0
147
1.0
148
0.0
149
0.0
100
AcDbLayout
  1
Model
 70
     1
 71
     0
 10
0.0
 20
0.0
 11
12.0
 21
9.0
 12
0.0
 22
0.0
 32
0.0
 14
-0.024376
 24
0.107
 34
0.0
 15
193.823
 25
957.893
 35
0.0
146
0.0
 13
0.0
 23
0.0
 33
0.0
 16
1.0
 26
0.0
 36
0.0
 17
0.0
 27
1.0
 37
0.0
 76
     0
330
1D
331
918
  0
MLINESTYLE
  5
18
102
{ACAD_REACTORS
330
17
102
}
330
17
100
AcDbMlineStyle
  2
Standard
 70
     0
  3

 62
   256
 51
90.0
 52
90.0
 71
     2
 49
0.5
 62
   256
  6
BYLAYER
 49
-0.5
 62
   256
  6
BYLAYER
  0
ACDBPLACEHOLDER
  5
F
102
{ACAD_REACTORS
330
E
102
}
330
E
  0
SCALE
  5
91E
102
{ACAD_REACTORS
330
91D
102
}
330
91D
100
AcDbScale
 70
     0
300
1:1
140
1.0
141
1.0
290
     1
  0
SCALE
  5
91F
102
{ACAD_REACTORS
330
91D
102
}
330
91D
100
AcDbScale
 70
     0
300
1:2
140
1.0
141
2.0
290
     0
  0
SCALE
  5
920
102
{ACAD_REACTORS
330
91D
102
}
330
91D
100
AcDbScale
 70
     0
300
1:4
140
1.0
141
4.0
290
     0
  0
SCALE
  5
921
102
{ACAD_REACTORS
330
91D
102
}
330
91D
100
AcDbScale
 70
     0
300
1:5
140
1.0
141
5.0
290
     0
  0
SCALE
  5
922
102
{ACAD_REACTORS
330
91D
102
}
330
91D
100
AcDbScale
 70
     0
300
1:8
140
1.0
141
8.0
290
     0
  0
SCALE
  5
923
102
{ACAD_REACTORS
330
91D
102
}
330
91D
100
AcDbScale
 70
     0
300
1:10
140
1.0
141
10.0
290
     0
  0
SCALE
  5
924
102
{ACAD_REACTORS
330
91D
102
}
330
91D
100
AcDbScale
 70
     0
300
1:16
140
1.0
141
16.0
290
     0
  0
SCALE
  5
925
102
{ACAD_REACTORS
330
91D
102
}
330
91D
100
AcDbScale
 70
     0
300
1:20
140
1.0
141
20.0
290
     0
  0
SCALE
  5
926
102
{ACAD_REACTORS
330
91D
102
}
330
91D
100
AcDbScale
 70
     0
300
1:30
140
1.0
141
30.0
290
     0
  0
SCALE
  5
927
102
{ACAD_REACTORS
330
91D
102
}
330
91D
100
AcDbScale
 70
     0
300
1:40
140
1.0
141
40.0
290
     0
  0
SCALE
  5
928
102
{ACAD_REACTORS
330
91D
102
}
330
91D
100
AcDbScale
 70
     0
300
1:50
140
1.0
141
50.0
290
     0
  0
SCALE
  5
929
102
{ACAD_REACTORS
330
91D
102
}
330
91D
100
AcDbScale
 70
     0
300
1:100
140
1.0
141
100.0
290
     0
  0
SCALE
  5
92A
102
{ACAD_REACTORS
330
91D
102
}
330
91D
100
AcDbScale
 70
     0
300
2:1
140
2.0
141
1.0
290
     0
  0
SCALE
  5
92B
102
{ACAD_REACTORS
330
91D
102
}
330
91D
100
AcDbScale
 70
     0
300
4:1
140
4.0
141
1.0
290
     0
  0
SCALE
  5
92C
102
{ACAD_REACTORS
330
91D
102
}
330
91D
100
AcDbScale
 70
     0
300
8:1
140
8.0
141
1.0
290
     0
  0
SCALE
  5
92D
102
{ACAD_REACTORS
330
91D
102
}
330
91D
100
AcDbScale
 70
     0
300
10:1
140
10.0
141
1.0
290
     0
  0
SCALE
  5
92E
102
{ACAD_REACTORS
330
91D
102
}
330
91D
100
AcDbScale
 70
     0
300
100:1
140
100.0
141
1.0
290
     0
  0
SCALE
  5
92F
102
{ACAD_REACTORS
330
91D
102
}
330
91D
100
AcDbScale
 70
     0
300
1/128" = 1'-0"
140
0.0078125
141
12.0
290
     0
  0
SCALE
  5
930
102
{ACAD_REACTORS
330
91D
102
}
330
91D
100
AcDbScale
 70
     0
300
1/64" = 1'-0"
140
0.015625
141
12.0
290
     0
  0
SCALE
  5
931
102
{ACAD_REACTORS
330
91D
102
}
330
91D
100
AcDbScale
 70
     0
300
1/32" = 1'-0"
140
0.03125
141
12.0
290
     0
  0
SCALE
  5
932
102
{ACAD_REACTORS
330
91D
102
}
330
91D
100
AcDbScale
 70
     0
300
1/16" = 1'-0"
140
0.0625
141
12.0
290
     0
  0
SCALE
  5
933
102
{ACAD_REACTORS
330
91D
102
}
330
91D
100
AcDbScale
 70
     0
300
3/32" = 1'-0"
140
0.09375
141
12.0
290
     0
  0
SCALE
  5
934
102
{ACAD_REACTORS
330
91D
102
}
330
91D
100
AcDbScale
 70
     0
300
1/8" = 1'-0"
140
0.125
141
12.0
290
     0
  0
SCALE
  5
935
102
{ACAD_REACTORS
330
91D
102
}
330
91D
100
AcDbScale
 70
     0
300
3/16" = 1'-0"
140
0.1875
141
12.0
290
     0
  0
SCALE
  5
936
102
{ACAD_REACTORS
330
91D
102
}
330
91D
100
AcDbScale
 70
     0
300
1/4" = 1'-0"
140
0.25
141
12.0
290
     0
  0
SCALE
  5
937
102
{ACAD_REACTORS
330
91D
102
}
330
91D
100
AcDbScale
 70
     0
300
3/8" = 1'-0"
140
0.375
141
12.0
290
     0
  0
SCALE
  5
938
102
{ACAD_REACTORS
330
91D
102
}
330
91D
100
AcDbScale
 70
     0
300
1/2" = 1'-0"
140
0.5
141
12.0
290
     0
  0
SCALE
  5
939
102
{ACAD_REACTORS
330
91D
102
}
330
91D
100
AcDbScale
 70
     0
300
3/4" = 1'-0"
140
0.75
141
12.0
290
     0
  0
SCALE
  5
93A
102
{ACAD_REACTORS
330
91D
102
}
330
91D
100
AcDbScale
 70
     0
300
1" = 1'-0"
140
1.0
141
12.0
290
     0
  0
SCALE
  5
93B
102
{ACAD_REACTORS
330
91D
102
}
330
91D
100
AcDbScale
 70
     0
300
1-1/2" = 1'-0"
140
1.5
141
12.0
290
     0
  0
SCALE
  5
93C
102
{ACAD_REACTORS
330
91D
102
}
330
91D
100
AcDbScale
 70
     0
300
3" = 1'-0"
140
3.0
141
12.0
290
     0
  0
SCALE
  5
93D
102
{ACAD_REACTORS
330
91D
102
}
330
91D
100
AcDbScale
 70
     0
300
6" = 1'-0"
140
6.0
141
12.0
290
     0
  0
SCALE
  5
93E
102
{ACAD_REACTORS
330
91D
102
}
330
91D
100
AcDbScale
 70
     0
300
1'-0" = 1'-0"
140
12.0
141
12.0
290
     0
  0
DICTIONARYVAR
  5
10D1
102
{ACAD_REACTORS
330
10CE
102
}
330
10CE
100
DictionaryVariables
280
     0
  1
1:1
  0
ENDSEC
  0
SECTION
  2
THUMBNAILIMAGE
 90
    16364
310
28000000B40000005500000001000800000000000000000000000000000000000000000000000000FFFFFF000000FF0000FFFF0000FF0000FFFF0000FF000000FF00FF000000000080808000C0C0C0000000FF007F7FFF000000A5005252A50000007F003F3F7F0000004C0026264C000000260013132600003FFF007F9FFF
310
000029A5005267A500001F7F003F4F7F0000134C00262F4C000009260013172600007FFF007FBFFF000052A500527CA500003F7F003F5F7F0000264C0026394C0000132600131C260000BFFF007FDFFF00007CA5005291A500005F7F003F6F7F0000394C0026424C00001C26001321260000FFFF007FFFFF0000A5A50052A5
310
A500007F7F003F7F7F00004C4C00264C4C00002626001326260000FFBF007FFFDF0000A57C0052A59100007F5F003F7F6F00004C3900264C420000261C001326210000FF7F007FFFBF0000A5520052A57C00007F3F003F7F5F00004C2600264C39000026130013261C0000FF3F007FFF9F0000A5290052A56700007F1F003F
310
7F4F00004C1300264C2F00002609001326170000FF00007FFF7F0000A5000052A55200007F00003F7F3F00004C0000264C260000260000132613003FFF00009FFF7F0029A5000067A552001F7F00004F7F3F00134C00002F4C260009260000172613007FFF0000BFFF7F0052A500007CA552003F7F00005F7F3F00264C0000
310
394C2600132600001C261300BFFF0000DFFF7F007CA5000091A552005F7F00006F7F3F00394C0000424C26001C26000021261300FFFF0000FFFF7F00A5A50000A5A552007F7F00007F7F3F004C4C00004C4C26002626000026261300FFBF0000FFDF7F00A57C0000A59152007F5F00007F6F3F004C3900004C422600261C00
310
0026211300FF7F0000FFBF7F00A5520000A57C52007F3F00007F5F3F004C2600004C39260026130000261C1300FF3F0000FF9F7F00A5290000A56752007F1F00007F4F3F004C1300004C2F26002609000026171300FF000000FF7F7F00A5000000A55252007F0000007F3F3F004C0000004C2626002600000026131300FF00
310
3F00FF7F9F00A5002900A55267007F001F007F3F4F004C0013004C262F002600090026131700FF007F00FF7FBF00A5005200A5527C007F003F007F3F5F004C0026004C2639002600130026131C00FF00BF00FF7FDF00A5007C00A55291007F005F007F3F6F004C0039004C26420026001C0026132100FF00FF00FF7FFF00A5
310
00A500A552A5007F007F007F3F7F004C004C004C264C002600260026132600BF00FF00DF7FFF007C00A5009152A5005F007F006F3F7F0039004C0042264C001C002600211326007F00FF00BF7FFF005200A5007C52A5003F007F005F3F7F0026004C0039264C00130026001C1326003F00FF009F7FFF002900A5006752A500
310
1F007F004F3F7F0013004C002F264C000900260017132600000000002D2D2D005B5B5B0089898900B7B7B700B3B3B30000000000000000000000000000000000000000000000000000000000000000000000000000000000000000000000000000000000000000000000000000000000000000000000000000000000000000
310
00000000000000000000000000000000000007070000000000000000000000000000000000000000000000000000000000000000000000000000000000000000000000000000000000000000000000000000000000000000000000000000000000000000000000000000000000000000000000000000000000000000000000
310
00000000000000000000000000000000000000000000000000000000000000000000000000000000000000000000000000000000000000000000000000000000000000000000000707000000000000000000000000000000000000000000000000000000000000000000000000000000000000000000000000000000000000
310
00000000000000000000000000000000000000000000000000000000000000000000000000000000000000000000000000000000000000000000000000000000000000000000000000000000000000000000000000000000000000000000000000000000000000000000000000000000000000000000000000000000070700
310
00000000000000000000000000000000000000000000000000000000000000000000000000000000000000000000000000000000000000000000000000000000000000000000000000000000000000000000000000000000000000000000000000000000000000000000000000000000000000000000000000000000000000
310
00000000000000000000000000000000000000000000000000000000000000000000000000000000000000000000000000000707000000000000000000000000000000000000000000000000000000000000000000000000000000000000000000000000000000000000000000000000000000000000000000000000000000
310
00000000000000000000000000000000000000000000000000000000000000000000000000000000000000000000000000000000000000000000000000000000000000000000000000000000000000000000000000000000000000000000000000000000000000070700000000000000000000000000000000000000000000
310
00000000000000000000000000000000000000000000000000000000000000000000000000000000000000000000000000000000000000000000000000000000000000000000000000000000000000000000000000000000000000000000000000000000000000000000000000000000000000000000000000000000000000
310
00000000000000000000000000000000000000000000000000000000000707000000000000000000000000000000000000000000000000000000000000000000000000000000000000000000000000000000000000000000000000000000000000000000000000000000000000000000000000000000000000000000000000
310
00000000000000000000000000000000000000000000000000000000000000000000000000000000000000000000000000000000000000000000000000000000000000000000000000000000000000000000070700000000000000000000000000000000000000000000000000000000000000000000000000000000000000
310
00000000000000000000000000000000000000000000000000000000000000000000000000000000000000000000000000000000000000000000000000000000000000000000000000000000000000000000000000000000000000000000000000000000000000000000000000000000000000000000000000000000000000
310
00000000000000000707000000000000000000000000000000000000000000000000000000000000000000000000000000000000000000000000000000000000000000000000000000000000000000000000000000000000000000000000000000000000000000000000000000000000000000000000000000000000000000
310
00000000000000000000000000000000000000000000000000000000000000000000000000000000000000000000000000000000000000000000000000070700000000000000000000000000000000000000000000000000000000000000000000000000000000000000000000000000000000000000000000000000000000
310
00000000000000000000000000000000000000000000000000000000000000000000000000000000000000000000000000000000000000000000000000000000000000000000000000000000000000000000000000000000000000000000000000000000000000000000000000000000000007070000000000000000000000
310
00000000000000000000000000000000000000000000000000000000000000000000000000000000000000000000000000000000000000000000000000000000000000000000000000000000000000000000000000000000000000000000000000000000000000000000000000000000000000000000000000000000000000
310
00000000000000000000000000000000000000000000000000000000000000000000000000000000070700000000000000000000000000000000000000000000000000000000000000000000000000000000000000000000000000000000000000000000000000000000000000000000000000000000000000000000000000
310
00000000000000000000000000000000000000000000000000000000000000000000000000000000000000000000000000000000000000000000000000000000000000000000000000000000000000000000000000000000000000000007070000000000000000000000000000000000000000000000000000000000000000
310
00000000000000000000000000000000000000000000000000000000000000000000000000000000000000000000000000000000000000000000000000000000000000000000000000000000000000000000000000000000000000000000000000000000000000000000000000000000000000000000000000000000000000
310
00000000000000000000000000000000000000070700000000000000000000000000000000000000000000000000000000000000000000000000000000000000000000000000000000000000000000000000000000000000000000000000000000000000000000000000000000000000000000000000000000000000000000
310
00000000000000000000000000000000000000000000000000000000000000000000000000000000000000000000000000000000000000000000000000000000000000000000000007070000000000000000000000000000000000000000000000000000000000000000000000000000000000000000000000000000000000
310
00000000000000000000000000000000000000000000000000000000000000000000000000000000000000000000000000000000000000000000000000000000000000000000000000000000000000000000000000000000000000000000000000000000000000000000000000000000000000000000000000000000000707
310
00000000000000000000000000000000000000000000000000000000000000000000000000000000000000000000000000000000000000000000000000000000000000000000000000000000000000000000000000000000000000000000000000000000000000000000000000000000000000000000000000000000000000
310
00000000000000000000000000000000000000000000000000000000000000000000000000000000000000000000000000000007070000000000000000000000000000000000000000000000000000000000000000000000000000000000000000000000000000000000000000000000000000000000000000000000000000
310
00000000000000000000000000000000000000000000000000000000000000000000000000000000000000000000000000000000000000000000000000000000000000000000000000000000000000000000000000000000000000000000000000000000000000000707000000000000000000000000000000000000000000
310
00000000000000000000000000000000000000000000000000000000000000000000000000000000000000000000000000000000000000000000000000000000000000000000000000000000000000000000000000000000000000000000000000000000000000000000000000000000000000000000000000000000000000
310
00000000000000000000000000000000000000000000000000000007070707070000000000000000000000000000000000000000000000000000000000000000000000000000000000000000000000000000000000000000000000000000000000000000000000000000000000000000000000000000000000000000000000
310
00000000000000000000000000000000000000000000000000000000000000000000000000000000000000000000000000000000000000000000000000000000000000000000000000000000000000000700070707000000000000000000000000000000000000000000000000000000000000000000000000000000000000
310
00000000000000000000000000000000000000000000000000000000000000000000000000000000000000000000000000000000000000000000000000000000000000000000000000000000000000000000000000000000000000000000000000000000000000000000000000000000000000000000000000000000000000
310
00000000000007070707070000000000000000000000000000000000000000000000000000000000000000000000000000000000000000000000000000000000000000000000000000000000000000000000000000000000000000000000000000000000000000000000000000000000000000000000000000000000000000
310
00000000000000000000000000000000000000000000000000000000000000000000000000000000000000000000000000000000000000000000000700000707000000000000000000000000000000000000000000000000000000000000000000000000000000000000000000000000000000000000000000000000000000
310
00000000000000000000000000000000000000000000000000000000000000000000000000000000000000000000000000000000000000000000000000000000000000000000000000000000000000000000000000000000000000000000000000000000000000000000000000000000070000070700000000000000000000
310
00000000000000000000000000000000000000000000000000000000000000000000000000000000000000000000000000000000000000000000000000000000000000000000000000000000000000000000000000000000000000000000000000000000000000000000000000000000000000000000000000000000000000
310
00000000000000000000000000000000000000000000000000000000000000000000000000000700000707000000000000000000000000000000000000000000000000000000000000000000000000000000000000000000000000000000000000000000000000000000000000000000000000000000000000000000000000
310
00000000000000000000000000000000000000000000000000000000000000000000000000000000000000000000000000000000000000000000000000000000000000000000000000000000000000000000000000000000000000070707070700000000000000000000000000000000000000000000000000000000000000
310
00000000000000000000000000000000000000000000000000000000000000000000000000000000000000000000000000000000000000000000000000000000000000000000000000000000000000000000000000000000000000000000000000000000000000000000000000000000000000000000000000000000000000
310
00000000000000000000000000000000000700070707000000000000000000000000000000000000000000000000000000000000000000000000000000000000000000000000000000000000000000000000000000000000000000000000000000000000000000000000000000000000000000000000000000000000000000
310
00000000000000000000000000000000000000000000000000000000000000000000000000000000000000000000000000000000000000000000000000000000000000000000070007070700000000000000000000000000000000000000000000000000000000000000000000000000000000000000000000000000000000
310
00000000000000000000000000000000000000000000000000000000000000000000000000000000000000000000000000000000000000000000000000000000000000000000000000000000000000000000000000000000000000000000000000000000000000000000000000000000000000000000000000000707070707
310
07000000000000000000000000000000000000000000000000000000000000000000000000000000000000000000000000000000000000000000000000000000000000000000000000000000000000000000000000000000000000000000000000000000000000000000000000000000000000000000000000000000000000
310
00000000000000000000000000000000000000000000000000000000000000000000000000000000070707070707070707070707070700000000000000000000000000000000000000000000000000000000000000000000000000000000000000000000000000000000000000000000000000000000000000000000000000
310
00000000000000000000000000000000000000000000000000000000000000000000000000000000000000000000000000000000000000000000000000000000000000000000000000000000000000000000000000000000000000000007000000000000000000000007070000000000000000000000000000000000000000
310
00000000000000000000000000000000000000000000000000000000000000000000000000000000000000000000000000000000000000000000000000000000000000000000000000000000000000000000000000000000000000000000000000000000000000000000000000000000000000000000000000000000000000
310
00000000000000000000000000000000000000070707070707070707070707070700000000000000000000000000000000000000000000000000000000000000000000000000000000000000000000000000000000000000000000000000000000000000000000000000000000000000000000000000000000000000000000
310
00000000000000000000000000000000000000000000000000000000000000000000000000000000000000000000000000000000000000000000000000000000000000000000000000000000000000000007000707070000000000000000000000000000000000000000000000000000000000000000000000000000000000
310
00000000000000000000000000000000000000000000000000000000000000000000000000000000000000000000000000000000000000000000000000000000000000000000000000000000000000000000000000000000000000000000000000000000000000000000000000000000000000000000000000000000000000
310
00000000000000070007070700000000000000000000000000000000000000000000000000000000000000000000000000000000000000000000000000000000000000000000000000000000000000000000000000000000000000000000000000000000000000000000000000000000000000000000000000000000000000
310
00000000000000000000000000000000000000000000000000000000000000000000000000000000000000000000000000000000000000000000000007000707070000000000000000000000000000000000000000000000000000000000000000000000000000000000000000000000000000000000000000000000000000
310
00000000000000000000000000000000000000000000000000000000000000000000000000000000000000000000000000000000000000000000000000000000000000000000000000000000000000000000000000000000000000000000000000000000000000000000000000000000000700070707000000000000000000
310
00000000000000000000000000000000000000000000000000000000000000000000000000000000000000000000000000000000000000000000000000000000000000000000000000000000000000000000000000000000000000000000000000000000000000000000000000000000000000000000000000000000000000
310
00000000000000000000000000000000000000000000000000000000000000000000000000000007000707070000000000000000000000000000000000000000000000000000000000000000000000000000000000000000000000000000000000000000000000000000000000000000000000000000000000000000000000
310
00000000000000000000000000000000000000000000000000000000000000000000000000000000000000000000000000000000000000000000000000000000000000000000000000000000000000000000000000000000000000000700070707000000000000000000000000000000000000000000000000000000000000
310
00000000000000000000000000000000000000000000000000000000000000000000000000000000000000000000000000000000000000000000000000000000000000000000000000000000000000000000000000000000000000000000000000000000000000000000000000000000000000000000000000000000000000
310
00000000000000000000000000000000000007000707070000000000000000000000000000000000000000000000000000000000000000000000000000000000000000000000000000000000000000000000000000000000000000000000000000000000000000000000000000000000000000000000000000000000000000
310
00000000000000000000000000000000000000000000000000000000000000000000000000000000000000000000000000000000000000000000000000000000000000000000000700070707000000000000000000000000000000000000000000000000000000000000000000000000000000000000000000000000000000
310
00000000000000000000000000000000000000000000000000000000000000000000000000000000000000000000000000000000000000000000000000000000000000000000000000000000000000000000000000000000000000000000000000000000000000000000000000000000000000000000000000000000070007
310
07070000000000000000000000000000000000000000000000000000000000000000000000000000000000000000000000000000000000000000000000000000000000000000000000000000000000000000000000000000000000000000000000000000000000000000000000000000000000000000000000000000000000
310
00000000000000000000000000000000000000000000000000000000000000000000000000000000000000000000000000000700070707000000000000000000000000000000000000000000000000000000000000000000000000000000000000000000000000000000000000000000000000000000000000000000000000
310
00000000000000000000000000000000000000000000000000000000000000000000000000000000000000000000000000000000000000000000000000000000000000000000000000000000000000000000000000000000000000000000000000000000000000070007070700000000000000000000000000000000000000
310
00000000000000000000000000000000000000000000000000000000000000000000000000000000000000000000000000000000000000000000000000000000000000000000000000000000000000000000000000000000000000000000000000000000000000000000000000000000000000000000000000000000000000
310
00000000000000000000000000000000000000000000000000000000000700070707000000000000000000000000000000000000000000000000000000000000000000000000000000000000000000000000000000000000000000000000000000000000000000000000000000000000000000000000000000000000000000
310
00000000000000000000000000000000000000000000000000000000000000000000000000000000000000000000000000000000000000000000000000000000000000000000000000000000000000000000070007070700000000000000000000000000000000000000000000000000000000000000000000000000000000
310
00000000000000000000000000000000000000000000000000000000000000000000000000000000000000000000000000000000000000000000000000000000000000000000000000000000000000000000000000000000000000000000000000000000000000000000000000000000000000000000000000000000000000
310
00000000000000000700070707000000000000000000000000000000000000000000000000000000000000000000000000000000000000000000000000000000000000000000000000000000000000000000000000000000000000000000000000000000000000000000000000000000000000000000000000000000000000
310
00000000000000000000000000000000000000000000000000000000000000000000000000000000000000000000000000000000000000000000000000070007070700000000000000000000000000000000000000000000000000000000000000000000000000000000000000000000000000000000000000000000000000
310
00000000000000000000000000000000000000000000000000000000000000000000000000000000000000000000000000000000000000000000000000000000000000000000000000000000000000000000000000000000000000000000000000000000000000000000000000000000000007000707070000000000000000
310
00000000000000000000000000000000000000000000000000000000000000000000000000000000000000000000000000000000000000000000000000000000000000000000000000000000000000000000000000000000000000000000000000000000000000000000000000000000000000000000000000000000000000
310
00000000000000000000000000000000000000000000000000000000000000000000000000000000070007070700000000000000000000000000000000000000000000000000000000000000000000000000000000000000000000000000000000000000000000000000000000000000000000000000000000000000000000
310
00000000000000000000000000000000000000000000000000000000000000000000000000000000000000000000000000000000000000000000000000000000000000000000000000000000000000000000000000000000000000000007000707070000000000000000000000000000000000000000000000000000000000
310
00000000000000000000000000000000000000000000000000000000000000000000000000000000000000000000000000000000000000000000000000000000000000000000000000000000000000000000000000000000000000000000000000000000000000000000000000000000000000000000000000000000000000
310
00000000000000000000000000000000000000070007070700000000000000000000000000000000000000000000000000000000000000000000000000000000000000000000000000000000000000000000000000000000000000000000000000000000000000000000000000000000000000000000000000000000000000
310
00000000000000000000000000000000000000000000000000000000000000000000000000000000000000000000000000000000000000000000000000000000000000000000000007000707070000000000000000000000000000000000000000000000000000000000000000000000000000000000000000000000000000
310
00000000000000000000000000000000000000000000000000000000000000000000000000000000000000000000000000000000000000000000000000000000000000000000000000000000000000000000000000000000000000000000000000000000000000000000000000000000000000000000000000000000000700
310
07070700000000000000000000000000000000000000000000000000000000000000000000000000000000000000000000000000000000000000000000000000000000000000000000000000000000000000000000000000000000000000000000000000000000000000000000000000000000000000000000000000000000
310
00000000000000000000000000000000000000000000000000000000000000000000000000000000000000000000000000000007000700070000000000000000000000000000000000000000000000000000000000000000000000000000000000000000000000000000000000000000000000000000000000000000000000
310
00000000000000000000000000000000000000000000000000000000000000000000000000000000000000000000000000000000000000000000000000000000000000000000000000000000000000000000000000000000000000000000000000000000000000000700070700000000000000000000000000000000000000
310
00000000000000000000000000000000000000000000000000000000000000000000000000000000000000000000000000000000000000000000000000000000000000000000000000000000000000000000000000000000000000000000000000000000000000000000000000000000000000000000000000000000000000
310
00000000000000000000000000000000000000000000000000000000000007000707000000000000000000000000000000000000000000000000000000000000000000000000000000000000000000000000000000000000000000000000000000000000000000000000000000000000000000000000000000000000000000
310
00000000000000000000000000000000000000000000000000000000000000000000000000000000000000000000000000000000000000000000000000000000000000000000000000000000000000000000000700070700000000000000000000000000000000000000000000000000000000000000000000000000000000
310
00000000000000000000000000000000000000000000000000000000000000000000000000000000000000000000000000000000000000000000000000000000000000000000000000000000000000000000000000000000000000000000000000000000000000000000000000000000000000000000000000000000000000
310
00000000000000000007070007000000000000000000000000000000000000000000000000000000000000000000000000000000000000000000000000000000000000000000000000000000000000000000000000000000000000000000000000000000000000000000000000000000000000000000000000000000000000
310
00000000000000000000000000000000000000000000000000000000000000000000000000000000000000000000000000000000000000000000000000000707070000000000000000000000000000000000000000000000000000000000000000000000000000000000000000000000000000000000000000000000000000
310
00000000000000000000000000000000000000000000000000000000000000000000000000000000000000000000000000000000000000000000000000000000000000000000000000000000000000000000000000000000000000000000000000000000000000000000000000000000000000070007000000000000000000
310
00000000000000000000000000000000000000000000000000000000000000000000000000000000000000000000000000000000000000000000000000000000000000000000000000000000000000000000000000000000000000000000000000000000000000000000000000000000000000000000000000000000000000
310
00000000000000000000000000000000000000000000000000000000000000000000000000000000000707070000000000000000000000000000000000000000000000000000000000000000000000000000000000000000000000000000000000000000000000000000000000000000000000000000000000000000000000
310
00000000000000000000000000000000000000000000000000000000000000000000000000000000000000000000000000000000000000000000000000000000000000000000000000000000000000000000000000000000000000000007000707000000000000000000000000000000000000000000000000000000000000
310
00000000000000000000000000000000000000000000000000000000000000000000000000000000000000000000000000000000000000000000000000000000000000000000000000000000000000000000000000000000000000000000000000000000000000000000000000000000000000000000000000000000000000
310
00000000000000000000000000000000000000070007070000000000000000000000000000000000000000000000000000000000000000000000000000000000000000000000000000000000000000000000000000000000000000000000000000000000000000000000000000000000000000000000000000000000000000
310
00000000000000000000000000000000000000000000000000000000000000000000000000000000000000000000000000000000000000000000000000000000000000000000000707070707000000000000000000000000000000000000000000000000000000000000000000000000000000000000000000000000000000
310
00000000000000000000000000000000000000000000000000000000000000000000000000000000000000000000000000000000000000000000000000000000000000000000000000000000000000000000000000000000000000000000000000000000000000000000000000000000000000000000000000000000070007
310
07070000000000000000000000000000000000000000000000000000000000000000000000000000000000000000000000000000000000000000000000000000000000000000000000000000000000000000000000000000000000000000000000000000000000000000000000000000000000000000000000000000000000
310
00000000000000000000000000000000000000000000000000000000000000000000000000000000000000000000000000070000070007000000000000000000000000000000000000000000000000000000000000000000000000000000000000000000000000000000000000000000000000000000000000000000000000
310
00000000000000000000000000000000000000000000000000000000000000000000000000000000000000000000000000000000000000000000000000000000000000000000000000000000000000000000000000000000000000000000000000000000000700000007000700000000000000000000000000000000000000
310
00000000000000000000000000000000000000000000000000000000000000000000000000000000000000000000000000000000000000000000000000000000000000000000000000000000000000000000000000000000000000000000000000000000000000000000000000000000000000000000000000000000000000
310
00000000000000000000000000000000000000000000000000000007000007070007000000000000000000000000000000000000000000000000000000000000000000000000000000000000000000000000000000000000000000000000000000000000000000000000000000000000000000000000000000000000000000
310
00000000000000000000000000000000000000000000000000000000000000000000000000000000000000000000000000000000000000000000000000000000000000000000000000000000000000070000070007000700000000000000000000000000000000000000000000000000000000000000000000000000000000
310
00000000000000000000000000000000000000000000000000000000000000000000000000000000000000000000000000000000000000000000000000000000000000000000000000000000000000000000000000000000000000000000000000000000000000000000000000000000000000000000000000000000000000
310
00000000000700000700070007000000000000000000000000000000000000000000000000000000000000000000000000000000000000000000000000000000000000000000000000000000000000000000000000000000000000000000000000000000000000000000000000000000000000000000000000000000000000
310
00000000000000000000000000000000000000000000000000000000000000000000000000000000000000000000000000000000000000000007070007000007000700000000000000000000000000000000000000000000000000000000000000000000000000000000000000000000000000000000000000000000000000
310
00000000000000000000000000000000000000000000000000000000000000000000000000000000000000000000000000000000000000000000000000000000000000000000000000000000000000000000000000000000000000000000000000000000000000000000000000070707070700000700070000000000000000
310
00000000000000000000000000000000000000000000000000000000000000000000000000000000000000000000000000000000000000000000000000000000000000000000000000000000000000000000000000000000000000000000000000000000000000000000000000000000000000000000000000000000000000
310
00000000000000000000000000000000000000000000000000000000000000000000070707000700000007000700000000000000000000000000000000000000000000000000000000000000000000000000000000000000000000000000000000000000000000000000000000000000000000000000000000000000000000
310
00000000000000000000000000000000000000000000000000000000000000000000000000000000000000000000000000000000000000000000000000000000000000000000000000000000000000000000000000000707070007000000000700070000000000000000000000000000000000000000000000000000000000
310
00000000000000000000000000000000000000000000000000000000000000000000000000000000000000000000000000000000000000000000000000000000000000000000000000000000000000000000000000000000000000000000000000000000000000000000000000000000000000000000000000000000000000
310
00000000000000000000000707070007000000000007000700000000000000000000000000000000000000000000000000000000000000000000000000000000000000000000000000000000000000000000000000000000000000000000000000000000000000000000000000000000000000000000000000000000000000
310
00000000000000000000000000000000000000000000000000000000000000000000000000000000000000000000000000000000000000000000000000000007070700070000000000000700070000000000000000000000000000000000000000000000000000000000000000000000000000000000000000000000000000
310
00000000000000000000000000000000000000000000000000000000000000000000000000000000000000000000000000000000000000000000000000000000000000000000000000000000000000000000000000000000000000000000000000000000000000000000000000000000000000070707000700000000000000
310
07000700000000000000000000000000000000000000000000000000000000000000000000000000000000000000000000000000000000000000000000000000000000000000000000000000000000000000000000000000000000000000000000000000000000000000000000000000000000000000000000000000000000
310
00000000000000000000000000000000000000000000000000000000000000000000000000000000000707000700000000000000000700070000000000000000000000000000000000000000000000000000000000000000000000000000000000000000000000000000000000000000000000000000000000000000000000
310
00000000000000000000000000000000000000000000000000000000000000000000000000000000000000000000000000000000000000000000000000000000000000000000000000000000000000000000000000000000000000000000070007000000000000000000070007000000000000000000000000000000000000
310
00000000000000000000000000000000000000000000000000000000000000000000000000000000000000000000000000000000000000000000000000000000000000000000000000000000000000000000000000000000000000000000000000000000000000000000000000000000000000000000000000000000000000
310
00000000000000000000000000000000000000000707000000000000000000000707070707000000000000000000000000000000000000000000000000000000000000000000000000000000000000000000000000000000000000000000000000000000000000000000000000000000000000000000000000000000000000
310
00000000000000000000000000000000000000000000000000000000000000000000000000000000000000000000000000000000000000000000000000000000000000000000000000000000000000000000000000070000000700000000000000000000000000000000000000000000000000000000000000000000000000
310
00000000000000000000000000000000000000000000000000000000000000000000000000000000000000000000000000000000000000000000000000000000000000000000000000000000000000000000000000000000000000000000000000000000000000000000000000000000000000000000000000000000000000
310
00000000000000000000000700000007000000000000000000000000000000000000000000000000000000000000000000000000000000000000000000000000000000000000000000000000000000000000000000000000000000000000000000000000000000000000000000000000000000000000000000000000000000
310
00000000000000000000000000000000000000000000000000000000000000000000000000000000000000000000000000000000000000000000000000000000070000000700000000000000000000000000000000000000000000000000000000000000000000000000000000000000000000000000000000000000000000
310
00000000000000000000000000000000000000000000000000000000000000000000000000000000000000000000000000000000000000000000000000000000000000000000000000000000000000000000000000000000000000000000000000000000000000000000000000000000000000000007070707070000000000
310
00000000000000000000000000000000000000000000000000000000000000000000000000000000000000000000000000000000000000000000000000000000000000000000000000000000000000000000000000000000000000000000000000000000000000000000000000000000000000000000000000000000000000
310
00000000000000000000000000000000000000000000000000000000000000000000000000000000000000070007000000000000000000000000000000000000000000000000000000000000000000000000000000000000000000000000000000000000000000000000000000000000000000000000000000000000000000
310
00000000000000000000000000000000000000000000000000000000000000000000000000000000000000000000000000000000000000000000000000000000000000000000000000000000000000000000000000000000000000000000000007070700000000000000000000000000000000000000000000000000000000
310
00000000000000000000000000000000000000000000000000000000000000000000000000000000000000000000000000000000000000000000000000000000000000000000000000000000000000000000000000000000000000000000000000000000000000000000000000000000000000000000000000000000000000
310
000000000000000000000000000000000000000000000000000000000000000000000000000000000000000000000000000000000000000000000000000000000000000000000000000000000000000000000000000000000000000000000000000000000000000000000000
  0
ENDSEC
  0
EOF
