  0
SECTION
  2
HEADER
  9
$ACADVER
  1
AC1015
  9
$ACADMAINTVER
 70
    13
  9
$DWGCODEPAGE
  3
ANSI_1252
  9
$INSBASE
 10
0.0
 20
0.0
 30
0.0
  9
$EXTMIN
 10
0.0000000000000002
 20
0.0000000000000012
 30
0.0
  9
$EXTMAX
 10
300.0
 20
170.0
 30
0.0
  9
$LIMMIN
 10
0.0
 20
0.0
  9
$LIMMAX
 10
12.0
 20
9.0
  9
$ORTHOMODE
 70
     0
  9
$REGENMODE
 70
     1
  9
$FILLMODE
 70
     1
  9
$QTEXTMODE
 70
     0
  9
$MIRRTEXT
 70
     1
  9
$LTSCALE
 40
1.0
  9
$ATTMODE
 70
     1
  9
$TEXTSIZE
 40
0.2
  9
$TRACEWID
 40
0.05
  9
$TEXTSTYLE
  7
Standard
  9
$CLAYER
  8
0
  9
$CELTYPE
  6
Continuous
  9
$CECOLOR
 62
   256
  9
$CELTSCALE
 40
1.0
  9
$DISPSILH
 70
     0
  9
$DIMSCALE
 40
1.0
  9
$DIMASZ
 40
0.18
  9
$DIMEXO
 40
0.0625
  9
$DIMDLI
 40
0.38
  9
$DIMRND
 40
0.0
  9
$DIMDLE
 40
0.0
  9
$DIMEXE
 40
0.18
  9
$DIMTP
 40
0.0
  9
$DIMTM
 40
0.0
  9
$DIMTXT
 40
0.18
  9
$DIMCEN
 40
0.09
  9
$DIMTSZ
 40
0.0
  9
$DIMTOL
 70
     0
  9
$DIMLIM
 70
     0
  9
$DIMTIH
 70
     1
  9
$DIMTOH
 70
     1
  9
$DIMSE1
 70
     0
  9
$DIMSE2
 70
     0
  9
$DIMTAD
 70
     0
  9
$DIMZIN
 70
     0
  9
$DIMBLK
  1

  9
$DIMASO
 70
     1
  9
$DIMSHO
 70
     1
  9
$DIMPOST
  1

  9
$DIMAPOST
  1

  9
$DIMALT
 70
     0
  9
$DIMALTD
 70
     2
  9
$DIMALTF
 40
25.4
  9
$DIMLFAC
 40
1.0
  9
$DIMTOFL
 70
     0
  9
$DIMTVP
 40
0.0
  9
$DIMTIX
 70
     0
  9
$DIMSOXD
 70
     0
  9
$DIMSAH
 70
     0
  9
$DIMBLK1
  1

  9
$DIMBLK2
  1

  9
$DIMSTYLE
  2
Standard
  9
$DIMCLRD
 70
     0
  9
$DIMCLRE
 70
     0
  9
$DIMCLRT
 70
     0
  9
$DIMTFAC
 40
1.0
  9
$DIMGAP
 40
0.09
  9
$DIMJUST
 70
     0
  9
$DIMSD1
 70
     0
  9
$DIMSD2
 70
     0
  9
$DIMTOLJ
 70
     1
  9
$DIMTZIN
 70
     0
  9
$DIMALTZ
 70
     0
  9
$DIMALTTZ
 70
     0
  9
$DIMUPT
 70
     0
  9
$DIMDEC
 70
     4
  9
$DIMTDEC
 70
     4
  9
$DIMALTU
 70
     2
  9
$DIMALTTD
 70
     2
  9
$DIMTXSTY
  7
Standard
  9
$DIMAUNIT
 70
     0
  9
$DIMADEC
 70
     0
  9
$DIMALTRND
 40
0.0
  9
$DIMAZIN
 70
     0
  9
$DIMDSEP
 70
    46
  9
$DIMATFIT
 70
     3
  9
$DIMFRAC
 70
     0
  9
$DIMLDRBLK
  1

  9
$DIMLUNIT
 70
     2
  9
$DIMLWD
 70
    -2
  9
$DIMLWE
 70
    -2
  9
$DIMTMOVE
 70
     0
  9
$LUNITS
 70
     2
  9
$LUPREC
 70
     4
  9
$SKETCHINC
 40
0.1
  9
$FILLETRAD
 40
0.0
  9
$AUNITS
 70
     0
  9
$AUPREC
 70
     0
  9
$MENU
  1
.
  9
$ELEVATION
 40
0.0
  9
$PELEVATION
 40
0.0
  9
$THICKNESS
 40
0.0
  9
$LIMCHECK
 70
     0
  9
$CHAMFERA
 40
0.0
  9
$CHAMFERB
 40
0.0
  9
$CHAMFERC
 40
0.0
  9
$CHAMFERD
 40
0.0
  9
$SKPOLY
 70
     0
  9
$TDCREATE
 40
2455647.939911296
  9
$TDUCREATE
 40
2455647.898244629
  9
$TDUPDATE
 40
2455647.941150972
  9
$TDUUPDATE
 40
2455647.899484306
  9
$TDINDWG
 40
0.0012396759
  9
$TDUSRTIMER
 40
0.0012396759
  9
$USRTIMER
 70
     1
  9
$ANGBASE
 50
0.0
  9
$ANGDIR
 70
     0
  9
$PDMODE
 70
     0
  9
$PDSIZE
 40
0.0
  9
$PLINEWID
 40
0.0
  9
$SPLFRAME
 70
     0
  9
$SPLINETYPE
 70
     6
  9
$SPLINESEGS
 70
     8
  9
$HANDSEED
  5
583
  9
$SURFTAB1
 70
     6
  9
$SURFTAB2
 70
     6
  9
$SURFTYPE
 70
     6
  9
$SURFU
 70
     6
  9
$SURFV
 70
     6
  9
$UCSBASE
  2

  9
$UCSNAME
  2

  9
$UCSORG
 10
0.0
 20
0.0
 30
0.0
  9
$UCSXDIR
 10
1.0
 20
0.0
 30
0.0
  9
$UCSYDIR
 10
0.0
 20
1.0
 30
0.0
  9
$UCSORTHOREF
  2

  9
$UCSORTHOVIEW
 70
     1
  9
$UCSORGTOP
 10
0.0
 20
0.0
 30
0.0
  9
$UCSORGBOTTOM
 10
0.0
 20
0.0
 30
0.0
  9
$UCSORGLEFT
 10
0.0
 20
0.0
 30
0.0
  9
$UCSORGRIGHT
 10
0.0
 20
0.0
 30
0.0
  9
$UCSORGFRONT
 10
0.0
 20
0.0
 30
0.0
  9
$UCSORGBACK
 10
0.0
 20
0.0
 30
0.0
  9
$PUCSBASE
  2

  9
$PUCSNAME
  2

  9
$PUCSORG
 10
0.0
 20
0.0
 30
0.0
  9
$PUCSXDIR
 10
1.0
 20
0.0
 30
0.0
  9
$PUCSYDIR
 10
0.0
 20
1.0
 30
0.0
  9
$PUCSORTHOREF
  2

  9
$PUCSORTHOVIEW
 70
     0
  9
$PUCSORGTOP
 10
0.0
 20
0.0
 30
0.0
  9
$PUCSORGBOTTOM
 10
0.0
 20
0.0
 30
0.0
  9
$PUCSORGLEFT
 10
0.0
 20
0.0
 30
0.0
  9
$PUCSORGRIGHT
 10
0.0
 20
0.0
 30
0.0
  9
$PUCSORGFRONT
 10
0.0
 20
0.0
 30
0.0
  9
$PUCSORGBACK
 10
0.0
 20
0.0
 30
0.0
  9
$USERI1
 70
     0
  9
$USERI2
 70
     0
  9
$USERI3
 70
     0
  9
$USERI4
 70
     0
  9
$USERI5
 70
     0
  9
$USERR1
 40
0.0
  9
$USERR2
 40
0.0
  9
$USERR3
 40
0.0
  9
$USERR4
 40
0.0
  9
$USERR5
 40
0.0
  9
$WORLDVIEW
 70
     1
  9
$SHADEDGE
 70
     3
  9
$SHADEDIF
 70
    70
  9
$TILEMODE
 70
     1
  9
$MAXACTVP
 70
    64
  9
$PINSBASE
 10
0.0
 20
0.0
 30
0.0
  9
$PLIMCHECK
 70
     0
  9
$PEXTMIN
 10
1.000000000000000E+20
 20
1.000000000000000E+20
 30
1.000000000000000E+20
  9
$PEXTMAX
 10
-1.000000000000000E+20
 20
-1.000000000000000E+20
 30
-1.000000000000000E+20
  9
$PLIMMIN
 10
0.0
 20
0.0
  9
$PLIMMAX
 10
12.0
 20
9.0
  9
$UNITMODE
 70
     0
  9
$VISRETAIN
 70
     1
  9
$PLINEGEN
 70
     0
  9
$PSLTSCALE
 70
     1
  9
$TREEDEPTH
 70
  3020
  9
$CMLSTYLE
  2
Standard
  9
$CMLJUST
 70
     0
  9
$CMLSCALE
 40
1.0
  9
$PROXYGRAPHICS
 70
     1
  9
$MEASUREMENT
 70
     0
  9
$CELWEIGHT
370
    -1
  9
$ENDCAPS
280
     0
  9
$JOINSTYLE
280
     0
  9
$LWDISPLAY
290
     0
  9
$INSUNITS
 70
     0
  9
$HYPERLINKBASE
  1

  9
$STYLESHEET
  1

  9
$XEDIT
290
     1
  9
$CEPSNTYPE
380
     0
  9
$PSTYLEMODE
290
     1
  9
$FINGERPRINTGUID
  2
{0D18F077-E42D-4DD8-8FE5-F735C52B3454}
  9
$VERSIONGUID
  2
{2F7F3A50-2408-4A7C-B581-0219101B4AC4}
  9
$EXTNAMES
290
     1
  9
$PSVPSCALE
 40
0.0
  9
$OLESTARTUP
290
     0
  0
ENDSEC
  0
SECTION
  2
CLASSES
  0
CLASS
  1
ACDBDICTIONARYWDFLT
  2
AcDbDictionaryWithDefault
  3
AutoCAD 2000
 90
        0
280
     0
281
     0
  0
CLASS
  1
ACDBPLACEHOLDER
  2
AcDbPlaceHolder
  3
AutoCAD 2000
 90
        0
280
     0
281
     0
  0
CLASS
  1
LAYOUT
  2
AcDbLayout
  3
AutoCAD 2000
 90
        0
280
     0
281
     0
  0
CLASS
  1
DICTIONARYVAR
  2
AcDbDictionaryVar
  3
AutoCAD 2000
 90
        0
280
     0
281
     0
  0
ENDSEC
  0
SECTION
  2
TABLES
  0
TABLE
  2
VPORT
  5
8
330
0
100
AcDbSymbolTable
 70
     3
  0
VPORT
  5
582
330
8
100
AcDbSymbolTableRecord
100
AcDbViewportTableRecord
  2
*Active
 70
     0
 10
0.0
 20
0.0
 11
1.0
 21
1.0
 12
150.0
 22
85.0
 13
0.0
 23
0.0
 14
1.0
 24
1.0
 15
0.0
 25
0.0
 16
0.0
 26
0.0
 36
1.0
 17
0.0
 27
0.0
 37
0.0
 40
171.1499436302142
 41
2.073363431151241
 42
50.0
 43
0.0
 44
0.0
 50
0.0
 51
0.0
 71
     0
 72
   100
 73
     1
 74
     3
 75
     0
 76
     0
 77
     0
 78
     0
281
     0
 65
     1
110
0.0
120
0.0
130
0.0
111
1.0
121
0.0
131
0.0
112
0.0
122
1.0
132
0.0
 79
     1
146
0.0
  0
ENDTAB
  0
TABLE
  2
LTYPE
  5
5
330
0
100
AcDbSymbolTable
 70
     1
  0
LTYPE
  5
13
330
5
100
AcDbSymbolTableRecord
100
AcDbLinetypeTableRecord
  2
ByBlock
 70
     0
  3

 72
    65
 73
     0
 40
0.0
  0
LTYPE
  5
14
330
5
100
AcDbSymbolTableRecord
100
AcDbLinetypeTableRecord
  2
ByLayer
 70
     0
  3

 72
    65
 73
     0
 40
0.0
  0
LTYPE
  5
15
330
5
100
AcDbSymbolTableRecord
100
AcDbLinetypeTableRecord
  2
Continuous
 70
     0
  3
Solid line
 72
    65
 73
     0
 40
0.0
  0
ENDTAB
  0
TABLE
  2
LAYER
  5
2
330
0
100
AcDbSymbolTable
 70
     1
  0
LAYER
  5
10
330
2
100
AcDbSymbolTableRecord
100
AcDbLayerTableRecord
  2
0
 70
     0
 62
     7
  6
Continuous
370
    -3
390
F
  0
ENDTAB
  0
TABLE
  2
STYLE
  5
3
330
0
100
AcDbSymbolTable
 70
     1
  0
STYLE
  5
11
330
3
100
AcDbSymbolTableRecord
100
AcDbTextStyleTableRecord
  2
Standard
 70
     0
 40
0.0
 41
1.0
 50
0.0
 71
     0
 42
0.2
  3
txt
  4

  0
ENDTAB
  0
TABLE
  2
VIEW
  5
6
330
0
100
AcDbSymbolTable
 70
     0
  0
ENDTAB
  0
TABLE
  2
UCS
  5
7
330
0
100
AcDbSymbolTable
 70
     0
  0
ENDTAB
  0
TABLE
  2
APPID
  5
9
330
0
100
AcDbSymbolTable
 70
     1
  0
APPID
  5
12
330
9
100
AcDbSymbolTableRecord
100
AcDbRegAppTableRecord
  2
ACAD
 70
     0
  0
ENDTAB
  0
TABLE
  2
DIMSTYLE
  5
A
330
0
100
AcDbSymbolTable
 70
     1
100
AcDbDimStyleTable
 71
     0
  0
DIMSTYLE
105
57B
330
A
100
AcDbSymbolTableRecord
100
AcDbDimStyleTableRecord
  2
Standard
 70
     0
340
11
  0
ENDTAB
  0
TABLE
  2
BLOCK_RECORD
  5
1
330
0
100
AcDbSymbolTable
 70
     0
  0
BLOCK_RECORD
  5
1E
330
1
100
AcDbSymbolTableRecord
100
AcDbBlockTableRecord
  2
*Model_Space
340
21
  0
BLOCK_RECORD
  5
1A
330
1
100
AcDbSymbolTableRecord
100
AcDbBlockTableRecord
  2
*Paper_Space
340
1D
  0
ENDTAB
  0
ENDSEC
  0
SECTION
  2
BLOCKS
  0
BLOCK
  5
1F
330
1E
100
AcDbEntity
  8
0
100
AcDbBlockBegin
  2
*Model_Space
 70
     0
 10
0.0
 20
0.0
 30
0.0
  3
*Model_Space
  1

  0
ENDBLK
  5
20
330
1E
100
AcDbEntity
  8
0
100
AcDbBlockEnd
  0
BLOCK
  5
1B
330
1A
100
AcDbEntity
 67
     1
  8
0
100
AcDbBlockBegin
  2
*Paper_Space
 70
     0
 10
0.0
 20
0.0
 30
0.0
  3
*Paper_Space
  1

  0
ENDBLK
  5
1C
330
1A
100
AcDbEntity
 67
     1
  8
0
100
AcDbBlockEnd
  0
ENDSEC
  0
SECTION
  2
ENTITIES
  0
LINE
  5
22
330
1E
100
AcDbEntity
  8
0
100
AcDbLine
 10
82.33249999999999
 20
0.0000000000000138
 30
0.0
 11
83.58249999999999
 21
0.0000000000000138
 31
0.0
  0
LINE
  5
23
330
1E
100
AcDbEntity
  8
0
100
AcDbLine
 10
82.33249999999999
 20
0.0000000000000138
 30
0.0
 11
82.33249999999999
 21
2.00000000000001
 31
0.0
  0
LINE
  5
24
330
1E
100
AcDbEntity
  8
0
100
AcDbLine
 10
19.9235
 20
0.0000000000000177
 30
0.0
 11
19.9235
 21
2.000000000000019
 31
0.0
  0
LINE
  5
25
330
1E
100
AcDbEntity
  8
0
100
AcDbLine
 10
17.5088
 20
0.0000000000000178
 30
0.0
 11
17.5088
 21
2.000000000000019
 31
0.0
  0
LINE
  5
26
330
1E
100
AcDbEntity
  8
0
100
AcDbLine
 10
17.5088
 20
0.0000000000000178
 30
0.0
 11
19.9235
 21
0.0000000000000177
 31
0.0
  0
LINE
  5
27
330
1E
100
AcDbEntity
  8
0
100
AcDbLine
 10
15.0
 20
0.000000000000018
 30
0.0
 11
15.0
 21
2.000000000000019
 31
0.0
  0
LINE
  5
28
330
1E
100
AcDbEntity
  8
0
100
AcDbLine
 10
12.5
 20
0.0000000000000181
 30
0.0
 11
12.5
 21
2.000000000000019
 31
0.0
  0
LINE
  5
29
330
1E
100
AcDbEntity
  8
0
100
AcDbLine
 10
12.5
 20
0.0000000000000181
 30
0.0
 11
15.0
 21
0.000000000000018
 31
0.0
  0
LINE
  5
2A
330
1E
100
AcDbEntity
  8
0
100
AcDbLine
 10
16.8616
 20
0.0000000000000178
 30
0.0
 11
16.8616
 21
2.000000000000019
 31
0.0
  0
LINE
  5
2B
330
1E
100
AcDbEntity
  8
0
100
AcDbLine
 10
16.8616
 20
0.0000000000000178
 30
0.0
 11
19.27649999999999
 21
0.0000000000000177
 31
0.0
  0
LINE
  5
2C
330
1E
100
AcDbEntity
  8
0
100
AcDbLine
 10
16.8616
 20
0.0000000000000178
 30
0.0
 11
17.5088
 21
0.0000000000000178
 31
0.0
  0
LINE
  5
2D
330
1E
100
AcDbEntity
  8
0
100
AcDbLine
 10
56.1457
 20
0.0000000000000154
 30
0.0
 11
56.1457
 21
2.000000000000019
 31
0.0
  0
LINE
  5
2E
330
1E
100
AcDbEntity
  8
0
100
AcDbLine
 10
55.4987
 20
0.0000000000000155
 30
0.0
 11
56.1457
 21
0.0000000000000154
 31
0.0
  0
LINE
  5
2F
330
1E
100
AcDbEntity
  8
0
100
AcDbLine
 10
55.4245
 20
0.0000000000000155
 30
0.0
 11
55.4987
 21
0.0000000000000155
 31
0.0
  0
LINE
  5
30
330
1E
100
AcDbEntity
  8
0
100
AcDbLine
 10
55.4245
 20
0.0000000000000155
 30
0.0
 11
56.1457
 21
0.0000000000000154
 31
0.0
  0
LINE
  5
31
330
1E
100
AcDbEntity
  8
0
100
AcDbLine
 10
55.4245
 20
0.0000000000000155
 30
0.0
 11
55.4245
 21
2.000000000000019
 31
0.0
  0
LINE
  5
32
330
1E
100
AcDbEntity
  8
0
100
AcDbLine
 10
65.1471
 20
0.0000000000000149
 30
0.0
 11
65.1471
 21
2.00000000000001
 31
0.0
  0
LINE
  5
33
330
1E
100
AcDbEntity
  8
0
100
AcDbLine
 10
65.1471
 20
0.0000000000000149
 30
0.0
 11
66.91500000000001
 21
0.0000000000000148
 31
0.0
  0
LINE
  5
34
330
1E
100
AcDbEntity
  8
0
100
AcDbLine
 10
64.9375
 20
0.0000000000000149
 30
0.0
 11
66.1875
 21
0.0000000000000148
 31
0.0
  0
LINE
  5
35
330
1E
100
AcDbEntity
  8
0
100
AcDbLine
 10
64.02249999999999
 20
0.000000000000015
 30
0.0
 11
65.1471
 21
0.0000000000000149
 31
0.0
  0
LINE
  5
36
330
1E
100
AcDbEntity
  8
0
100
AcDbLine
 10
64.02249999999999
 20
0.000000000000015
 30
0.0
 11
64.02249999999999
 21
2.000000000000019
 31
0.0
  0
LINE
  5
37
330
1E
100
AcDbEntity
  8
0
100
AcDbLine
 10
64.02249999999999
 20
0.000000000000015
 30
0.0
 11
64.9375
 21
0.0000000000000149
 31
0.0
  0
LINE
  5
38
330
1E
100
AcDbEntity
  8
0
100
AcDbLine
 10
62.7725
 20
0.000000000000015
 30
0.0
 11
62.7725
 21
2.000000000000019
 31
0.0
  0
LINE
  5
39
330
1E
100
AcDbEntity
  8
0
100
AcDbLine
 10
62.7725
 20
0.000000000000015
 30
0.0
 11
64.02249999999999
 21
0.000000000000015
 31
0.0
  0
LINE
  5
3A
330
1E
100
AcDbEntity
  8
0
100
AcDbLine
 10
33.71159999999999
 20
0.0000000000000168
 30
0.0
 11
33.71159999999999
 21
2.000000000000019
 31
0.0
  0
LINE
  5
3B
330
1E
100
AcDbEntity
  8
0
100
AcDbLine
 10
32.46159999999999
 20
0.0000000000000169
 30
0.0
 11
33.71159999999999
 21
0.0000000000000168
 31
0.0
  0
LINE
  5
3C
330
1E
100
AcDbEntity
  8
0
100
AcDbLine
 10
33.75
 20
0.0000000000000168
 30
0.0
 11
33.75
 21
2.000000000000019
 31
0.0
  0
LINE
  5
3D
330
1E
100
AcDbEntity
  8
0
100
AcDbLine
 10
38.03459999999999
 20
0.0000000000000165
 30
0.0
 11
38.03459999999999
 21
2.000000000000019
 31
0.0
  0
LINE
  5
3E
330
1E
100
AcDbEntity
  8
0
100
AcDbLine
 10
49.9495
 20
0.0000000000000158
 30
0.0
 11
49.9495
 21
2.000000000000019
 31
0.0
  0
LINE
  5
3F
330
1E
100
AcDbEntity
  8
0
100
AcDbLine
 10
51.8889
 20
0.0000000000000157
 30
0.0
 11
51.8889
 21
2.000000000000019
 31
0.0
  0
LINE
  5
40
330
1E
100
AcDbEntity
  8
0
100
AcDbLine
 10
51.8889
 20
0.0000000000000157
 30
0.0
 11
53.6567
 21
0.0000000000000156
 31
0.0
  0
LINE
  5
41
330
1E
100
AcDbEntity
  8
0
100
AcDbLine
 10
50.0
 20
0.0000000000000158
 30
0.0
 11
50.0
 21
2.000000000000019
 31
0.0
  0
LINE
  5
42
330
1E
100
AcDbEntity
  8
0
100
AcDbLine
 10
50.0
 20
0.0000000000000158
 30
0.0
 11
51.8889
 21
0.0000000000000157
 31
0.0
  0
LINE
  5
43
330
1E
100
AcDbEntity
  8
0
100
AcDbLine
 10
47.7845
 20
0.0000000000000159
 30
0.0
 11
47.7845
 21
2.000000000000019
 31
0.0
  0
LINE
  5
44
330
1E
100
AcDbEntity
  8
0
100
AcDbLine
 10
47.7845
 20
0.0000000000000159
 30
0.0
 11
49.9495
 21
0.0000000000000158
 31
0.0
  0
LINE
  5
45
330
1E
100
AcDbEntity
  8
0
100
AcDbLine
 10
48.6995
 20
0.0000000000000159
 30
0.0
 11
49.9495
 21
0.0000000000000158
 31
0.0
  0
LINE
  5
46
330
1E
100
AcDbEntity
  8
0
100
AcDbLine
 10
46.5345
 20
0.000000000000016
 30
0.0
 11
46.5345
 21
2.000000000000019
 31
0.0
  0
LINE
  5
47
330
1E
100
AcDbEntity
  8
0
100
AcDbLine
 10
46.5345
 20
0.000000000000016
 30
0.0
 11
48.6995
 21
0.0000000000000159
 31
0.0
  0
LINE
  5
48
330
1E
100
AcDbEntity
  8
0
100
AcDbLine
 10
46.5345
 20
0.000000000000016
 30
0.0
 11
47.7845
 21
0.0000000000000159
 31
0.0
  0
LINE
  5
49
330
1E
100
AcDbEntity
  8
0
100
AcDbLine
 10
35.6199
 20
0.0000000000000167
 30
0.0
 11
35.6199
 21
2.000000000000019
 31
0.0
  0
LINE
  5
4A
330
1E
100
AcDbEntity
  8
0
100
AcDbLine
 10
35.6199
 20
0.0000000000000167
 30
0.0
 11
38.03459999999999
 21
0.0000000000000165
 31
0.0
  0
LINE
  5
4B
330
1E
100
AcDbEntity
  8
0
100
AcDbLine
 10
37.3876
 20
0.0000000000000166
 30
0.0
 11
38.03459999999999
 21
0.0000000000000165
 31
0.0
  0
LINE
  5
4C
330
1E
100
AcDbEntity
  8
0
100
AcDbLine
 10
34.97279999999999
 20
0.0000000000000167
 30
0.0
 11
34.97279999999999
 21
2.000000000000019
 31
0.0
  0
LINE
  5
4D
330
1E
100
AcDbEntity
  8
0
100
AcDbLine
 10
34.97279999999999
 20
0.0000000000000167
 30
0.0
 11
37.3876
 21
0.0000000000000166
 31
0.0
  0
LINE
  5
4E
330
1E
100
AcDbEntity
  8
0
100
AcDbLine
 10
34.97279999999999
 20
0.0000000000000167
 30
0.0
 11
35.6199
 21
0.0000000000000167
 31
0.0
  0
LINE
  5
4F
330
1E
100
AcDbEntity
  8
0
100
AcDbLine
 10
53.6567
 20
0.0000000000000156
 30
0.0
 11
55.4245
 21
0.0000000000000155
 31
0.0
  0
LINE
  5
50
330
1E
100
AcDbEntity
  8
0
100
AcDbLine
 10
53.6567
 20
0.0000000000000156
 30
0.0
 11
55.4987
 21
0.0000000000000155
 31
0.0
  0
LINE
  5
51
330
1E
100
AcDbEntity
  8
0
100
AcDbLine
 10
53.6567
 20
0.0000000000000156
 30
0.0
 11
53.6567
 21
2.000000000000019
 31
0.0
  0
LINE
  5
52
330
1E
100
AcDbEntity
  8
0
100
AcDbLine
 10
80.1675
 20
0.000000000000014
 30
0.0
 11
80.1675
 21
2.00000000000001
 31
0.0
  0
LINE
  5
53
330
1E
100
AcDbEntity
  8
0
100
AcDbLine
 10
80.1675
 20
0.000000000000014
 30
0.0
 11
82.33249999999999
 21
0.0000000000000138
 31
0.0
  0
LINE
  5
54
330
1E
100
AcDbEntity
  8
0
100
AcDbLine
 10
80.1675
 20
0.000000000000014
 30
0.0
 11
81.4175
 21
0.0000000000000139
 31
0.0
  0
LINE
  5
55
330
1E
100
AcDbEntity
  8
0
100
AcDbLine
 10
80.17319999999999
 20
0.000000000000014
 30
0.0
 11
81.17549999999999
 21
0.0000000000000139
 31
0.0
  0
LINE
  5
56
330
1E
100
AcDbEntity
  8
0
100
AcDbLine
 10
80.26049999999999
 20
0.000000000000014
 30
0.0
 11
81.17549999999999
 21
0.0000000000000139
 31
0.0
  0
LINE
  5
57
330
1E
100
AcDbEntity
  8
0
100
AcDbLine
 10
80.26049999999999
 20
0.000000000000014
 30
0.0
 11
82.42549999999999
 21
0.0000000000000138
 31
0.0
  0
LINE
  5
58
330
1E
100
AcDbEntity
  8
0
100
AcDbLine
 10
81.17549999999999
 20
0.0000000000000139
 30
0.0
 11
82.42549999999999
 21
0.0000000000000138
 31
0.0
  0
LINE
  5
59
330
1E
100
AcDbEntity
  8
0
100
AcDbLine
 10
71.19499999999999
 20
0.0000000000000145
 30
0.0
 11
71.842
 21
0.0000000000000145
 31
0.0
  0
LINE
  5
5A
330
1E
100
AcDbEntity
  8
0
100
AcDbLine
 10
71.19499999999999
 20
0.0000000000000145
 30
0.0
 11
71.19499999999999
 21
2.00000000000001
 31
0.0
  0
LINE
  5
5B
330
1E
100
AcDbEntity
  8
0
100
AcDbLine
 10
71.19499999999999
 20
0.0000000000000145
 30
0.0
 11
73.6099
 21
0.0000000000000144
 31
0.0
  0
LINE
  5
5C
330
1E
100
AcDbEntity
  8
0
100
AcDbLine
 10
68.68269999999999
 20
0.0000000000000147
 30
0.0
 11
68.68269999999999
 21
2.00000000000001
 31
0.0
  0
LINE
  5
5D
330
1E
100
AcDbEntity
  8
0
100
AcDbLine
 10
68.75
 20
0.0000000000000147
 30
0.0
 11
68.75
 21
2.00000000000001
 31
0.0
  0
LINE
  5
5E
330
1E
100
AcDbEntity
  8
0
100
AcDbLine
 10
68.75
 20
0.0000000000000147
 30
0.0
 11
71.25
 21
0.0000000000000145
 31
0.0
  0
LINE
  5
5F
330
1E
100
AcDbEntity
  8
0
100
AcDbLine
 10
74.2569
 20
0.0000000000000143
 30
0.0
 11
74.2569
 21
2.00000000000001
 31
0.0
  0
LINE
  5
60
330
1E
100
AcDbEntity
  8
0
100
AcDbLine
 10
73.6099
 20
0.0000000000000144
 30
0.0
 11
74.2569
 21
0.0000000000000143
 31
0.0
  0
LINE
  5
61
330
1E
100
AcDbEntity
  8
0
100
AcDbLine
 10
71.842
 20
0.0000000000000145
 30
0.0
 11
74.2569
 21
0.0000000000000143
 31
0.0
  0
LINE
  5
62
330
1E
100
AcDbEntity
  8
0
100
AcDbLine
 10
71.842
 20
0.0000000000000145
 30
0.0
 11
71.842
 21
2.00000000000001
 31
0.0
  0
LINE
  5
63
330
1E
100
AcDbEntity
  8
0
100
AcDbLine
 10
71.25
 20
0.0000000000000145
 30
0.0
 11
73.6099
 21
0.0000000000000144
 31
0.0
  0
LINE
  5
64
330
1E
100
AcDbEntity
  8
0
100
AcDbLine
 10
78.4054
 20
0.0000000000000141
 30
0.0
 11
78.4054
 21
2.00000000000001
 31
0.0
  0
LINE
  5
65
330
1E
100
AcDbEntity
  8
0
100
AcDbLine
 10
78.4054
 20
0.0000000000000141
 30
0.0
 11
80.17319999999999
 21
0.000000000000014
 31
0.0
  0
LINE
  5
66
330
1E
100
AcDbEntity
  8
0
100
AcDbLine
 10
66.91500000000001
 20
0.0000000000000148
 30
0.0
 11
68.68269999999999
 21
0.0000000000000147
 31
0.0
  0
LINE
  5
67
330
1E
100
AcDbEntity
  8
0
100
AcDbLine
 10
66.91500000000001
 20
0.0000000000000148
 30
0.0
 11
66.91500000000001
 21
2.00000000000001
 31
0.0
  0
LINE
  5
68
330
1E
100
AcDbEntity
  8
0
100
AcDbLine
 10
31.25
 20
0.000000000000017
 30
0.0
 11
33.75
 21
0.0000000000000168
 31
0.0
  0
LINE
  5
69
330
1E
100
AcDbEntity
  8
0
100
AcDbLine
 10
31.5465
 20
0.0000000000000169
 30
0.0
 11
33.71159999999999
 21
0.0000000000000168
 31
0.0
  0
LINE
  5
6A
330
1E
100
AcDbEntity
  8
0
100
AcDbLine
 10
31.5465
 20
0.0000000000000169
 30
0.0
 11
31.5465
 21
2.000000000000019
 31
0.0
  0
LINE
  5
6B
330
1E
100
AcDbEntity
  8
0
100
AcDbLine
 10
30.2965
 20
0.000000000000017
 30
0.0
 11
30.2965
 21
2.000000000000019
 31
0.0
  0
LINE
  5
6C
330
1E
100
AcDbEntity
  8
0
100
AcDbLine
 10
30.2965
 20
0.000000000000017
 30
0.0
 11
31.5465
 21
0.0000000000000169
 31
0.0
  0
LINE
  5
6D
330
1E
100
AcDbEntity
  8
0
100
AcDbLine
 10
81.4175
 20
0.0000000000000139
 30
0.0
 11
83.58249999999999
 21
0.0000000000000138
 31
0.0
  0
LINE
  5
6E
330
1E
100
AcDbEntity
  8
0
100
AcDbLine
 10
91.70749999999999
 20
0.0000000000000133
 30
0.0
 11
92.368
 21
0.0000000000000132
 31
0.0
  0
LINE
  5
6F
330
1E
100
AcDbEntity
  8
0
100
AcDbLine
 10
91.70749999999999
 20
0.0000000000000133
 30
0.0
 11
92.95749999999999
 21
0.0000000000000132
 31
0.0
  0
LINE
  5
70
330
1E
100
AcDbEntity
  8
0
100
AcDbLine
 10
91.70749999999999
 20
0.0000000000000133
 30
0.0
 11
91.70749999999999
 21
2.00000000000001
 31
0.0
  0
LINE
  5
71
330
1E
100
AcDbEntity
  8
0
100
AcDbLine
 10
91.6637
 20
0.0000000000000133
 30
0.0
 11
93.43149999999999
 21
0.0000000000000132
 31
0.0
  0
LINE
  5
72
330
1E
100
AcDbEntity
  8
0
100
AcDbLine
 10
102.332
 20
0.0000000000000126
 30
0.0
 11
102.332
 21
2.00000000000001
 31
0.0
  0
LINE
  5
73
330
1E
100
AcDbEntity
  8
0
100
AcDbLine
 10
101.082
 20
0.0000000000000127
 30
0.0
 11
102.332
 21
0.0000000000000126
 31
0.0
  0
LINE
  5
74
330
1E
100
AcDbEntity
  8
0
100
AcDbLine
 10
101.082
 20
0.0000000000000127
 30
0.0
 11
101.082
 21
2.00000000000001
 31
0.0
  0
LINE
  5
75
330
1E
100
AcDbEntity
  8
0
100
AcDbLine
 10
95.1992
 20
0.000000000000013
 30
0.0
 11
95.1992
 21
2.00000000000001
 31
0.0
  0
LINE
  5
76
330
1E
100
AcDbEntity
  8
0
100
AcDbLine
 10
92.95749999999999
 20
0.0000000000000132
 30
0.0
 11
92.95749999999999
 21
2.00000000000001
 31
0.0
  0
LINE
  5
77
330
1E
100
AcDbEntity
  8
0
100
AcDbLine
 10
93.43149999999999
 20
0.0000000000000132
 30
0.0
 11
95.1992
 21
0.000000000000013
 31
0.0
  0
LINE
  5
78
330
1E
100
AcDbEntity
  8
0
100
AcDbLine
 10
93.43149999999999
 20
0.0000000000000132
 30
0.0
 11
93.43149999999999
 21
2.00000000000001
 31
0.0
  0
LINE
  5
79
330
1E
100
AcDbEntity
  8
0
100
AcDbLine
 10
98.6635
 20
0.0000000000000128
 30
0.0
 11
98.6635
 21
2.00000000000001
 31
0.0
  0
LINE
  5
7A
330
1E
100
AcDbEntity
  8
0
100
AcDbLine
 10
96.49840000000001
 20
0.000000000000013
 30
0.0
 11
96.49840000000001
 21
2.00000000000001
 31
0.0
  0
LINE
  5
7B
330
1E
100
AcDbEntity
  8
0
100
AcDbLine
 10
96.49840000000001
 20
0.000000000000013
 30
0.0
 11
98.6635
 21
0.0000000000000128
 31
0.0
  0
LINE
  5
7C
330
1E
100
AcDbEntity
  8
0
100
AcDbLine
 10
97.4135
 20
0.0000000000000129
 30
0.0
 11
98.6635
 21
0.0000000000000128
 31
0.0
  0
LINE
  5
7D
330
1E
100
AcDbEntity
  8
0
100
AcDbLine
 10
95.24840000000001
 20
0.000000000000013
 30
0.0
 11
95.24840000000001
 21
2.00000000000001
 31
0.0
  0
LINE
  5
7E
330
1E
100
AcDbEntity
  8
0
100
AcDbLine
 10
95.24840000000001
 20
0.000000000000013
 30
0.0
 11
96.49840000000001
 21
0.000000000000013
 31
0.0
  0
LINE
  5
7F
330
1E
100
AcDbEntity
  8
0
100
AcDbLine
 10
98.91750000000001
 20
0.0000000000000128
 30
0.0
 11
100.1679999999999
 21
0.0000000000000127
 31
0.0
  0
LINE
  5
80
330
1E
100
AcDbEntity
  8
0
100
AcDbLine
 10
98.91750000000001
 20
0.0000000000000128
 30
0.0
 11
98.91750000000001
 21
2.00000000000001
 31
0.0
  0
LINE
  5
81
330
1E
100
AcDbEntity
  8
0
100
AcDbLine
 10
98.91750000000001
 20
0.0000000000000128
 30
0.0
 11
101.082
 21
0.0000000000000127
 31
0.0
  0
LINE
  5
82
330
1E
100
AcDbEntity
  8
0
100
AcDbLine
 10
91.7209
 20
0.0000000000000133
 30
0.0
 11
92.95749999999999
 21
0.0000000000000132
 31
0.0
  0
LINE
  5
83
330
1E
100
AcDbEntity
  8
0
100
AcDbLine
 10
91.7209
 20
0.0000000000000133
 30
0.0
 11
92.368
 21
0.0000000000000132
 31
0.0
  0
LINE
  5
84
330
1E
100
AcDbEntity
  8
0
100
AcDbLine
 10
83.58249999999999
 20
0.0000000000000138
 30
0.0
 11
83.58249999999999
 21
2.00000000000001
 31
0.0
  0
LINE
  5
85
330
1E
100
AcDbEntity
  8
0
100
AcDbLine
 10
87.5
 20
0.0000000000000135
 30
0.0
 11
87.5
 21
2.00000000000001
 31
0.0
  0
LINE
  5
86
330
1E
100
AcDbEntity
  8
0
100
AcDbLine
 10
87.5
 20
0.0000000000000135
 30
0.0
 11
89.5425
 21
0.0000000000000134
 31
0.0
  0
LINE
  5
87
330
1E
100
AcDbEntity
  8
0
100
AcDbLine
 10
95.1992
 20
2.00000000000001
 30
0.0
 11
95.1992
 21
0.000000000000013
 31
0.0
  0
LINE
  5
88
330
1E
100
AcDbEntity
  8
0
100
AcDbLine
 10
96.49840000000001
 20
2.00000000000001
 30
0.0
 11
98.6635
 21
2.00000000000001
 31
0.0
  0
LINE
  5
89
330
1E
100
AcDbEntity
  8
0
100
AcDbLine
 10
96.49840000000001
 20
2.00000000000001
 30
0.0
 11
96.49840000000001
 21
0.000000000000013
 31
0.0
  0
LINE
  5
8A
330
1E
100
AcDbEntity
  8
0
100
AcDbLine
 10
89.30609999999999
 20
0.0000000000000134
 30
0.0
 11
91.7209
 21
0.0000000000000133
 31
0.0
  0
LINE
  5
8B
330
1E
100
AcDbEntity
  8
0
100
AcDbLine
 10
89.30609999999999
 20
0.0000000000000134
 30
0.0
 11
89.5425
 21
0.0000000000000134
 31
0.0
  0
LINE
  5
8C
330
1E
100
AcDbEntity
  8
0
100
AcDbLine
 10
89.30609999999999
 20
0.0000000000000134
 30
0.0
 11
89.30609999999999
 21
2.00000000000001
 31
0.0
  0
LINE
  5
8D
330
1E
100
AcDbEntity
  8
0
100
AcDbLine
 10
95.24840000000001
 20
2.00000000000001
 30
0.0
 11
95.24840000000001
 21
0.000000000000013
 31
0.0
  0
LINE
  5
8E
330
1E
100
AcDbEntity
  8
0
100
AcDbLine
 10
95.24840000000001
 20
2.00000000000001
 30
0.0
 11
96.49840000000001
 21
2.00000000000001
 31
0.0
  0
LINE
  5
8F
330
1E
100
AcDbEntity
  8
0
100
AcDbLine
 10
101.082
 20
2.00000000000001
 30
0.0
 11
102.332
 21
2.00000000000001
 31
0.0
  0
LINE
  5
90
330
1E
100
AcDbEntity
  8
0
100
AcDbLine
 10
101.082
 20
2.00000000000001
 30
0.0
 11
101.082
 21
0.0000000000000127
 31
0.0
  0
LINE
  5
91
330
1E
100
AcDbEntity
  8
0
100
AcDbLine
 10
98.91750000000001
 20
2.00000000000001
 30
0.0
 11
98.91750000000001
 21
0.0000000000000127
 31
0.0
  0
LINE
  5
92
330
1E
100
AcDbEntity
  8
0
100
AcDbLine
 10
98.91750000000001
 20
2.00000000000001
 30
0.0
 11
101.082
 21
2.00000000000001
 31
0.0
  0
LINE
  5
93
330
1E
100
AcDbEntity
  8
0
100
AcDbLine
 10
89.5425
 20
0.0000000000000134
 30
0.0
 11
91.6637
 21
0.0000000000000133
 31
0.0
  0
LINE
  5
94
330
1E
100
AcDbEntity
  8
0
100
AcDbLine
 10
89.5425
 20
0.0000000000000134
 30
0.0
 11
89.5425
 21
2.00000000000001
 31
0.0
  0
LINE
  5
95
330
1E
100
AcDbEntity
  8
0
100
AcDbLine
 10
89.5425
 20
0.0000000000000134
 30
0.0
 11
91.70749999999999
 21
0.0000000000000133
 31
0.0
  0
LINE
  5
96
330
1E
100
AcDbEntity
  8
0
100
AcDbLine
 10
82.42549999999999
 20
0.0000000000000138
 30
0.0
 11
83.58249999999999
 21
0.0000000000000138
 31
0.0
  0
LINE
  5
97
330
1E
100
AcDbEntity
  8
0
100
AcDbLine
 10
89.5425
 20
2.00000000000001
 30
0.0
 11
91.70749999999999
 21
2.00000000000001
 31
0.0
  0
LINE
  5
98
330
1E
100
AcDbEntity
  8
0
100
AcDbLine
 10
89.5425
 20
2.00000000000001
 30
0.0
 11
89.5425
 21
0.0000000000000133
 31
0.0
  0
LINE
  5
99
330
1E
100
AcDbEntity
  8
0
100
AcDbLine
 10
91.70749999999999
 20
2.00000000000001
 30
0.0
 11
92.95749999999999
 21
2.00000000000001
 31
0.0
  0
LINE
  5
9A
330
1E
100
AcDbEntity
  8
0
100
AcDbLine
 10
91.70749999999999
 20
2.00000000000001
 30
0.0
 11
91.70749999999999
 21
0.0000000000000133
 31
0.0
  0
LINE
  5
9B
330
1E
100
AcDbEntity
  8
0
100
AcDbLine
 10
92.95749999999999
 20
2.00000000000001
 30
0.0
 11
92.95749999999999
 21
0.0000000000000133
 31
0.0
  0
LINE
  5
9C
330
1E
100
AcDbEntity
  8
0
100
AcDbLine
 10
92.95749999999999
 20
2.00000000000001
 30
0.0
 11
93.125
 21
2.00000000000001
 31
0.0
  0
LINE
  5
9D
330
1E
100
AcDbEntity
  8
0
100
AcDbLine
 10
89.30609999999999
 20
2.00000000000001
 30
0.0
 11
89.5425
 21
2.00000000000001
 31
0.0
  0
LINE
  5
9E
330
1E
100
AcDbEntity
  8
0
100
AcDbLine
 10
89.30609999999999
 20
2.00000000000001
 30
0.0
 11
89.30609999999999
 21
0.0000000000000133
 31
0.0
  0
LINE
  5
9F
330
1E
100
AcDbEntity
  8
0
100
AcDbLine
 10
93.125
 20
2.00000000000001
 30
0.0
 11
111.6249999999999
 21
2.00000000000001
 31
0.0
  0
LINE
  5
A0
330
1E
100
AcDbEntity
  8
0
100
AcDbLine
 10
98.6635
 20
2.00000000000001
 30
0.0
 11
100.1679999999999
 21
2.00000000000001
 31
0.0
  0
LINE
  5
A1
330
1E
100
AcDbEntity
  8
0
100
AcDbLine
 10
98.6635
 20
2.00000000000001
 30
0.0
 11
98.6635
 21
0.000000000000013
 31
0.0
  0
LINE
  5
A2
330
1E
100
AcDbEntity
  8
0
100
AcDbLine
 10
106.6899999999999
 20
0.0000000000000123
 30
0.0
 11
106.6899999999999
 21
2.00000000000001
 31
0.0
  0
LINE
  5
A3
330
1E
100
AcDbEntity
  8
0
100
AcDbLine
 10
106.6899999999999
 20
0.0000000000000123
 30
0.0
 11
108.457
 21
0.0000000000000122
 31
0.0
  0
LINE
  5
A4
330
1E
100
AcDbEntity
  8
0
100
AcDbLine
 10
107.417
 20
0.0000000000000123
 30
0.0
 11
108.064
 21
0.0000000000000123
 31
0.0
  0
LINE
  5
A5
330
1E
100
AcDbEntity
  8
0
100
AcDbLine
 10
104.922
 20
2.00000000000001
 30
0.0
 11
104.922
 21
0.0000000000000124
 31
0.0
  0
LINE
  5
A6
330
1E
100
AcDbEntity
  8
0
100
AcDbLine
 10
104.922
 20
2.00000000000001
 30
0.0
 11
106.6899999999999
 21
2.00000000000001
 31
0.0
  0
LINE
  5
A7
330
1E
100
AcDbEntity
  8
0
100
AcDbLine
 10
104.922
 20
0.0000000000000124
 30
0.0
 11
104.922
 21
2.00000000000001
 31
0.0
  0
LINE
  5
A8
330
1E
100
AcDbEntity
  8
0
100
AcDbLine
 10
104.922
 20
0.0000000000000124
 30
0.0
 11
106.6899999999999
 21
0.0000000000000123
 31
0.0
  0
LINE
  5
A9
330
1E
100
AcDbEntity
  8
0
100
AcDbLine
 10
111.707
 20
0.000000000000012
 30
0.0
 11
113.651
 21
0.0000000000000119
 31
0.0
  0
LINE
  5
AA
330
1E
100
AcDbEntity
  8
0
100
AcDbLine
 10
111.707
 20
0.000000000000012
 30
0.0
 11
112.736
 21
0.000000000000012
 31
0.0
  0
LINE
  5
AB
330
1E
100
AcDbEntity
  8
0
100
AcDbLine
 10
111.707
 20
0.000000000000012
 30
0.0
 11
111.707
 21
2.00000000000001
 31
0.0
  0
LINE
  5
AC
330
1E
100
AcDbEntity
  8
0
100
AcDbLine
 10
111.4859999999999
 20
0.000000000000012
 30
0.0
 11
112.736
 21
0.000000000000012
 31
0.0
  0
LINE
  5
AD
330
1E
100
AcDbEntity
  8
0
100
AcDbLine
 10
112.736
 20
0.000000000000012
 30
0.0
 11
112.736
 21
2.00000000000001
 31
0.0
  0
LINE
  5
AE
330
1E
100
AcDbEntity
  8
0
100
AcDbLine
 10
112.736
 20
0.000000000000012
 30
0.0
 11
113.205
 21
0.0000000000000119
 31
0.0
  0
LINE
  5
AF
330
1E
100
AcDbEntity
  8
0
100
AcDbLine
 10
109.5429999999999
 20
0.0000000000000122
 30
0.0
 11
111.707
 21
0.000000000000012
 31
0.0
  0
LINE
  5
B0
330
1E
100
AcDbEntity
  8
0
100
AcDbLine
 10
110.457
 20
0.0000000000000121
 30
0.0
 11
111.707
 21
0.000000000000012
 31
0.0
  0
LINE
  5
B1
330
1E
100
AcDbEntity
  8
0
100
AcDbLine
 10
110.457
 20
0.0000000000000121
 30
0.0
 11
110.457
 21
2.00000000000001
 31
0.0
  0
LINE
  5
B2
330
1E
100
AcDbEntity
  8
0
100
AcDbLine
 10
110.457
 20
2.00000000000001
 30
0.0
 11
111.6249999999999
 21
2.00000000000001
 31
0.0
  0
LINE
  5
B3
330
1E
100
AcDbEntity
  8
0
100
AcDbLine
 10
110.457
 20
2.00000000000001
 30
0.0
 11
110.457
 21
0.0000000000000121
 31
0.0
  0
LINE
  5
B4
330
1E
100
AcDbEntity
  8
0
100
AcDbLine
 10
108.457
 20
0.0000000000000122
 30
0.0
 11
110.4789999999999
 21
0.0000000000000121
 31
0.0
  0
LINE
  5
B5
330
1E
100
AcDbEntity
  8
0
100
AcDbLine
 10
111.707
 20
2.00000000000001
 30
0.0
 11
111.707
 21
0.0000000000000121
 31
0.0
  0
LINE
  5
B6
330
1E
100
AcDbEntity
  8
0
100
AcDbLine
 10
110.4789999999999
 20
0.0000000000000121
 30
0.0
 11
111.4859999999999
 21
0.000000000000012
 31
0.0
  0
LINE
  5
B7
330
1E
100
AcDbEntity
  8
0
100
AcDbLine
 10
110.4789999999999
 20
0.0000000000000121
 30
0.0
 11
111.707
 21
0.000000000000012
 31
0.0
  0
LINE
  5
B8
330
1E
100
AcDbEntity
  8
0
100
AcDbLine
 10
108.2929999999999
 20
0.0000000000000122
 30
0.0
 11
109.5429999999999
 21
0.0000000000000122
 31
0.0
  0
LINE
  5
B9
330
1E
100
AcDbEntity
  8
0
100
AcDbLine
 10
108.2929999999999
 20
0.0000000000000122
 30
0.0
 11
109.832
 21
0.0000000000000121
 31
0.0
  0
LINE
  5
BA
330
1E
100
AcDbEntity
  8
0
100
AcDbLine
 10
108.2929999999999
 20
0.0000000000000122
 30
0.0
 11
108.2929999999999
 21
2.00000000000001
 31
0.0
  0
LINE
  5
BB
330
1E
100
AcDbEntity
  8
0
100
AcDbLine
 10
108.2929999999999
 20
0.0000000000000122
 30
0.0
 11
110.457
 21
0.0000000000000121
 31
0.0
  0
LINE
  5
BC
330
1E
100
AcDbEntity
  8
0
100
AcDbLine
 10
108.2929999999999
 20
2.00000000000001
 30
0.0
 11
108.2929999999999
 21
0.0000000000000124
 31
0.0
  0
LINE
  5
BD
330
1E
100
AcDbEntity
  8
0
100
AcDbLine
 10
111.6249999999999
 20
2.00000000000001
 30
0.0
 11
130.4999999999999
 21
2.00000000000001
 31
0.0
  0
LINE
  5
BE
330
1E
100
AcDbEntity
  8
0
100
AcDbLine
 10
108.064
 20
2.00000000000001
 30
0.0
 11
108.2929999999999
 21
2.00000000000001
 31
0.0
  0
LINE
  5
BF
330
1E
100
AcDbEntity
  8
0
100
AcDbLine
 10
106.6899999999999
 20
2.00000000000001
 30
0.0
 11
107.417
 21
2.00000000000001
 31
0.0
  0
LINE
  5
C0
330
1E
100
AcDbEntity
  8
0
100
AcDbLine
 10
106.6899999999999
 20
2.00000000000001
 30
0.0
 11
106.6899999999999
 21
0.0000000000000124
 31
0.0
  0
LINE
  5
C1
330
1E
100
AcDbEntity
  8
0
100
AcDbLine
 10
102.332
 20
2.00000000000001
 30
0.0
 11
104.922
 21
2.00000000000001
 31
0.0
  0
LINE
  5
C2
330
1E
100
AcDbEntity
  8
0
100
AcDbLine
 10
102.332
 20
2.00000000000001
 30
0.0
 11
102.332
 21
0.0000000000000127
 31
0.0
  0
LINE
  5
C3
330
1E
100
AcDbEntity
  8
0
100
AcDbLine
 10
65.1471
 20
2.00000000000001
 30
0.0
 11
66.91500000000001
 21
2.00000000000001
 31
0.0
  0
LINE
  5
C4
330
1E
100
AcDbEntity
  8
0
100
AcDbLine
 10
65.1471
 20
2.00000000000001
 30
0.0
 11
65.1471
 21
0.0000000000000147
 31
0.0
  0
LINE
  5
C5
330
1E
100
AcDbEntity
  8
0
100
AcDbLine
 10
66.91500000000001
 20
2.00000000000001
 30
0.0
 11
68.68269999999999
 21
2.00000000000001
 31
0.0
  0
LINE
  5
C6
330
1E
100
AcDbEntity
  8
0
100
AcDbLine
 10
66.91500000000001
 20
2.00000000000001
 30
0.0
 11
66.91500000000001
 21
0.0000000000000147
 31
0.0
  0
LINE
  5
C7
330
1E
100
AcDbEntity
  8
0
100
AcDbLine
 10
64.02249999999999
 20
2.000000000000019
 30
0.0
 11
65.1471
 21
2.00000000000001
 31
0.0
  0
LINE
  5
C8
330
1E
100
AcDbEntity
  8
0
100
AcDbLine
 10
64.02249999999999
 20
2.000000000000019
 30
0.0
 11
64.02249999999999
 21
0.000000000000015
 31
0.0
  0
LINE
  5
C9
330
1E
100
AcDbEntity
  8
0
100
AcDbLine
 10
62.7725
 20
2.000000000000019
 30
0.0
 11
62.7725
 21
0.000000000000015
 31
0.0
  0
LINE
  5
CA
330
1E
100
AcDbEntity
  8
0
100
AcDbLine
 10
62.7725
 20
2.000000000000019
 30
0.0
 11
64.02249999999999
 21
2.000000000000019
 31
0.0
  0
LINE
  5
CB
330
1E
100
AcDbEntity
  8
0
100
AcDbLine
 10
55.4245
 20
2.000000000000019
 30
0.0
 11
55.4245
 21
0.0000000000000153
 31
0.0
  0
LINE
  5
CC
330
1E
100
AcDbEntity
  8
0
100
AcDbLine
 10
56.1457
 20
2.000000000000019
 30
0.0
 11
56.1457
 21
0.0000000000000153
 31
0.0
  0
LINE
  5
CD
330
1E
100
AcDbEntity
  8
0
100
AcDbLine
 10
64.9375
 20
2.000000000000019
 30
0.0
 11
65.1471
 21
2.000000000000019
 31
0.0
  0
LINE
  5
CE
330
1E
100
AcDbEntity
  8
0
100
AcDbLine
 10
71.19499999999999
 20
2.00000000000001
 30
0.0
 11
71.842
 21
2.00000000000001
 31
0.0
  0
LINE
  5
CF
330
1E
100
AcDbEntity
  8
0
100
AcDbLine
 10
71.19499999999999
 20
2.00000000000001
 30
0.0
 11
71.19499999999999
 21
0.0000000000000145
 31
0.0
  0
LINE
  5
D0
330
1E
100
AcDbEntity
  8
0
100
AcDbLine
 10
71.842
 20
2.00000000000001
 30
0.0
 11
71.842
 21
0.0000000000000145
 31
0.0
  0
LINE
  5
D1
330
1E
100
AcDbEntity
  8
0
100
AcDbLine
 10
74.2569
 20
2.00000000000001
 30
0.0
 11
74.2569
 21
0.0000000000000145
 31
0.0
  0
LINE
  5
D2
330
1E
100
AcDbEntity
  8
0
100
AcDbLine
 10
68.75
 20
2.00000000000001
 30
0.0
 11
68.75
 21
0.0000000000000147
 31
0.0
  0
LINE
  5
D3
330
1E
100
AcDbEntity
  8
0
100
AcDbLine
 10
74.2569
 20
2.00000000000001
 30
0.0
 11
76.0
 21
2.00000000000001
 31
0.0
  0
LINE
  5
D4
330
1E
100
AcDbEntity
  8
0
100
AcDbLine
 10
68.68269999999999
 20
2.00000000000001
 30
0.0
 11
68.75
 21
2.00000000000001
 31
0.0
  0
LINE
  5
D5
330
1E
100
AcDbEntity
  8
0
100
AcDbLine
 10
68.68269999999999
 20
2.00000000000001
 30
0.0
 11
68.68269999999999
 21
0.0000000000000147
 31
0.0
  0
LINE
  5
D6
330
1E
100
AcDbEntity
  8
0
100
AcDbLine
 10
12.5
 20
2.000000000000019
 30
0.0
 11
12.875
 21
2.000000000000019
 31
0.0
  0
LINE
  5
D7
330
1E
100
AcDbEntity
  8
0
100
AcDbLine
 10
12.5
 20
2.000000000000019
 30
0.0
 11
12.5
 21
0.000000000000018
 31
0.0
  0
LINE
  5
D8
330
1E
100
AcDbEntity
  8
0
100
AcDbLine
 10
17.5088
 20
2.000000000000019
 30
0.0
 11
19.9235
 21
2.000000000000019
 31
0.0
  0
LINE
  5
D9
330
1E
100
AcDbEntity
  8
0
100
AcDbLine
 10
17.5088
 20
2.000000000000019
 30
0.0
 11
17.5088
 21
0.0000000000000177
 31
0.0
  0
LINE
  5
DA
330
1E
100
AcDbEntity
  8
0
100
AcDbLine
 10
16.8616
 20
2.000000000000019
 30
0.0
 11
16.8616
 21
0.0000000000000177
 31
0.0
  0
LINE
  5
DB
330
1E
100
AcDbEntity
  8
0
100
AcDbLine
 10
16.8616
 20
2.000000000000019
 30
0.0
 11
17.5088
 21
2.000000000000019
 31
0.0
  0
LINE
  5
DC
330
1E
100
AcDbEntity
  8
0
100
AcDbLine
 10
12.875
 20
2.000000000000019
 30
0.0
 11
21.125
 21
2.000000000000019
 31
0.0
  0
LINE
  5
DD
330
1E
100
AcDbEntity
  8
0
100
AcDbLine
 10
33.71159999999999
 20
2.000000000000019
 30
0.0
 11
33.71159999999999
 21
0.0000000000000168
 31
0.0
  0
LINE
  5
DE
330
1E
100
AcDbEntity
  8
0
100
AcDbLine
 10
31.5465
 20
2.000000000000019
 30
0.0
 11
32.25
 21
2.000000000000019
 31
0.0
  0
LINE
  5
DF
330
1E
100
AcDbEntity
  8
0
100
AcDbLine
 10
31.5465
 20
2.000000000000019
 30
0.0
 11
31.5465
 21
0.0000000000000168
 31
0.0
  0
LINE
  5
E0
330
1E
100
AcDbEntity
  8
0
100
AcDbLine
 10
30.2965
 20
2.000000000000019
 30
0.0
 11
30.2965
 21
0.0000000000000171
 31
0.0
  0
LINE
  5
E1
330
1E
100
AcDbEntity
  8
0
100
AcDbLine
 10
32.25
 20
2.000000000000019
 30
0.0
 11
45.0
 21
2.000000000000019
 31
0.0
  0
LINE
  5
E2
330
1E
100
AcDbEntity
  8
0
100
AcDbLine
 10
35.6199
 20
2.000000000000019
 30
0.0
 11
38.03459999999999
 21
2.000000000000019
 31
0.0
  0
LINE
  5
E3
330
1E
100
AcDbEntity
  8
0
100
AcDbLine
 10
35.6199
 20
2.000000000000019
 30
0.0
 11
35.6199
 21
0.0000000000000168
 31
0.0
  0
LINE
  5
E4
330
1E
100
AcDbEntity
  8
0
100
AcDbLine
 10
34.97279999999999
 20
2.000000000000019
 30
0.0
 11
34.97279999999999
 21
0.0000000000000168
 31
0.0
  0
LINE
  5
E5
330
1E
100
AcDbEntity
  8
0
100
AcDbLine
 10
38.03459999999999
 20
2.000000000000019
 30
0.0
 11
45.0
 21
2.000000000000019
 31
0.0
  0
LINE
  5
E6
330
1E
100
AcDbEntity
  8
0
100
AcDbLine
 10
38.03459999999999
 20
2.000000000000019
 30
0.0
 11
38.03459999999999
 21
0.0000000000000165
 31
0.0
  0
LINE
  5
E7
330
1E
100
AcDbEntity
  8
0
100
AcDbLine
 10
33.75
 20
2.000000000000019
 30
0.0
 11
34.97279999999999
 21
2.000000000000019
 31
0.0
  0
LINE
  5
E8
330
1E
100
AcDbEntity
  8
0
100
AcDbLine
 10
33.75
 20
2.000000000000019
 30
0.0
 11
33.75
 21
0.0000000000000168
 31
0.0
  0
LINE
  5
E9
330
1E
100
AcDbEntity
  8
0
100
AcDbLine
 10
21.125
 20
2.000000000000019
 30
0.0
 11
30.2965
 21
2.000000000000019
 31
0.0
  0
LINE
  5
EA
330
1E
100
AcDbEntity
  8
0
100
AcDbLine
 10
21.125
 20
2.000000000000019
 30
0.0
 11
32.25
 21
2.000000000000019
 31
0.0
  0
LINE
  5
EB
330
1E
100
AcDbEntity
  8
0
100
AcDbLine
 10
19.9235
 20
2.000000000000019
 30
0.0
 11
21.125
 21
2.000000000000019
 31
0.0
  0
LINE
  5
EC
330
1E
100
AcDbEntity
  8
0
100
AcDbLine
 10
19.9235
 20
2.000000000000019
 30
0.0
 11
19.9235
 21
0.0000000000000177
 31
0.0
  0
LINE
  5
ED
330
1E
100
AcDbEntity
  8
0
100
AcDbLine
 10
15.0
 20
2.000000000000019
 30
0.0
 11
16.8616
 21
2.000000000000019
 31
0.0
  0
LINE
  5
EE
330
1E
100
AcDbEntity
  8
0
100
AcDbLine
 10
15.0
 20
2.000000000000019
 30
0.0
 11
16.8616
 21
2.000000000000019
 31
0.0
  0
LINE
  5
EF
330
1E
100
AcDbEntity
  8
0
100
AcDbLine
 10
15.0
 20
2.000000000000019
 30
0.0
 11
15.0
 21
0.000000000000018
 31
0.0
  0
LINE
  5
F0
330
1E
100
AcDbEntity
  8
0
100
AcDbLine
 10
6.625
 20
2.000000000000019
 30
0.0
 11
12.5
 21
2.000000000000019
 31
0.0
  0
LINE
  5
F1
330
1E
100
AcDbEntity
  8
0
100
AcDbLine
 10
6.625
 20
2.000000000000019
 30
0.0
 11
12.875
 21
2.000000000000019
 31
0.0
  0
LINE
  5
F2
330
1E
100
AcDbEntity
  8
0
100
AcDbLine
 10
0.0000000000000002
 20
3.00000000000002
 30
0.0
 11
0.0000000000000008
 21
13.0
 31
0.0
  0
LINE
  5
F3
330
1E
100
AcDbEntity
  8
0
100
AcDbLine
 10
0.0000000000000002
 20
3.00000000000002
 30
0.0
 11
0.0000000000000008
 21
13.0
 31
0.0
  0
LINE
  5
F4
330
1E
100
AcDbEntity
  8
0
100
AcDbLine
 10
0.0000000000000002
 20
3.00000000000002
 30
0.0
 11
1.25
 21
2.000000000000019
 31
0.0
  0
LINE
  5
F5
330
1E
100
AcDbEntity
  8
0
100
AcDbLine
 10
0.0000000000000002
 20
3.00000000000002
 30
0.0
 11
1.5
 21
3.00000000000002
 31
0.0
  0
LINE
  5
F6
330
1E
100
AcDbEntity
  8
0
100
AcDbLine
 10
0.0000000000000008
 20
13.0
 30
0.0
 11
1.5
 21
13.0
 31
0.0
  0
LINE
  5
F7
330
1E
100
AcDbEntity
  8
0
100
AcDbLine
 10
0.0000000000000008
 20
13.0
 30
0.0
 11
1.25
 21
14.0
 31
0.0
  0
LINE
  5
F8
330
1E
100
AcDbEntity
  8
0
100
AcDbLine
 10
31.25
 20
3.00000000000002
 30
0.0
 11
44.125
 21
3.00000000000002
 31
0.0
  0
LINE
  5
F9
330
1E
100
AcDbEntity
  8
0
100
AcDbLine
 10
20.125
 20
3.00000000000002
 30
0.0
 11
31.25
 21
3.00000000000002
 31
0.0
  0
LINE
  5
FA
330
1E
100
AcDbEntity
  8
0
100
AcDbLine
 10
11.75
 20
3.00000000000002
 30
0.0
 11
20.125
 21
3.00000000000002
 31
0.0
  0
LINE
  5
FB
330
1E
100
AcDbEntity
  8
0
100
AcDbLine
 10
5.375
 20
3.00000000000002
 30
0.0
 11
11.75
 21
3.00000000000002
 31
0.0
  0
LINE
  5
FC
330
1E
100
AcDbEntity
  8
0
100
AcDbLine
 10
44.125
 20
13.0
 30
0.0
 11
58.875
 21
13.0
 31
0.0
  0
LINE
  5
FD
330
1E
100
AcDbEntity
  8
0
100
AcDbLine
 10
31.25
 20
13.0
 30
0.0
 11
44.125
 21
13.0
 31
0.0
  0
LINE
  5
FE
330
1E
100
AcDbEntity
  8
0
100
AcDbLine
 10
20.125
 20
13.0
 30
0.0
 11
31.25
 21
13.0
 31
0.0
  0
LINE
  5
FF
330
1E
100
AcDbEntity
  8
0
100
AcDbLine
 10
11.75
 20
13.0
 30
0.0
 11
20.125
 21
13.0
 31
0.0
  0
LINE
  5
100
330
1E
100
AcDbEntity
  8
0
100
AcDbLine
 10
5.375
 20
13.0
 30
0.0
 11
11.75
 21
13.0
 31
0.0
  0
LINE
  5
101
330
1E
100
AcDbEntity
  8
0
100
AcDbLine
 10
1.5
 20
13.0
 30
0.0
 11
5.375
 21
13.0
 31
0.0
  0
LINE
  5
102
330
1E
100
AcDbEntity
  8
0
100
AcDbLine
 10
1.5
 20
3.00000000000002
 30
0.0
 11
5.375
 21
3.00000000000002
 31
0.0
  0
LINE
  5
103
330
1E
100
AcDbEntity
  8
0
100
AcDbLine
 10
1.25
 20
2.000000000000019
 30
0.0
 11
2.75
 21
2.000000000000019
 31
0.0
  0
LINE
  5
104
330
1E
100
AcDbEntity
  8
0
100
AcDbLine
 10
0.0000000000000008
 20
13.0
 30
0.0
 11
1.25
 21
14.0
 31
0.0
  0
LINE
  5
105
330
1E
100
AcDbEntity
  8
0
100
AcDbLine
 10
0.0000000000000008
 20
13.0
 30
0.0
 11
1.5
 21
13.0
 31
0.0
  0
LINE
  5
106
330
1E
100
AcDbEntity
  8
0
100
AcDbLine
 10
0.0000000000000003
 20
3.00000000000002
 30
0.0
 11
1.25
 21
2.000000000000019
 31
0.0
  0
LINE
  5
107
330
1E
100
AcDbEntity
  8
0
100
AcDbLine
 10
0.0000000000000003
 20
3.00000000000002
 30
0.0
 11
1.5
 21
3.00000000000002
 31
0.0
  0
LINE
  5
108
330
1E
100
AcDbEntity
  8
0
100
AcDbLine
 10
2.75
 20
2.000000000000019
 30
0.0
 11
6.625
 21
2.000000000000019
 31
0.0
  0
LINE
  5
109
330
1E
100
AcDbEntity
  8
0
100
AcDbLine
 10
51.8889
 20
2.000000000000019
 30
0.0
 11
53.6567
 21
2.000000000000019
 31
0.0
  0
LINE
  5
10A
330
1E
100
AcDbEntity
  8
0
100
AcDbLine
 10
51.8889
 20
2.000000000000019
 30
0.0
 11
51.8889
 21
0.0000000000000156
 31
0.0
  0
LINE
  5
10B
330
1E
100
AcDbEntity
  8
0
100
AcDbLine
 10
53.6567
 20
2.000000000000019
 30
0.0
 11
53.731
 21
2.000000000000019
 31
0.0
  0
LINE
  5
10C
330
1E
100
AcDbEntity
  8
0
100
AcDbLine
 10
53.6567
 20
2.000000000000019
 30
0.0
 11
55.4245
 21
2.000000000000019
 31
0.0
  0
LINE
  5
10D
330
1E
100
AcDbEntity
  8
0
100
AcDbLine
 10
53.6567
 20
2.000000000000019
 30
0.0
 11
53.6567
 21
0.0000000000000156
 31
0.0
  0
LINE
  5
10E
330
1E
100
AcDbEntity
  8
0
100
AcDbLine
 10
53.731
 20
2.000000000000019
 30
0.0
 11
56.1457
 21
2.000000000000019
 31
0.0
  0
LINE
  5
10F
330
1E
100
AcDbEntity
  8
0
100
AcDbLine
 10
49.9495
 20
2.000000000000019
 30
0.0
 11
49.9495
 21
0.0000000000000159
 31
0.0
  0
LINE
  5
110
330
1E
100
AcDbEntity
  8
0
100
AcDbLine
 10
47.7845
 20
2.000000000000019
 30
0.0
 11
49.9495
 21
2.000000000000019
 31
0.0
  0
LINE
  5
111
330
1E
100
AcDbEntity
  8
0
100
AcDbLine
 10
47.7845
 20
2.000000000000019
 30
0.0
 11
47.7845
 21
0.0000000000000159
 31
0.0
  0
LINE
  5
112
330
1E
100
AcDbEntity
  8
0
100
AcDbLine
 10
50.0
 20
2.000000000000019
 30
0.0
 11
50.0
 21
0.0000000000000159
 31
0.0
  0
LINE
  5
113
330
1E
100
AcDbEntity
  8
0
100
AcDbLine
 10
46.5345
 20
2.000000000000019
 30
0.0
 11
46.5345
 21
0.0000000000000159
 31
0.0
  0
LINE
  5
114
330
1E
100
AcDbEntity
  8
0
100
AcDbLine
 10
46.5345
 20
2.000000000000019
 30
0.0
 11
47.7845
 21
2.000000000000019
 31
0.0
  0
LINE
  5
115
330
1E
100
AcDbEntity
  8
0
100
AcDbLine
 10
59.625
 20
14.0
 30
0.0
 11
76.0
 21
14.0
 31
0.0
  0
LINE
  5
116
330
1E
100
AcDbEntity
  8
0
100
AcDbLine
 10
58.875
 20
13.0
 30
0.0
 11
75.375
 21
13.0
 31
0.0
  0
LINE
  5
117
330
1E
100
AcDbEntity
  8
0
100
AcDbLine
 10
75.375
 20
13.0
 30
0.0
 11
92.75
 21
13.0
 31
0.0
  0
LINE
  5
118
330
1E
100
AcDbEntity
  8
0
100
AcDbLine
 10
58.875
 20
3.00000000000002
 30
0.0
 11
75.375
 21
3.000000000000009
 31
0.0
  0
LINE
  5
119
330
1E
100
AcDbEntity
  8
0
100
AcDbLine
 10
76.0
 20
14.0
 30
0.0
 11
93.125
 21
14.0
 31
0.0
  0
LINE
  5
11A
330
1E
100
AcDbEntity
  8
0
100
AcDbLine
 10
75.375
 20
3.000000000000009
 30
0.0
 11
92.75
 21
3.000000000000009
 31
0.0
  0
LINE
  5
11B
330
1E
100
AcDbEntity
  8
0
100
AcDbLine
 10
45.0
 20
2.000000000000019
 30
0.0
 11
59.625
 21
2.000000000000019
 31
0.0
  0
LINE
  5
11C
330
1E
100
AcDbEntity
  8
0
100
AcDbLine
 10
44.125
 20
3.00000000000002
 30
0.0
 11
58.875
 21
3.00000000000002
 31
0.0
  0
LINE
  5
11D
330
1E
100
AcDbEntity
  8
0
100
AcDbLine
 10
44.125
 20
3.00000000000002
 30
0.0
 11
58.875
 21
3.00000000000002
 31
0.0
  0
LINE
  5
11E
330
1E
100
AcDbEntity
  8
0
100
AcDbLine
 10
59.625
 20
2.000000000000019
 30
0.0
 11
62.7725
 21
2.000000000000019
 31
0.0
  0
LINE
  5
11F
330
1E
100
AcDbEntity
  8
0
100
AcDbLine
 10
59.625
 20
2.000000000000019
 30
0.0
 11
76.0
 21
2.00000000000001
 31
0.0
  0
LINE
  5
120
330
1E
100
AcDbEntity
  8
0
100
AcDbLine
 10
80.1675
 20
2.00000000000001
 30
0.0
 11
82.33249999999999
 21
2.00000000000001
 31
0.0
  0
LINE
  5
121
330
1E
100
AcDbEntity
  8
0
100
AcDbLine
 10
80.1675
 20
2.00000000000001
 30
0.0
 11
80.1675
 21
0.0000000000000139
 31
0.0
  0
LINE
  5
122
330
1E
100
AcDbEntity
  8
0
100
AcDbLine
 10
82.33249999999999
 20
2.00000000000001
 30
0.0
 11
82.33249999999999
 21
0.0000000000000139
 31
0.0
  0
LINE
  5
123
330
1E
100
AcDbEntity
  8
0
100
AcDbLine
 10
87.5
 20
2.00000000000001
 30
0.0
 11
87.5
 21
0.0000000000000136
 31
0.0
  0
LINE
  5
124
330
1E
100
AcDbEntity
  8
0
100
AcDbLine
 10
81.17549999999999
 20
2.00000000000001
 30
0.0
 11
89.30609999999999
 21
2.00000000000001
 31
0.0
  0
LINE
  5
125
330
1E
100
AcDbEntity
  8
0
100
AcDbLine
 10
78.4054
 20
2.00000000000001
 30
0.0
 11
78.4054
 21
0.0000000000000142
 31
0.0
  0
LINE
  5
126
330
1E
100
AcDbEntity
  8
0
100
AcDbLine
 10
93.125
 20
14.0
 30
0.0
 11
111.6249999999999
 21
14.0
 31
0.0
  0
LINE
  5
127
330
1E
100
AcDbEntity
  8
0
100
AcDbLine
 10
92.75
 20
13.0
 30
0.0
 11
111.25
 21
13.0
 31
0.0
  0
LINE
  5
128
330
1E
100
AcDbEntity
  8
0
100
AcDbLine
 10
111.25
 20
13.0
 30
0.0
 11
130.4999999999999
 21
13.0
 31
0.0
  0
LINE
  5
129
330
1E
100
AcDbEntity
  8
0
100
AcDbLine
 10
92.75
 20
3.000000000000009
 30
0.0
 11
111.25
 21
3.000000000000009
 31
0.0
  0
LINE
  5
12A
330
1E
100
AcDbEntity
  8
0
100
AcDbLine
 10
111.6249999999999
 20
14.0
 30
0.0
 11
130.4999999999999
 21
14.0
 31
0.0
  0
LINE
  5
12B
330
1E
100
AcDbEntity
  8
0
100
AcDbLine
 10
111.25
 20
3.000000000000009
 30
0.0
 11
130.4999999999999
 21
3.000000000000009
 31
0.0
  0
LINE
  5
12C
330
1E
100
AcDbEntity
  8
0
100
AcDbLine
 10
83.58249999999999
 20
2.00000000000001
 30
0.0
 11
89.30609999999999
 21
2.00000000000001
 31
0.0
  0
LINE
  5
12D
330
1E
100
AcDbEntity
  8
0
100
AcDbLine
 10
83.58249999999999
 20
2.00000000000001
 30
0.0
 11
83.58249999999999
 21
0.0000000000000139
 31
0.0
  0
LINE
  5
12E
330
1E
100
AcDbEntity
  8
0
100
AcDbLine
 10
76.0
 20
2.00000000000001
 30
0.0
 11
78.4054
 21
2.00000000000001
 31
0.0
  0
LINE
  5
12F
330
1E
100
AcDbEntity
  8
0
100
AcDbLine
 10
76.0
 20
2.00000000000001
 30
0.0
 11
93.125
 21
2.00000000000001
 31
0.0
  0
LINE
  5
130
330
1E
100
AcDbEntity
  8
0
100
AcDbLine
 10
93.43149999999999
 20
2.00000000000001
 30
0.0
 11
95.24840000000001
 21
2.00000000000001
 31
0.0
  0
LINE
  5
131
330
1E
100
AcDbEntity
  8
0
100
AcDbLine
 10
93.43149999999999
 20
2.00000000000001
 30
0.0
 11
95.1992
 21
2.00000000000001
 31
0.0
  0
LINE
  5
132
330
1E
100
AcDbEntity
  8
0
100
AcDbLine
 10
93.43149999999999
 20
2.00000000000001
 30
0.0
 11
93.43149999999999
 21
0.0000000000000133
 31
0.0
  0
LINE
  5
133
330
1E
100
AcDbEntity
  8
0
100
AcDbLine
 10
118.18
 20
0.0000000000000116
 30
0.0
 11
118.9179999999999
 21
0.0000000000000116
 31
0.0
  0
LINE
  5
134
330
1E
100
AcDbEntity
  8
0
100
AcDbLine
 10
118.9179999999999
 20
0.0000000000000116
 30
0.0
 11
119.9479999999999
 21
0.0000000000000115
 31
0.0
  0
LINE
  5
135
330
1E
100
AcDbEntity
  8
0
100
AcDbLine
 10
118.9179999999999
 20
0.0000000000000116
 30
0.0
 11
121.082
 21
0.0000000000000115
 31
0.0
  0
LINE
  5
136
330
1E
100
AcDbEntity
  8
0
100
AcDbLine
 10
119.832
 20
0.0000000000000115
 30
0.0
 11
119.9479999999999
 21
0.0000000000000115
 31
0.0
  0
LINE
  5
137
330
1E
100
AcDbEntity
  8
0
100
AcDbLine
 10
119.832
 20
0.0000000000000115
 30
0.0
 11
121.082
 21
0.0000000000000115
 31
0.0
  0
LINE
  5
138
330
1E
100
AcDbEntity
  8
0
100
AcDbLine
 10
118.7049999999999
 20
0.0000000000000116
 30
0.0
 11
119.832
 21
0.0000000000000115
 31
0.0
  0
LINE
  5
139
330
1E
100
AcDbEntity
  8
0
100
AcDbLine
 10
118.7049999999999
 20
0.0000000000000116
 30
0.0
 11
119.832
 21
0.0000000000000115
 31
0.0
  0
LINE
  5
13A
330
1E
100
AcDbEntity
  8
0
100
AcDbLine
 10
118.7049999999999
 20
0.0000000000000116
 30
0.0
 11
121.12
 21
0.0000000000000115
 31
0.0
  0
LINE
  5
13B
330
1E
100
AcDbEntity
  8
0
100
AcDbLine
 10
119.9479999999999
 20
0.0000000000000115
 30
0.0
 11
120.473
 21
0.0000000000000115
 31
0.0
  0
LINE
  5
13C
330
1E
100
AcDbEntity
  8
0
100
AcDbLine
 10
119.9479999999999
 20
0.0000000000000115
 30
0.0
 11
121.716
 21
0.0000000000000114
 31
0.0
  0
LINE
  5
13D
330
1E
100
AcDbEntity
  8
0
100
AcDbLine
 10
121.12
 20
0.0000000000000115
 30
0.0
 11
121.12
 21
2.00000000000001
 31
0.0
  0
LINE
  5
13E
330
1E
100
AcDbEntity
  8
0
100
AcDbLine
 10
121.716
 20
0.0000000000000114
 30
0.0
 11
121.716
 21
2.00000000000001
 31
0.0
  0
LINE
  5
13F
330
1E
100
AcDbEntity
  8
0
100
AcDbLine
 10
121.082
 20
0.0000000000000115
 30
0.0
 11
121.716
 21
0.0000000000000114
 31
0.0
  0
LINE
  5
140
330
1E
100
AcDbEntity
  8
0
100
AcDbLine
 10
120.473
 20
0.0000000000000115
 30
0.0
 11
121.12
 21
0.0000000000000115
 31
0.0
  0
LINE
  5
141
330
1E
100
AcDbEntity
  8
0
100
AcDbLine
 10
120.473
 20
0.0000000000000115
 30
0.0
 11
120.473
 21
2.00000000000001
 31
0.0
  0
LINE
  5
142
330
1E
100
AcDbEntity
  8
0
100
AcDbLine
 10
116.267
 20
0.0000000000000118
 30
0.0
 11
116.267
 21
2.00000000000001
 31
0.0
  0
LINE
  5
143
330
1E
100
AcDbEntity
  8
0
100
AcDbLine
 10
117.6679999999999
 20
0.0000000000000117
 30
0.0
 11
118.9179999999999
 21
0.0000000000000116
 31
0.0
  0
LINE
  5
144
330
1E
100
AcDbEntity
  8
0
100
AcDbLine
 10
117.6679999999999
 20
0.0000000000000117
 30
0.0
 11
117.6679999999999
 21
2.00000000000001
 31
0.0
  0
LINE
  5
145
330
1E
100
AcDbEntity
  8
0
100
AcDbLine
 10
117.6679999999999
 20
0.0000000000000117
 30
0.0
 11
119.832
 21
0.0000000000000115
 31
0.0
  0
LINE
  5
146
330
1E
100
AcDbEntity
  8
0
100
AcDbLine
 10
117.6679999999999
 20
0.0000000000000117
 30
0.0
 11
118.0579999999999
 21
0.0000000000000116
 31
0.0
  0
LINE
  5
147
330
1E
100
AcDbEntity
  8
0
100
AcDbLine
 10
118.0579999999999
 20
0.0000000000000116
 30
0.0
 11
118.7049999999999
 21
0.0000000000000116
 31
0.0
  0
LINE
  5
148
330
1E
100
AcDbEntity
  8
0
100
AcDbLine
 10
118.0579999999999
 20
0.0000000000000116
 30
0.0
 11
120.473
 21
0.0000000000000115
 31
0.0
  0
LINE
  5
149
330
1E
100
AcDbEntity
  8
0
100
AcDbLine
 10
118.0579999999999
 20
0.0000000000000116
 30
0.0
 11
118.18
 21
0.0000000000000116
 31
0.0
  0
LINE
  5
14A
330
1E
100
AcDbEntity
  8
0
100
AcDbLine
 10
118.0579999999999
 20
0.0000000000000116
 30
0.0
 11
118.0579999999999
 21
2.00000000000001
 31
0.0
  0
LINE
  5
14B
330
1E
100
AcDbEntity
  8
0
100
AcDbLine
 10
115.62
 20
0.0000000000000118
 30
0.0
 11
116.267
 21
0.0000000000000118
 31
0.0
  0
LINE
  5
14C
330
1E
100
AcDbEntity
  8
0
100
AcDbLine
 10
115.62
 20
0.0000000000000118
 30
0.0
 11
115.62
 21
2.00000000000001
 31
0.0
  0
LINE
  5
14D
330
1E
100
AcDbEntity
  8
0
100
AcDbLine
 10
113.205
 20
2.00000000000001
 30
0.0
 11
115.62
 21
2.00000000000001
 31
0.0
  0
LINE
  5
14E
330
1E
100
AcDbEntity
  8
0
100
AcDbLine
 10
113.205
 20
2.00000000000001
 30
0.0
 11
113.205
 21
0.0000000000000118
 31
0.0
  0
LINE
  5
14F
330
1E
100
AcDbEntity
  8
0
100
AcDbLine
 10
115.62
 20
2.00000000000001
 30
0.0
 11
116.267
 21
2.00000000000001
 31
0.0
  0
LINE
  5
150
330
1E
100
AcDbEntity
  8
0
100
AcDbLine
 10
115.62
 20
2.00000000000001
 30
0.0
 11
115.62
 21
0.0000000000000118
 31
0.0
  0
LINE
  5
151
330
1E
100
AcDbEntity
  8
0
100
AcDbLine
 10
118.0579999999999
 20
2.00000000000001
 30
0.0
 11
120.473
 21
2.00000000000001
 31
0.0
  0
LINE
  5
152
330
1E
100
AcDbEntity
  8
0
100
AcDbLine
 10
118.0579999999999
 20
2.00000000000001
 30
0.0
 11
118.0579999999999
 21
0.0000000000000115
 31
0.0
  0
LINE
  5
153
330
1E
100
AcDbEntity
  8
0
100
AcDbLine
 10
120.473
 20
2.00000000000001
 30
0.0
 11
121.12
 21
2.00000000000001
 31
0.0
  0
LINE
  5
154
330
1E
100
AcDbEntity
  8
0
100
AcDbLine
 10
120.473
 20
2.00000000000001
 30
0.0
 11
120.473
 21
0.0000000000000115
 31
0.0
  0
LINE
  5
155
330
1E
100
AcDbEntity
  8
0
100
AcDbLine
 10
121.12
 20
2.00000000000001
 30
0.0
 11
121.716
 21
2.00000000000001
 31
0.0
  0
LINE
  5
156
330
1E
100
AcDbEntity
  8
0
100
AcDbLine
 10
121.12
 20
2.00000000000001
 30
0.0
 11
121.12
 21
0.0000000000000115
 31
0.0
  0
LINE
  5
157
330
1E
100
AcDbEntity
  8
0
100
AcDbLine
 10
117.6679999999999
 20
2.00000000000001
 30
0.0
 11
117.6679999999999
 21
0.0000000000000118
 31
0.0
  0
LINE
  5
158
330
1E
100
AcDbEntity
  8
0
100
AcDbLine
 10
113.205
 20
0.0000000000000119
 30
0.0
 11
115.62
 21
0.0000000000000118
 31
0.0
  0
LINE
  5
159
330
1E
100
AcDbEntity
  8
0
100
AcDbLine
 10
113.205
 20
0.0000000000000119
 30
0.0
 11
113.205
 21
2.00000000000001
 31
0.0
  0
LINE
  5
15A
330
1E
100
AcDbEntity
  8
0
100
AcDbLine
 10
125.973
 20
0.0000000000000112
 30
0.0
 11
125.973
 21
2.00000000000001
 31
0.0
  0
LINE
  5
15B
330
1E
100
AcDbEntity
  8
0
100
AcDbLine
 10
127.0429999999999
 20
0.0000000000000111
 30
0.0
 11
127.0429999999999
 21
2.00000000000001
 31
0.0
  0
LINE
  5
15C
330
1E
100
AcDbEntity
  8
0
100
AcDbLine
 10
127.0429999999999
 20
0.0000000000000111
 30
0.0
 11
127.7639999999999
 21
0.0000000000000111
 31
0.0
  0
LINE
  5
15D
330
1E
100
AcDbEntity
  8
0
100
AcDbLine
 10
127.0429999999999
 20
0.0000000000000111
 30
0.0
 11
128.292
 21
0.000000000000011
 31
0.0
  0
LINE
  5
15E
330
1E
100
AcDbEntity
  8
0
100
AcDbLine
 10
126.1749999999999
 20
0.0000000000000111
 30
0.0
 11
126.1749999999999
 21
2.00000000000001
 31
0.0
  0
LINE
  5
15F
330
1E
100
AcDbEntity
  8
0
100
AcDbLine
 10
126.1749999999999
 20
0.0000000000000111
 30
0.0
 11
127.7239999999999
 21
0.0000000000000111
 31
0.0
  0
LINE
  5
160
330
1E
100
AcDbEntity
  8
0
100
AcDbLine
 10
123.5579999999999
 20
0.0000000000000113
 30
0.0
 11
125.973
 21
0.0000000000000112
 31
0.0
  0
LINE
  5
161
330
1E
100
AcDbEntity
  8
0
100
AcDbLine
 10
125.3249999999999
 20
0.0000000000000112
 30
0.0
 11
125.973
 21
0.0000000000000112
 31
0.0
  0
LINE
  5
162
330
1E
100
AcDbEntity
  8
0
100
AcDbLine
 10
125.3249999999999
 20
0.0000000000000112
 30
0.0
 11
125.3249999999999
 21
2.00000000000001
 31
0.0
  0
LINE
  5
163
330
1E
100
AcDbEntity
  8
0
100
AcDbLine
 10
125.0
 20
0.0000000000000112
 30
0.0
 11
127.5
 21
0.0000000000000111
 31
0.0
  0
LINE
  5
164
330
1E
100
AcDbEntity
  8
0
100
AcDbLine
 10
125.529
 20
0.0000000000000112
 30
0.0
 11
127.7639999999999
 21
0.0000000000000111
 31
0.0
  0
LINE
  5
165
330
1E
100
AcDbEntity
  8
0
100
AcDbLine
 10
125.529
 20
0.0000000000000112
 30
0.0
 11
126.1749999999999
 21
0.0000000000000111
 31
0.0
  0
LINE
  5
166
330
1E
100
AcDbEntity
  8
0
100
AcDbLine
 10
130.179
 20
0.0000000000000109
 30
0.0
 11
131.1399999999999
 21
0.0000000000000108
 31
0.0
  0
LINE
  5
167
330
1E
100
AcDbEntity
  8
0
100
AcDbLine
 10
128.292
 20
0.000000000000011
 30
0.0
 11
128.9739999999999
 21
0.000000000000011
 31
0.0
  0
LINE
  5
168
330
1E
100
AcDbEntity
  8
0
100
AcDbLine
 10
128.292
 20
0.000000000000011
 30
0.0
 11
130.458
 21
0.0000000000000109
 31
0.0
  0
LINE
  5
169
330
1E
100
AcDbEntity
  8
0
100
AcDbLine
 10
128.292
 20
0.000000000000011
 30
0.0
 11
128.59
 21
0.000000000000011
 31
0.0
  0
LINE
  5
16A
330
1E
100
AcDbEntity
  8
0
100
AcDbLine
 10
130.179
 20
0.0000000000000109
 30
0.0
 11
130.8249999999999
 21
0.0000000000000109
 31
0.0
  0
LINE
  5
16B
330
1E
100
AcDbEntity
  8
0
100
AcDbLine
 10
130.179
 20
0.0000000000000109
 30
0.0
 11
130.179
 21
2.00000000000001
 31
0.0
  0
LINE
  5
16C
330
1E
100
AcDbEntity
  8
0
100
AcDbLine
 10
127.7639999999999
 20
0.0000000000000111
 30
0.0
 11
130.179
 21
0.0000000000000109
 31
0.0
  0
LINE
  5
16D
330
1E
100
AcDbEntity
  8
0
100
AcDbLine
 10
127.7639999999999
 20
0.0000000000000111
 30
0.0
 11
127.7639999999999
 21
2.00000000000001
 31
0.0
  0
LINE
  5
16E
330
1E
100
AcDbEntity
  8
0
100
AcDbLine
 10
125.3249999999999
 20
2.00000000000001
 30
0.0
 11
125.973
 21
2.00000000000001
 31
0.0
  0
LINE
  5
16F
330
1E
100
AcDbEntity
  8
0
100
AcDbLine
 10
125.3249999999999
 20
2.00000000000001
 30
0.0
 11
125.3249999999999
 21
0.0000000000000112
 31
0.0
  0
LINE
  5
170
330
1E
100
AcDbEntity
  8
0
100
AcDbLine
 10
125.973
 20
2.00000000000001
 30
0.0
 11
125.973
 21
0.0000000000000112
 31
0.0
  0
LINE
  5
171
330
1E
100
AcDbEntity
  8
0
100
AcDbLine
 10
127.7639999999999
 20
2.00000000000001
 30
0.0
 11
130.179
 21
2.00000000000001
 31
0.0
  0
LINE
  5
172
330
1E
100
AcDbEntity
  8
0
100
AcDbLine
 10
127.7639999999999
 20
2.00000000000001
 30
0.0
 11
127.7639999999999
 21
0.0000000000000109
 31
0.0
  0
LINE
  5
173
330
1E
100
AcDbEntity
  8
0
100
AcDbLine
 10
130.179
 20
2.00000000000001
 30
0.0
 11
130.4999999999999
 21
2.00000000000001
 31
0.0
  0
LINE
  5
174
330
1E
100
AcDbEntity
  8
0
100
AcDbLine
 10
130.179
 20
2.00000000000001
 30
0.0
 11
130.179
 21
0.0000000000000109
 31
0.0
  0
LINE
  5
175
330
1E
100
AcDbEntity
  8
0
100
AcDbLine
 10
127.0429999999999
 20
2.00000000000001
 30
0.0
 11
127.0429999999999
 21
0.0000000000000112
 31
0.0
  0
LINE
  5
176
330
1E
100
AcDbEntity
  8
0
100
AcDbLine
 10
126.1749999999999
 20
2.00000000000001
 30
0.0
 11
126.1749999999999
 21
0.0000000000000112
 31
0.0
  0
LINE
  5
177
330
1E
100
AcDbEntity
  8
0
100
AcDbLine
 10
122.911
 20
2.00000000000001
 30
0.0
 11
122.911
 21
0.0000000000000112
 31
0.0
  0
LINE
  5
178
330
1E
100
AcDbEntity
  8
0
100
AcDbLine
 10
122.911
 20
2.00000000000001
 30
0.0
 11
125.3249999999999
 21
2.00000000000001
 31
0.0
  0
LINE
  5
179
330
1E
100
AcDbEntity
  8
0
100
AcDbLine
 10
122.911
 20
0.0000000000000113
 30
0.0
 11
123.5579999999999
 21
0.0000000000000113
 31
0.0
  0
LINE
  5
17A
330
1E
100
AcDbEntity
  8
0
100
AcDbLine
 10
122.911
 20
0.0000000000000113
 30
0.0
 11
122.911
 21
2.00000000000001
 31
0.0
  0
LINE
  5
17B
330
1E
100
AcDbEntity
  8
0
100
AcDbLine
 10
122.911
 20
0.0000000000000113
 30
0.0
 11
125.3249999999999
 21
0.0000000000000112
 31
0.0
  0
LINE
  5
17C
330
1E
100
AcDbEntity
  8
0
100
AcDbLine
 10
130.4999999999999
 20
2.00000000000001
 30
0.0
 11
150.0
 21
2.00000000000001
 31
0.0
  0
LINE
  5
17D
330
1E
100
AcDbEntity
  8
0
100
AcDbLine
 10
127.5
 20
2.00000000000001
 30
0.0
 11
127.7239999999999
 21
2.00000000000001
 31
0.0
  0
LINE
  5
17E
330
1E
100
AcDbEntity
  8
0
100
AcDbLine
 10
121.716
 20
2.00000000000001
 30
0.0
 11
122.911
 21
2.00000000000001
 31
0.0
  0
LINE
  5
17F
330
1E
100
AcDbEntity
  8
0
100
AcDbLine
 10
121.716
 20
2.00000000000001
 30
0.0
 11
121.716
 21
0.0000000000000115
 31
0.0
  0
LINE
  5
180
330
1E
100
AcDbEntity
  8
0
100
AcDbLine
 10
130.4999999999999
 20
13.0
 30
0.0
 11
150.0
 21
13.0
 31
0.0
  0
LINE
  5
181
330
1E
100
AcDbEntity
  8
0
100
AcDbLine
 10
130.4999999999999
 20
3.000000000000009
 30
0.0
 11
150.0
 21
3.000000000000009
 31
0.0
  0
LINE
  5
182
330
1E
100
AcDbEntity
  8
0
100
AcDbLine
 10
116.267
 20
2.00000000000001
 30
0.0
 11
117.6679999999999
 21
2.00000000000001
 31
0.0
  0
LINE
  5
183
330
1E
100
AcDbEntity
  8
0
100
AcDbLine
 10
116.267
 20
2.00000000000001
 30
0.0
 11
116.267
 21
0.0000000000000118
 31
0.0
  0
LINE
  5
184
330
1E
100
AcDbEntity
  8
0
100
AcDbLine
 10
112.736
 20
2.00000000000001
 30
0.0
 11
113.205
 21
2.00000000000001
 31
0.0
  0
LINE
  5
185
330
1E
100
AcDbEntity
  8
0
100
AcDbLine
 10
112.736
 20
2.00000000000001
 30
0.0
 11
112.736
 21
0.0000000000000121
 31
0.0
  0
LINE
  5
186
330
1E
100
AcDbEntity
  8
0
100
AcDbLine
 10
32.25
 20
14.0
 30
0.0
 11
45.0
 21
14.0
 31
0.0
  0
LINE
  5
187
330
1E
100
AcDbEntity
  8
0
100
AcDbLine
 10
21.125
 20
14.0
 30
0.0
 11
32.25
 21
14.0
 31
0.0
  0
LINE
  5
188
330
1E
100
AcDbEntity
  8
0
100
AcDbLine
 10
12.875
 20
14.0
 30
0.0
 11
21.125
 21
14.0
 31
0.0
  0
LINE
  5
189
330
1E
100
AcDbEntity
  8
0
100
AcDbLine
 10
6.625
 20
14.0
 30
0.0
 11
12.875
 21
14.0
 31
0.0
  0
LINE
  5
18A
330
1E
100
AcDbEntity
  8
0
100
AcDbLine
 10
2.75
 20
14.0
 30
0.0
 11
6.625
 21
14.0
 31
0.0
  0
LINE
  5
18B
330
1E
100
AcDbEntity
  8
0
100
AcDbLine
 10
1.25
 20
14.0
 30
0.0
 11
2.75
 21
14.0
 31
0.0
  0
LINE
  5
18C
330
1E
100
AcDbEntity
  8
0
100
AcDbLine
 10
45.0
 20
14.0
 30
0.0
 11
59.625
 21
14.0
 31
0.0
  0
LINE
  5
18D
330
1E
100
AcDbEntity
  8
0
100
AcDbLine
 10
114.7
 20
18.0
 30
0.0
 11
119.5999999999999
 21
18.0
 31
0.0
  0
LINE
  5
18E
330
1E
100
AcDbEntity
  8
0
100
AcDbLine
 10
119.5999999999999
 20
18.0
 30
0.0
 11
125.0999999999999
 21
18.0
 31
0.0
  0
LINE
  5
18F
330
1E
100
AcDbEntity
  8
0
100
AcDbLine
 10
125.0999999999999
 20
18.0
 30
0.0
 11
130.9
 21
18.0
 31
0.0
  0
LINE
  5
190
330
1E
100
AcDbEntity
  8
0
100
AcDbLine
 10
110.4
 20
18.0
 30
0.0
 11
114.7
 21
18.0
 31
0.0
  0
LINE
  5
191
330
1E
100
AcDbEntity
  8
0
100
AcDbLine
 10
106.6999999999999
 20
18.0
 30
0.0
 11
110.4
 21
18.0
 31
0.0
  0
LINE
  5
192
330
1E
100
AcDbEntity
  8
0
100
AcDbLine
 10
103.9
 20
18.0
 30
0.0
 11
106.6999999999999
 21
18.0
 31
0.0
  0
LINE
  5
193
330
1E
100
AcDbEntity
  8
0
100
AcDbLine
 10
101.8
 20
18.0
 30
0.0
 11
103.9
 21
18.0
 31
0.0
  0
LINE
  5
194
330
1E
100
AcDbEntity
  8
0
100
AcDbLine
 10
100.5
 20
18.0
 30
0.0
 11
101.8
 21
18.0
 31
0.0
  0
LINE
  5
195
330
1E
100
AcDbEntity
  8
0
100
AcDbLine
 10
100.0
 20
18.0
 30
0.0
 11
100.0
 21
14.0
 31
0.0
  0
LINE
  5
196
330
1E
100
AcDbEntity
  8
0
100
AcDbLine
 10
100.0
 20
18.0
 30
0.0
 11
100.5
 21
18.0
 31
0.0
  0
LINE
  5
197
330
1E
100
AcDbEntity
  8
0
100
AcDbLine
 10
100.0
 20
14.0
 30
0.0
 11
100.0
 21
18.0
 31
0.0
  0
LINE
  5
198
330
1E
100
AcDbEntity
  8
0
100
AcDbLine
 10
131.1399999999999
 20
0.0000000000000108
 30
0.0
 11
131.1399999999999
 21
2.00000000000001
 31
0.0
  0
LINE
  5
199
330
1E
100
AcDbEntity
  8
0
100
AcDbLine
 10
130.8249999999999
 20
2.00000000000001
 30
0.0
 11
130.8249999999999
 21
0.0000000000000109
 31
0.0
  0
LINE
  5
19A
330
1E
100
AcDbEntity
  8
0
100
AcDbLine
 10
130.8249999999999
 20
0.0000000000000109
 30
0.0
 11
131.1399999999999
 21
0.0000000000000108
 31
0.0
  0
LINE
  5
19B
330
1E
100
AcDbEntity
  8
0
100
AcDbLine
 10
130.8249999999999
 20
0.0000000000000109
 30
0.0
 11
130.8249999999999
 21
2.00000000000001
 31
0.0
  0
LINE
  5
19C
330
1E
100
AcDbEntity
  8
0
100
AcDbLine
 10
131.4389999999999
 20
2.00000000000001
 30
0.0
 11
131.4389999999999
 21
0.0000000000000109
 31
0.0
  0
LINE
  5
19D
330
1E
100
AcDbEntity
  8
0
100
AcDbLine
 10
131.4389999999999
 20
2.00000000000001
 30
0.0
 11
132.616
 21
2.00000000000001
 31
0.0
  0
LINE
  5
19E
330
1E
100
AcDbEntity
  8
0
100
AcDbLine
 10
131.4389999999999
 20
0.0000000000000108
 30
0.0
 11
131.4389999999999
 21
2.00000000000001
 31
0.0
  0
LINE
  5
19F
330
1E
100
AcDbEntity
  8
0
100
AcDbLine
 10
131.4389999999999
 20
0.0000000000000108
 30
0.0
 11
132.616
 21
0.0000000000000108
 31
0.0
  0
LINE
  5
1A0
330
1E
100
AcDbEntity
  8
0
100
AcDbLine
 10
131.1399999999999
 20
2.00000000000001
 30
0.0
 11
132.616
 21
2.00000000000001
 31
0.0
  0
LINE
  5
1A1
330
1E
100
AcDbEntity
  8
0
100
AcDbLine
 10
131.1399999999999
 20
2.00000000000001
 30
0.0
 11
131.1399999999999
 21
0.0000000000000109
 31
0.0
  0
LINE
  5
1A2
330
1E
100
AcDbEntity
  8
0
100
AcDbLine
 10
130.9
 20
14.0
 30
0.0
 11
137.0999999999999
 21
14.0
 31
0.0
  0
LINE
  5
1A3
330
1E
100
AcDbEntity
  8
0
100
AcDbLine
 10
130.4999999999999
 20
14.0
 30
0.0
 11
130.9
 21
14.0
 31
0.0
  0
LINE
  5
1A4
330
1E
100
AcDbEntity
  8
0
100
AcDbLine
 10
130.4999999999999
 20
14.0
 30
0.0
 11
150.0
 21
14.0
 31
0.0
  0
LINE
  5
1A5
330
1E
100
AcDbEntity
  8
0
100
AcDbLine
 10
130.9
 20
18.0
 30
0.0
 11
137.0999999999999
 21
18.0
 31
0.0
  0
LINE
  5
1A6
330
1E
100
AcDbEntity
  8
0
100
AcDbLine
 10
131.613
 20
28.8208
 30
0.0
 11
132.125
 21
29.5776
 31
0.0
  0
LINE
  5
1A7
330
1E
100
AcDbEntity
  8
0
100
AcDbLine
 10
131.613
 20
28.8208
 30
0.0
 11
131.613
 21
18.5461
 31
0.0
  0
LINE
  5
1A8
330
1E
100
AcDbEntity
  8
0
100
AcDbLine
 10
131.489
 20
30.34219999999999
 30
0.0
 11
131.489
 21
38.86169999999999
 31
0.0
  0
LINE
  5
1A9
330
1E
100
AcDbEntity
  8
0
100
AcDbLine
 10
131.489
 20
30.34219999999999
 30
0.0
 11
131.5549999999999
 21
30.34219999999999
 31
0.0
  0
LINE
  5
1AA
330
1E
100
AcDbEntity
  8
0
100
AcDbLine
 10
131.679
 20
18.5461
 30
0.0
 11
131.927
 21
18.5461
 31
0.0
  0
LINE
  5
1AB
330
1E
100
AcDbEntity
  8
0
100
AcDbLine
 10
131.613
 20
18.5461
 30
0.0
 11
131.613
 21
28.8208
 31
0.0
  0
LINE
  5
1AC
330
1E
100
AcDbEntity
  8
0
100
AcDbLine
 10
131.613
 20
18.5461
 30
0.0
 11
132.2489999999999
 21
18.0
 31
0.0
  0
LINE
  5
1AD
330
1E
100
AcDbEntity
  8
0
100
AcDbLine
 10
131.613
 20
18.5461
 30
0.0
 11
131.679
 21
18.5461
 31
0.0
  0
LINE
  5
1AE
330
1E
100
AcDbEntity
  8
0
100
AcDbLine
 10
131.5549999999999
 20
38.86169999999999
 30
0.0
 11
131.804
 21
38.86169999999999
 31
0.0
  0
LINE
  5
1B1
330
1E
100
AcDbEntity
  8
0
100
AcDbLine
 10
131.489
 20
38.86169999999999
 30
0.0
 11
131.5739999999999
 21
38.8823
 31
0.0
  0
LINE
  5
1B2
330
1E
100
AcDbEntity
  8
0
100
AcDbLine
 10
131.489
 20
38.86169999999999
 30
0.0
 11
131.489
 21
30.34219999999999
 31
0.0
  0
LINE
  5
1B3
330
1E
100
AcDbEntity
  8
0
100
AcDbLine
 10
131.489
 20
38.86169999999999
 30
0.0
 11
131.5549999999999
 21
38.86169999999999
 31
0.0
  0
LINE
  5
1B4
330
1E
100
AcDbEntity
  8
0
100
AcDbLine
 10
131.804
 20
38.86169999999999
 30
0.0
 11
132.23
 21
38.86169999999999
 31
0.0
  0
LINE
  5
1B5
330
1E
100
AcDbEntity
  8
0
100
AcDbLine
 10
131.5739999999999
 20
38.8823
 30
0.0
 11
132.125
 21
39.008
 31
0.0
  0
LINE
  5
1B7
330
1E
100
AcDbEntity
  8
0
100
AcDbLine
 10
131.5549999999999
 20
30.34219999999999
 30
0.0
 11
131.804
 21
30.34219999999999
 31
0.0
  0
LINE
  5
1B8
330
1E
100
AcDbEntity
  8
0
100
AcDbLine
 10
132.616
 20
2.00000000000001
 30
0.0
 11
135.031
 21
2.00000000000001
 31
0.0
  0
LINE
  5
1B9
330
1E
100
AcDbEntity
  8
0
100
AcDbLine
 10
132.616
 20
2.00000000000001
 30
0.0
 11
132.616
 21
0.0000000000000106
 31
0.0
  0
LINE
  5
1BA
330
1E
100
AcDbEntity
  8
0
100
AcDbLine
 10
132.616
 20
0.0000000000000108
 30
0.0
 11
133.264
 21
0.0000000000000107
 31
0.0
  0
LINE
  5
1BB
330
1E
100
AcDbEntity
  8
0
100
AcDbLine
 10
132.616
 20
0.0000000000000108
 30
0.0
 11
132.616
 21
2.00000000000001
 31
0.0
  0
LINE
  5
1BC
330
1E
100
AcDbEntity
  8
0
100
AcDbLine
 10
132.616
 20
0.0000000000000108
 30
0.0
 11
135.031
 21
0.0000000000000106
 31
0.0
  0
LINE
  5
1BD
330
1E
100
AcDbEntity
  8
0
100
AcDbLine
 10
132.8239999999999
 20
18.0
 30
0.0
 11
133.3739999999999
 21
18.0
 31
0.0
  0
LINE
  5
1BE
330
1E
100
AcDbEntity
  8
0
100
AcDbLine
 10
132.2549999999999
 20
18.0
 30
0.0
 11
132.45
 21
18.0
 31
0.0
  0
LINE
  5
1BF
330
1E
100
AcDbEntity
  8
0
100
AcDbLine
 10
132.45
 20
18.0
 30
0.0
 11
132.8239999999999
 21
18.0
 31
0.0
  0
LINE
  5
1C0
330
1E
100
AcDbEntity
  8
0
100
AcDbLine
 10
133.206
 20
0.0000000000000107
 30
0.0
 11
134.9739999999999
 21
0.0000000000000106
 31
0.0
  0
LINE
  5
1C1
330
1E
100
AcDbEntity
  8
0
100
AcDbLine
 10
133.264
 20
0.0000000000000107
 30
0.0
 11
135.6789999999999
 21
0.0000000000000106
 31
0.0
  0
LINE
  5
1C2
330
1E
100
AcDbEntity
  8
0
100
AcDbLine
 10
135.6789999999999
 20
0.0000000000000106
 30
0.0
 11
135.6789999999999
 21
2.00000000000001
 31
0.0
  0
LINE
  5
1C3
330
1E
100
AcDbEntity
  8
0
100
AcDbLine
 10
135.031
 20
2.00000000000001
 30
0.0
 11
135.6789999999999
 21
2.00000000000001
 31
0.0
  0
LINE
  5
1C4
330
1E
100
AcDbEntity
  8
0
100
AcDbLine
 10
135.031
 20
2.00000000000001
 30
0.0
 11
135.031
 21
0.0000000000000106
 31
0.0
  0
LINE
  5
1C5
330
1E
100
AcDbEntity
  8
0
100
AcDbLine
 10
135.031
 20
0.0000000000000106
 30
0.0
 11
135.6789999999999
 21
0.0000000000000106
 31
0.0
  0
LINE
  5
1C6
330
1E
100
AcDbEntity
  8
0
100
AcDbLine
 10
135.031
 20
0.0000000000000106
 30
0.0
 11
135.031
 21
2.00000000000001
 31
0.0
  0
LINE
  5
1C7
330
1E
100
AcDbEntity
  8
0
100
AcDbLine
 10
135.6789999999999
 20
2.00000000000001
 30
0.0
 11
137.4689999999999
 21
2.00000000000001
 31
0.0
  0
LINE
  5
1C8
330
1E
100
AcDbEntity
  8
0
100
AcDbLine
 10
135.6789999999999
 20
2.00000000000001
 30
0.0
 11
135.6789999999999
 21
0.0000000000000106
 31
0.0
  0
LINE
  5
1C9
330
1E
100
AcDbEntity
  8
0
100
AcDbLine
 10
134.095
 20
18.0
 30
0.0
 11
134.9789999999999
 21
18.0
 31
0.0
  0
LINE
  5
1CA
330
1E
100
AcDbEntity
  8
0
100
AcDbLine
 10
133.926
 20
18.0
 30
0.0
 11
134.095
 21
18.0
 31
0.0
  0
LINE
  5
1CB
330
1E
100
AcDbEntity
  8
0
100
AcDbLine
 10
134.9789999999999
 20
18.0
 30
0.0
 11
135.477
 21
18.0
 31
0.0
  0
LINE
  5
1CC
330
1E
100
AcDbEntity
  8
0
100
AcDbLine
 10
133.394
 20
18.0
 30
0.0
 11
133.926
 21
18.0
 31
0.0
  0
LINE
  5
1CD
330
1E
100
AcDbEntity
  8
0
100
AcDbLine
 10
133.3739999999999
 20
18.0
 30
0.0
 11
134.095
 21
18.0
 31
0.0
  0
LINE
  5
1CE
330
1E
100
AcDbEntity
  8
0
100
AcDbLine
 10
133.0329999999999
 20
18.0
 30
0.0
 11
133.394
 21
18.0
 31
0.0
  0
LINE
  5
1CF
330
1E
100
AcDbEntity
  8
0
100
AcDbLine
 10
132.8449999999999
 20
18.0
 30
0.0
 11
133.0329999999999
 21
18.0
 31
0.0
  0
LINE
  5
1D0
330
1E
100
AcDbEntity
  8
0
100
AcDbLine
 10
131.927
 20
18.5461
 30
0.0
 11
132.3489999999999
 21
18.5461
 31
0.0
  0
LINE
  5
1D1
330
1E
100
AcDbEntity
  8
0
100
AcDbLine
 10
131.937
 20
30.34219999999999
 30
0.0
 11
132.132
 21
30.34219999999999
 31
0.0
  0
LINE
  5
1D2
330
1E
100
AcDbEntity
  8
0
100
AcDbLine
 10
131.937
 20
30.34219999999999
 30
0.0
 11
132.125
 21
30.34219999999999
 31
0.0
  0
LINE
  5
1D3
330
1E
100
AcDbEntity
  8
0
100
AcDbLine
 10
132.125
 20
30.34219999999999
 30
0.0
 11
132.125
 21
29.5776
 31
0.0
  0
LINE
  5
1D4
330
1E
100
AcDbEntity
  8
0
100
AcDbLine
 10
132.125
 20
29.5776
 30
0.0
 11
132.125
 21
30.34219999999999
 31
0.0
  0
LINE
  5
1D5
330
1E
100
AcDbEntity
  8
0
100
AcDbLine
 10
132.125
 20
39.008
 30
0.0
 11
132.125
 21
39.8446
 31
0.0
  0
LINE
  5
1D6
330
1E
100
AcDbEntity
  8
0
100
AcDbLine
 10
132.3489999999999
 20
18.5461
 30
0.0
 11
132.9409999999999
 21
18.5461
 31
0.0
  0
LINE
  5
1D7
330
1E
100
AcDbEntity
  8
0
100
AcDbLine
 10
132.9409999999999
 20
18.5461
 30
0.0
 11
133.6969999999999
 21
18.5461
 31
0.0
  0
LINE
  5
1D8
330
1E
100
AcDbEntity
  8
0
100
AcDbLine
 10
134.6109999999999
 20
18.5461
 30
0.0
 11
135.6719999999999
 21
18.5461
 31
0.0
  0
LINE
  5
1D9
330
1E
100
AcDbEntity
  8
0
100
AcDbLine
 10
133.257
 20
30.34219999999999
 30
0.0
 11
133.983
 21
30.34219999999999
 31
0.0
  0
LINE
  5
1DA
330
1E
100
AcDbEntity
  8
0
100
AcDbLine
 10
132.8259999999999
 20
30.34219999999999
 30
0.0
 11
133.5879999999999
 21
30.34219999999999
 31
0.0
  0
LINE
  5
1DB
330
1E
100
AcDbEntity
  8
0
100
AcDbLine
 10
132.703
 20
30.34219999999999
 30
0.0
 11
133.257
 21
30.34219999999999
 31
0.0
  0
LINE
  5
1DC
330
1E
100
AcDbEntity
  8
0
100
AcDbLine
 10
132.3269999999999
 20
30.34219999999999
 30
0.0
 11
132.703
 21
30.34219999999999
 31
0.0
  0
LINE
  5
1DD
330
1E
100
AcDbEntity
  8
0
100
AcDbLine
 10
132.23
 20
30.34219999999999
 30
0.0
 11
132.8259999999999
 21
30.34219999999999
 31
0.0
  0
LINE
  5
1DE
330
1E
100
AcDbEntity
  8
0
100
AcDbLine
 10
132.23
 20
38.86169999999999
 30
0.0
 11
132.8259999999999
 21
38.86169999999999
 31
0.0
  0
LINE
  5
1DF
330
1E
100
AcDbEntity
  8
0
100
AcDbLine
 10
132.132
 20
30.34219999999999
 30
0.0
 11
132.3269999999999
 21
30.34219999999999
 31
0.0
  0
LINE
  5
1E0
330
1E
100
AcDbEntity
  8
0
100
AcDbLine
 10
133.5879999999999
 20
38.86169999999999
 30
0.0
 11
134.5069999999999
 21
38.86169999999999
 31
0.0
  0
LINE
  5
1E1
330
1E
100
AcDbEntity
  8
0
100
AcDbLine
 10
132.132
 20
39.8446
 30
0.0
 11
132.3269999999999
 21
39.8446
 31
0.0
  0
LINE
  5
1E2
330
1E
100
AcDbEntity
  8
0
100
AcDbLine
 10
132.132
 20
39.008
 30
0.0
 11
132.3269999999999
 21
39.008
 31
0.0
  0
LINE
  5
1E3
330
1E
100
AcDbEntity
  8
0
100
AcDbLine
 10
132.703
 20
39.8446
 30
0.0
 11
133.257
 21
39.8446
 31
0.0
  0
LINE
  5
1E4
330
1E
100
AcDbEntity
  8
0
100
AcDbLine
 10
132.3269999999999
 20
39.008
 30
0.0
 11
132.703
 21
39.008
 31
0.0
  0
LINE
  5
1E5
330
1E
100
AcDbEntity
  8
0
100
AcDbLine
 10
132.3269999999999
 20
39.8446
 30
0.0
 11
132.703
 21
39.8446
 31
0.0
  0
LINE
  5
1E6
330
1E
100
AcDbEntity
  8
0
100
AcDbLine
 10
133.257
 20
39.008
 30
0.0
 11
133.984
 21
39.008
 31
0.0
  0
LINE
  5
1E7
330
1E
100
AcDbEntity
  8
0
100
AcDbLine
 10
133.257
 20
39.8446
 30
0.0
 11
133.983
 21
39.8446
 31
0.0
  0
LINE
  5
1E8
330
1E
100
AcDbEntity
  8
0
100
AcDbLine
 10
132.703
 20
39.008
 30
0.0
 11
133.257
 21
39.008
 31
0.0
  0
LINE
  5
1E9
330
1E
100
AcDbEntity
  8
0
100
AcDbLine
 10
132.8259999999999
 20
38.86169999999999
 30
0.0
 11
133.5879999999999
 21
38.86169999999999
 31
0.0
  0
LINE
  5
1EA
330
1E
100
AcDbEntity
  8
0
100
AcDbLine
 10
133.5879999999999
 20
30.34219999999999
 30
0.0
 11
134.5069999999999
 21
30.34219999999999
 31
0.0
  0
LINE
  5
1EB
330
1E
100
AcDbEntity
  8
0
100
AcDbLine
 10
133.3029999999999
 20
40.3908
 30
0.0
 11
133.8389999999999
 21
40.3908
 31
0.0
  0
LINE
  5
1EC
330
1E
100
AcDbEntity
  8
0
100
AcDbLine
 10
133.8389999999999
 20
40.3908
 30
0.0
 11
134.5389999999999
 21
40.3908
 31
0.0
  0
LINE
  5
1ED
330
1E
100
AcDbEntity
  8
0
100
AcDbLine
 10
132.9409999999999
 20
40.3908
 30
0.0
 11
133.3029999999999
 21
40.3908
 31
0.0
  0
LINE
  5
1EE
330
1E
100
AcDbEntity
  8
0
100
AcDbLine
 10
132.752
 20
40.3908
 30
0.0
 11
132.9409999999999
 21
40.3908
 31
0.0
  0
LINE
  5
1EF
330
1E
100
AcDbEntity
  8
0
100
AcDbLine
 10
133.983
 20
39.8446
 30
0.0
 11
134.874
 21
39.8446
 31
0.0
  0
LINE
  5
1F0
330
1E
100
AcDbEntity
  8
0
100
AcDbLine
 10
134.5069999999999
 20
38.86169999999999
 30
0.0
 11
135.575
 21
38.86169999999999
 31
0.0
  0
LINE
  5
1F1
330
1E
100
AcDbEntity
  8
0
100
AcDbLine
 10
134.874
 20
30.34219999999999
 30
0.0
 11
135.918
 21
30.34219999999999
 31
0.0
  0
LINE
  5
1F2
330
1E
100
AcDbEntity
  8
0
100
AcDbLine
 10
134.5069999999999
 20
30.34219999999999
 30
0.0
 11
135.575
 21
30.34219999999999
 31
0.0
  0
LINE
  5
1F3
330
1E
100
AcDbEntity
  8
0
100
AcDbLine
 10
134.874
 20
39.8446
 30
0.0
 11
135.918
 21
39.8446
 31
0.0
  0
LINE
  5
1F4
330
1E
100
AcDbEntity
  8
0
100
AcDbLine
 10
134.874
 20
39.008
 30
0.0
 11
135.918
 21
39.008
 31
0.0
  0
LINE
  5
1F5
330
1E
100
AcDbEntity
  8
0
100
AcDbLine
 10
133.984
 20
39.008
 30
0.0
 11
134.874
 21
39.008
 31
0.0
  0
LINE
  5
1F6
330
1E
100
AcDbEntity
  8
0
100
AcDbLine
 10
134.5389999999999
 20
40.3908
 30
0.0
 11
135.399
 21
40.3908
 31
0.0
  0
LINE
  5
1F7
330
1E
100
AcDbEntity
  8
0
100
AcDbLine
 10
133.983
 20
30.34219999999999
 30
0.0
 11
134.874
 21
30.34219999999999
 31
0.0
  0
LINE
  5
1F8
330
1E
100
AcDbEntity
  8
0
100
AcDbLine
 10
133.6969999999999
 20
18.5461
 30
0.0
 11
134.6109999999999
 21
18.5461
 31
0.0
  0
LINE
  5
1F9
330
1E
100
AcDbEntity
  8
0
100
AcDbLine
 10
135.575
 20
38.86169999999999
 30
0.0
 11
136.7829999999999
 21
38.86169999999999
 31
0.0
  0
LINE
  5
1FA
330
1E
100
AcDbEntity
  8
0
100
AcDbLine
 10
135.575
 20
30.34219999999999
 30
0.0
 11
136.7829999999999
 21
30.34219999999999
 31
0.0
  0
LINE
  5
1FB
330
1E
100
AcDbEntity
  8
0
100
AcDbLine
 10
135.6719999999999
 20
18.5461
 30
0.0
 11
136.872
 21
18.5461
 31
0.0
  0
LINE
  5
1FC
330
1E
100
AcDbEntity
  8
0
100
AcDbLine
 10
135.399
 20
40.3908
 30
0.0
 11
136.4079999999999
 21
40.3908
 31
0.0
  0
LINE
  5
1FD
330
1E
100
AcDbEntity
  8
0
100
AcDbLine
 10
132.125
 20
39.8446
 30
0.0
 11
132.746
 21
40.3908
 31
0.0
  0
LINE
  5
1FE
330
1E
100
AcDbEntity
  8
0
100
AcDbLine
 10
132.125
 20
39.8446
 30
0.0
 11
132.125
 21
39.008
 31
0.0
  0
LINE
  5
1FF
330
1E
100
AcDbEntity
  8
0
100
AcDbLine
 10
135.918
 20
30.34219999999999
 30
0.0
 11
137.108
 21
30.34219999999999
 31
0.0
  0
LINE
  5
201
330
1E
100
AcDbEntity
  8
0
100
AcDbLine
 10
135.918
 20
39.8446
 30
0.0
 11
137.108
 21
39.8446
 31
0.0
  0
LINE
  5
202
330
1E
100
AcDbEntity
  8
0
100
AcDbLine
 10
135.918
 20
39.008
 30
0.0
 11
137.108
 21
39.008
 31
0.0
  0
LINE
  5
203
330
1E
100
AcDbEntity
  8
0
100
AcDbLine
 10
136.417
 20
2.00000000000001
 30
0.0
 11
136.417
 21
0.0000000000000106
 31
0.0
  0
LINE
  5
204
330
1E
100
AcDbEntity
  8
0
100
AcDbLine
 10
136.417
 20
0.0000000000000105
 30
0.0
 11
137.667
 21
0.0000000000000104
 31
0.0
  0
LINE
  5
205
330
1E
100
AcDbEntity
  8
0
100
AcDbLine
 10
136.417
 20
0.0000000000000105
 30
0.0
 11
136.417
 21
2.00000000000001
 31
0.0
  0
LINE
  5
206
330
1E
100
AcDbEntity
  8
0
100
AcDbLine
 10
136.417
 20
0.0000000000000105
 30
0.0
 11
138.116
 21
0.0000000000000104
 31
0.0
  0
LINE
  5
207
330
1E
100
AcDbEntity
  8
0
100
AcDbLine
 10
136.4079999999999
 20
40.3908
 30
0.0
 11
137.555
 21
40.3908
 31
0.0
  0
LINE
  5
209
330
1E
100
AcDbEntity
  8
0
100
AcDbLine
 10
136.0759999999999
 20
48.2625
 30
0.0
 11
139.597
 21
45.1813
 31
0.0
  0
LINE
  5
20B
330
1E
100
AcDbEntity
  8
0
100
AcDbLine
 10
135.8079999999999
 20
48.6164
 30
0.0
 11
136.0759999999999
 21
48.2625
 31
0.0
  0
LINE
  5
20C
330
1E
100
AcDbEntity
  8
0
100
AcDbLine
 10
135.708
 20
49.0347
 30
0.0
 11
135.7279999999999
 21
63.0
 31
0.0
  0
LINE
  5
20D
330
1E
100
AcDbEntity
  8
0
100
AcDbLine
 10
135.708
 20
49.0347
 30
0.0
 11
135.8079999999999
 21
48.6164
 31
0.0
  0
LINE
  5
20E
330
1E
100
AcDbEntity
  8
0
100
AcDbLine
 10
131.804
 20
30.34219999999999
 30
0.0
 11
132.125
 21
30.34219999999999
 31
0.0
  0
LINE
  5
20F
330
1E
100
AcDbEntity
  8
0
100
AcDbLine
 10
131.804
 20
30.34219999999999
 30
0.0
 11
132.23
 21
30.34219999999999
 31
0.0
  0
LINE
  5
210
330
1E
100
AcDbEntity
  8
0
100
AcDbLine
 10
123.966
 20
163.0
 30
0.0
 11
128.6909999999999
 21
163.0
 31
0.0
  0
LINE
  5
211
330
1E
100
AcDbEntity
  8
0
100
AcDbLine
 10
121.001
 20
163.0
 30
0.0
 11
123.966
 21
163.0
 31
0.0
  0
LINE
  5
212
330
1E
100
AcDbEntity
  8
0
100
AcDbLine
 10
119.89
 20
163.0
 30
0.0
 11
121.001
 21
163.0
 31
0.0
  0
LINE
  5
213
330
1E
100
AcDbEntity
  8
0
100
AcDbLine
 10
118.5
 20
163.724
 30
0.0
 11
118.9629999999999
 21
163.241
 31
0.0
  0
LINE
  5
214
330
1E
100
AcDbEntity
  8
0
100
AcDbLine
 10
118.5
 20
163.724
 30
0.0
 11
118.5
 21
170.0
 31
0.0
  0
LINE
  5
215
330
1E
100
AcDbEntity
  8
0
100
AcDbLine
 10
118.5
 20
163.724
 30
0.0
 11
119.612
 21
163.724
 31
0.0
  0
LINE
  5
218
330
1E
100
AcDbEntity
  8
0
100
AcDbLine
 10
119.612
 20
163.724
 30
0.0
 11
122.7619999999999
 21
163.724
 31
0.0
  0
LINE
  5
219
330
1E
100
AcDbEntity
  8
0
100
AcDbLine
 10
127.7649999999999
 20
163.724
 30
0.0
 11
134.3429999999999
 21
163.724
 31
0.0
  0
LINE
  5
21A
330
1E
100
AcDbEntity
  8
0
100
AcDbLine
 10
134.3429999999999
 20
163.724
 30
0.0
 11
141.9399999999999
 21
163.724
 31
0.0
  0
LINE
  5
21B
330
1E
100
AcDbEntity
  8
0
100
AcDbLine
 10
127.7649999999999
 20
170.0
 30
0.0
 11
134.3429999999999
 21
170.0
 31
0.0
  0
LINE
  5
21C
330
1E
100
AcDbEntity
  8
0
100
AcDbLine
 10
134.3429999999999
 20
170.0
 30
0.0
 11
141.9399999999999
 21
170.0
 31
0.0
  0
LINE
  5
21D
330
1E
100
AcDbEntity
  8
0
100
AcDbLine
 10
122.7619999999999
 20
163.724
 30
0.0
 11
127.7649999999999
 21
163.724
 31
0.0
  0
LINE
  5
21E
330
1E
100
AcDbEntity
  8
0
100
AcDbLine
 10
122.7619999999999
 20
170.0
 30
0.0
 11
127.7649999999999
 21
170.0
 31
0.0
  0
LINE
  5
21F
330
1E
100
AcDbEntity
  8
0
100
AcDbLine
 10
119.612
 20
170.0
 30
0.0
 11
122.7619999999999
 21
170.0
 31
0.0
  0
LINE
  5
220
330
1E
100
AcDbEntity
  8
0
100
AcDbLine
 10
118.9629999999999
 20
163.241
 30
0.0
 11
119.89
 21
163.0
 31
0.0
  0
LINE
  5
221
330
1E
100
AcDbEntity
  8
0
100
AcDbLine
 10
118.5
 20
170.0
 30
0.0
 11
118.5
 21
163.724
 31
0.0
  0
LINE
  5
222
330
1E
100
AcDbEntity
  8
0
100
AcDbLine
 10
118.5
 20
170.0
 30
0.0
 11
119.612
 21
170.0
 31
0.0
  0
LINE
  5
223
330
1E
100
AcDbEntity
  8
0
100
AcDbLine
 10
128.6909999999999
 20
163.0
 30
0.0
 11
134.991
 21
163.0
 31
0.0
  0
LINE
  5
224
330
1E
100
AcDbEntity
  8
0
100
AcDbLine
 10
135.7279999999999
 20
63.0
 30
0.0
 11
135.9729999999999
 21
63.0
 31
0.0
  0
LINE
  5
225
330
1E
100
AcDbEntity
  8
0
100
AcDbLine
 10
136.4779999999999
 20
63.0
 30
0.0
 11
137.236
 21
63.0
 31
0.0
  0
LINE
  5
226
330
1E
100
AcDbEntity
  8
0
100
AcDbLine
 10
135.9729999999999
 20
63.0
 30
0.0
 11
136.4779999999999
 21
63.0
 31
0.0
  0
LINE
  5
227
330
1E
100
AcDbEntity
  8
0
100
AcDbLine
 10
134.991
 20
163.0
 30
0.0
 11
136.4999999999999
 21
163.0
 31
0.0
  0
LINE
  5
228
330
1E
100
AcDbEntity
  8
0
100
AcDbLine
 10
136.4999999999999
 20
63.0
 30
0.0
 11
136.4999999999999
 21
163.0
 31
0.0
  0
LINE
  5
229
330
1E
100
AcDbEntity
  8
0
100
AcDbLine
 10
137.0999999999999
 20
14.0
 30
0.0
 11
150.0
 21
14.0
 31
0.0
  0
LINE
  5
22A
330
1E
100
AcDbEntity
  8
0
100
AcDbLine
 10
137.4689999999999
 20
0.0000000000000105
 30
0.0
 11
137.4689999999999
 21
2.00000000000001
 31
0.0
  0
LINE
  5
22B
330
1E
100
AcDbEntity
  8
0
100
AcDbLine
 10
137.4689999999999
 20
0.0000000000000105
 30
0.0
 11
139.8839999999999
 21
0.0000000000000103
 31
0.0
  0
LINE
  5
22C
330
1E
100
AcDbEntity
  8
0
100
AcDbLine
 10
137.4689999999999
 20
0.0000000000000105
 30
0.0
 11
138.116
 21
0.0000000000000104
 31
0.0
  0
LINE
  5
22D
330
1E
100
AcDbEntity
  8
0
100
AcDbLine
 10
137.4689999999999
 20
2.00000000000001
 30
0.0
 11
139.8839999999999
 21
2.00000000000001
 31
0.0
  0
LINE
  5
22E
330
1E
100
AcDbEntity
  8
0
100
AcDbLine
 10
137.4689999999999
 20
2.00000000000001
 30
0.0
 11
137.4689999999999
 21
0.0000000000000103
 31
0.0
  0
LINE
  5
22F
330
1E
100
AcDbEntity
  8
0
100
AcDbLine
 10
137.0999999999999
 20
18.0
 30
0.0
 11
143.5
 21
18.0
 31
0.0
  0
LINE
  5
230
330
1E
100
AcDbEntity
  8
0
100
AcDbLine
 10
136.7829999999999
 20
38.86169999999999
 30
0.0
 11
138.118
 21
38.86169999999999
 31
0.0
  0
LINE
  5
231
330
1E
100
AcDbEntity
  8
0
100
AcDbLine
 10
137.108
 20
30.34219999999999
 30
0.0
 11
138.43
 21
30.34219999999999
 31
0.0
  0
LINE
  5
232
330
1E
100
AcDbEntity
  8
0
100
AcDbLine
 10
136.7829999999999
 20
30.34219999999999
 30
0.0
 11
138.118
 21
30.34219999999999
 31
0.0
  0
LINE
  5
233
330
1E
100
AcDbEntity
  8
0
100
AcDbLine
 10
137.108
 20
39.008
 30
0.0
 11
138.43
 21
39.008
 31
0.0
  0
LINE
  5
234
330
1E
100
AcDbEntity
  8
0
100
AcDbLine
 10
137.108
 20
39.8446
 30
0.0
 11
138.43
 21
39.8446
 31
0.0
  0
LINE
  5
235
330
1E
100
AcDbEntity
  8
0
100
AcDbLine
 10
136.872
 20
18.5461
 30
0.0
 11
138.197
 21
18.5461
 31
0.0
  0
LINE
  5
236
330
1E
100
AcDbEntity
  8
0
100
AcDbLine
 10
137.667
 20
0.0000000000000104
 30
0.0
 11
139.833
 21
0.0000000000000103
 31
0.0
  0
LINE
  5
237
330
1E
100
AcDbEntity
  8
0
100
AcDbLine
 10
138.116
 20
0.0000000000000104
 30
0.0
 11
140.531
 21
0.0000000000000103
 31
0.0
  0
LINE
  5
238
330
1E
100
AcDbEntity
  8
0
100
AcDbLine
 10
138.118
 20
38.86169999999999
 30
0.0
 11
139.566
 21
38.86169999999999
 31
0.0
  0
LINE
  5
239
330
1E
100
AcDbEntity
  8
0
100
AcDbLine
 10
138.118
 20
30.34219999999999
 30
0.0
 11
139.566
 21
30.34219999999999
 31
0.0
  0
LINE
  5
23A
330
1E
100
AcDbEntity
  8
0
100
AcDbLine
 10
138.197
 20
18.5461
 30
0.0
 11
139.637
 21
18.5461
 31
0.0
  0
LINE
  5
23B
330
1E
100
AcDbEntity
  8
0
100
AcDbLine
 10
137.555
 20
40.3908
 30
0.0
 11
138.831
 21
40.3908
 31
0.0
  0
LINE
  5
23C
330
1E
100
AcDbEntity
  8
0
100
AcDbLine
 10
136.7369999999999
 20
40.6092
 30
0.0
 11
137.9029999999999
 21
42.0692
 31
0.0
  0
LINE
  5
23D
330
1E
100
AcDbEntity
  8
0
100
AcDbLine
 10
136.607221885075
 20
40.3908
 30
0.0
 11
136.7369999999999
 21
40.6092
 31
0.0
  0
LINE
  5
23F
330
1E
100
AcDbEntity
  8
0
100
AcDbLine
 10
137.236
 20
63.0
 30
0.0
 11
138.2309999999999
 21
63.0
 31
0.0
  0
LINE
  5
240
330
1E
100
AcDbEntity
  8
0
100
AcDbLine
 10
138.2309999999999
 20
63.0
 30
0.0
 11
139.4449999999999
 21
63.0
 31
0.0
  0
LINE
  5
243
330
1E
100
AcDbEntity
  8
0
100
AcDbLine
 10
137.9029999999999
 20
42.0692
 30
0.0
 11
139.277
 21
43.38409999999999
 31
0.0
  0
LINE
  5
244
330
1E
100
AcDbEntity
  8
0
100
AcDbLine
 10
136.4999999999999
 20
163.0
 30
0.0
 11
136.9859999999999
 21
163.0
 31
0.0
  0
LINE
  5
245
330
1E
100
AcDbEntity
  8
0
100
AcDbLine
 10
136.9859999999999
 20
163.0
 30
0.0
 11
138.282
 21
163.0
 31
0.0
  0
LINE
  5
246
330
1E
100
AcDbEntity
  8
0
100
AcDbLine
 10
138.43
 20
39.8446
 30
0.0
 11
139.8689999999999
 21
39.8446
 31
0.0
  0
LINE
  5
247
330
1E
100
AcDbEntity
  8
0
100
AcDbLine
 10
138.43
 20
39.008
 30
0.0
 11
139.8689999999999
 21
39.008
 31
0.0
  0
LINE
  5
248
330
1E
100
AcDbEntity
  8
0
100
AcDbLine
 10
138.583
 20
0.0000000000000104
 30
0.0
 11
139.833
 21
0.0000000000000103
 31
0.0
  0
LINE
  5
249
330
1E
100
AcDbEntity
  8
0
100
AcDbLine
 10
138.43
 20
30.34219999999999
 30
0.0
 11
139.8689999999999
 21
30.34219999999999
 31
0.0
  0
LINE
  5
24A
330
1E
100
AcDbEntity
  8
0
100
AcDbLine
 10
138.831
 20
40.3908
 30
0.0
 11
140.221
 21
40.3908
 31
0.0
  0
LINE
  5
24D
330
1E
100
AcDbEntity
  8
0
100
AcDbLine
 10
139.277
 20
43.38409999999999
 30
0.0
 11
139.5369999999999
 21
43.60079999999999
 31
0.0
  0
LINE
  5
250
330
1E
100
AcDbEntity
  8
0
100
AcDbLine
 10
139.8839999999999
 20
2.00000000000001
 30
0.0
 11
140.531
 21
2.00000000000001
 31
0.0
  0
LINE
  5
251
330
1E
100
AcDbEntity
  8
0
100
AcDbLine
 10
139.8839999999999
 20
2.00000000000001
 30
0.0
 11
139.8839999999999
 21
0.0000000000000103
 31
0.0
  0
LINE
  5
252
330
1E
100
AcDbEntity
  8
0
100
AcDbLine
 10
139.833
 20
0.0000000000000103
 30
0.0
 11
139.8839999999999
 21
0.0000000000000103
 31
0.0
  0
LINE
  5
253
330
1E
100
AcDbEntity
  8
0
100
AcDbLine
 10
139.8839999999999
 20
0.0000000000000103
 30
0.0
 11
140.531
 21
0.0000000000000103
 31
0.0
  0
LINE
  5
254
330
1E
100
AcDbEntity
  8
0
100
AcDbLine
 10
139.8839999999999
 20
0.0000000000000103
 30
0.0
 11
139.8839999999999
 21
2.00000000000001
 31
0.0
  0
LINE
  5
255
330
1E
100
AcDbEntity
  8
0
100
AcDbLine
 10
139.8689999999999
 20
30.34219999999999
 30
0.0
 11
141.4129999999999
 21
30.34219999999999
 31
0.0
  0
LINE
  5
256
330
1E
100
AcDbEntity
  8
0
100
AcDbLine
 10
139.637
 20
18.5461
 30
0.0
 11
141.175
 21
18.5461
 31
0.0
  0
LINE
  5
257
330
1E
100
AcDbEntity
  8
0
100
AcDbLine
 10
139.8689999999999
 20
39.8446
 30
0.0
 11
141.4129999999999
 21
39.8446
 31
0.0
  0
LINE
  5
258
330
1E
100
AcDbEntity
  8
0
100
AcDbLine
 10
139.8689999999999
 20
39.008
 30
0.0
 11
141.4129999999999
 21
39.008
 31
0.0
  0
LINE
  5
259
330
1E
100
AcDbEntity
  8
0
100
AcDbLine
 10
139.566
 20
38.86169999999999
 30
0.0
 11
141.117
 21
38.86169999999999
 31
0.0
  0
LINE
  5
25A
330
1E
100
AcDbEntity
  8
0
100
AcDbLine
 10
139.566
 20
30.34219999999999
 30
0.0
 11
141.117
 21
30.34219999999999
 31
0.0
  0
LINE
  5
25B
330
1E
100
AcDbEntity
  8
0
100
AcDbLine
 10
140.531
 20
0.0000000000000103
 30
0.0
 11
140.531
 21
2.00000000000001
 31
0.0
  0
LINE
  5
25C
330
1E
100
AcDbEntity
  8
0
100
AcDbLine
 10
142.322
 20
2.00000000000001
 30
0.0
 11
142.322
 21
0.00000000000001
 31
0.0
  0
LINE
  5
25D
330
1E
100
AcDbEntity
  8
0
100
AcDbLine
 10
142.322
 20
2.00000000000001
 30
0.0
 11
144.738
 21
2.00000000000001
 31
0.0
  0
LINE
  5
25E
330
1E
100
AcDbEntity
  8
0
100
AcDbLine
 10
142.322
 20
0.0000000000000102
 30
0.0
 11
142.9689999999999
 21
0.0000000000000101
 31
0.0
  0
LINE
  5
25F
330
1E
100
AcDbEntity
  8
0
100
AcDbLine
 10
142.322
 20
0.0000000000000102
 30
0.0
 11
142.322
 21
2.00000000000001
 31
0.0
  0
LINE
  5
260
330
1E
100
AcDbEntity
  8
0
100
AcDbLine
 10
142.322
 20
0.0000000000000102
 30
0.0
 11
144.738
 21
0.00000000000001
 31
0.0
  0
LINE
  5
261
330
1E
100
AcDbEntity
  8
0
100
AcDbLine
 10
140.531
 20
2.00000000000001
 30
0.0
 11
142.322
 21
2.00000000000001
 31
0.0
  0
LINE
  5
262
330
1E
100
AcDbEntity
  8
0
100
AcDbLine
 10
140.531
 20
2.00000000000001
 30
0.0
 11
140.531
 21
0.0000000000000103
 31
0.0
  0
LINE
  5
263
330
1E
100
AcDbEntity
  8
0
100
AcDbLine
 10
141.117
 20
38.86169999999999
 30
0.0
 11
142.751
 21
38.86169999999999
 31
0.0
  0
LINE
  5
264
330
1E
100
AcDbEntity
  8
0
100
AcDbLine
 10
141.4129999999999
 20
30.34219999999999
 30
0.0
 11
143.0459999999999
 21
30.34219999999999
 31
0.0
  0
LINE
  5
265
330
1E
100
AcDbEntity
  8
0
100
AcDbLine
 10
141.4129999999999
 20
39.8446
 30
0.0
 11
143.0459999999999
 21
39.8446
 31
0.0
  0
LINE
  5
266
330
1E
100
AcDbEntity
  8
0
100
AcDbLine
 10
141.4129999999999
 20
39.008
 30
0.0
 11
143.0459999999999
 21
39.008
 31
0.0
  0
LINE
  5
267
330
1E
100
AcDbEntity
  8
0
100
AcDbLine
 10
142.751
 20
38.86169999999999
 30
0.0
 11
144.455
 21
38.86169999999999
 31
0.0
  0
LINE
  5
268
330
1E
100
AcDbEntity
  8
0
100
AcDbLine
 10
142.751
 20
30.34219999999999
 30
0.0
 11
144.455
 21
30.34219999999999
 31
0.0
  0
LINE
  5
269
330
1E
100
AcDbEntity
  8
0
100
AcDbLine
 10
141.117
 20
30.34219999999999
 30
0.0
 11
142.751
 21
30.34219999999999
 31
0.0
  0
LINE
  5
26A
330
1E
100
AcDbEntity
  8
0
100
AcDbLine
 10
141.175
 20
18.5461
 30
0.0
 11
142.8
 21
18.5461
 31
0.0
  0
LINE
  5
26B
330
1E
100
AcDbEntity
  8
0
100
AcDbLine
 10
142.9689999999999
 20
0.0000000000000101
 30
0.0
 11
145.3839999999999
 21
0.00000000000001
 31
0.0
  0
LINE
  5
26C
330
1E
100
AcDbEntity
  8
0
100
AcDbLine
 10
143.0459999999999
 20
39.8446
 30
0.0
 11
144.7499999999999
 21
39.8446
 31
0.0
  0
LINE
  5
26D
330
1E
100
AcDbEntity
  8
0
100
AcDbLine
 10
143.0459999999999
 20
39.008
 30
0.0
 11
144.7499999999999
 21
39.008
 31
0.0
  0
LINE
  5
26E
330
1E
100
AcDbEntity
  8
0
100
AcDbLine
 10
143.0459999999999
 20
30.34219999999999
 30
0.0
 11
144.7499999999999
 21
30.34219999999999
 31
0.0
  0
LINE
  5
26F
330
1E
100
AcDbEntity
  8
0
100
AcDbLine
 10
142.8
 20
18.5461
 30
0.0
 11
144.493
 21
18.5461
 31
0.0
  0
LINE
  5
270
330
1E
100
AcDbEntity
  8
0
100
AcDbLine
 10
143.287
 20
40.3908
 30
0.0
 11
144.931
 21
40.3908
 31
0.0
  0
LINE
  5
271
330
1E
100
AcDbEntity
  8
0
100
AcDbLine
 10
140.221
 20
40.3908
 30
0.0
 11
141.712
 21
40.3908
 31
0.0
  0
LINE
  5
272
330
1E
100
AcDbEntity
  8
0
100
AcDbLine
 10
141.712
 20
40.3908
 30
0.0
 11
143.287
 21
40.3908
 31
0.0
  0
LINE
  5
273
330
1E
100
AcDbEntity
  8
0
100
AcDbLine
 10
139.5369999999999
 20
43.60079999999999
 30
0.0
 11
139.8429999999999
 21
43.9558
 31
0.0
  0
LINE
  5
275
330
1E
100
AcDbEntity
  8
0
100
AcDbLine
 10
139.4449999999999
 20
63.0
 30
0.0
 11
140.8539999999999
 21
63.0
 31
0.0
  0
LINE
  5
276
330
1E
100
AcDbEntity
  8
0
100
AcDbLine
 10
139.597
 20
45.1813
 30
0.0
 11
139.866
 21
44.8143
 31
0.0
  0
LINE
  5
27D
330
1E
100
AcDbEntity
  8
0
100
AcDbLine
 10
140.8539999999999
 20
63.0
 30
0.0
 11
142.436
 21
63.0
 31
0.0
  0
LINE
  5
282
330
1E
100
AcDbEntity
  8
0
100
AcDbLine
 10
142.436
 20
63.0
 30
0.0
 11
144.157
 21
63.0
 31
0.0
  0
LINE
  5
286
330
1E
100
AcDbEntity
  8
0
100
AcDbLine
 10
139.866
 20
44.8143
 30
0.0
 11
139.955
 21
44.3828
 31
0.0
  0
LINE
  5
287
330
1E
100
AcDbEntity
  8
0
100
AcDbLine
 10
139.8429999999999
 20
43.9558
 30
0.0
 11
139.955
 21
44.3828
 31
0.0
  0
LINE
  5
288
330
1E
100
AcDbEntity
  8
0
100
AcDbLine
 10
138.282
 20
163.0
 30
0.0
 11
140.442
 21
163.0
 31
0.0
  0
LINE
  5
289
330
1E
100
AcDbEntity
  8
0
100
AcDbLine
 10
140.442
 20
163.0
 30
0.0
 11
143.304
 21
163.0
 31
0.0
  0
LINE
  5
28A
330
1E
100
AcDbEntity
  8
0
100
AcDbLine
 10
144.216
 20
0.00000000000001
 30
0.0
 11
144.792
 21
0.00000000000001
 31
0.0
  0
LINE
  5
28B
330
1E
100
AcDbEntity
  8
0
100
AcDbLine
 10
144.0
 20
0.0000000000000101
 30
0.0
 11
144.216
 21
0.00000000000001
 31
0.0
  0
LINE
  5
28C
330
1E
100
AcDbEntity
  8
0
100
AcDbLine
 10
143.5
 20
18.0
 30
0.0
 11
150.0
 21
18.0
 31
0.0
  0
LINE
  5
28D
330
1E
100
AcDbEntity
  8
0
100
AcDbLine
 10
144.738
 20
2.00000000000001
 30
0.0
 11
145.3839999999999
 21
2.00000000000001
 31
0.0
  0
LINE
  5
28E
330
1E
100
AcDbEntity
  8
0
100
AcDbLine
 10
144.738
 20
2.00000000000001
 30
0.0
 11
144.738
 21
0.00000000000001
 31
0.0
  0
LINE
  5
28F
330
1E
100
AcDbEntity
  8
0
100
AcDbLine
 10
144.792
 20
0.00000000000001
 30
0.0
 11
145.752
 21
0.0000000000000099
 31
0.0
  0
LINE
  5
290
330
1E
100
AcDbEntity
  8
0
100
AcDbLine
 10
145.752
 20
0.0000000000000099
 30
0.0
 11
147.0239999999999
 21
0.0000000000000099
 31
0.0
  0
LINE
  5
291
330
1E
100
AcDbEntity
  8
0
100
AcDbLine
 10
145.3839999999999
 20
0.00000000000001
 30
0.0
 11
145.3839999999999
 21
2.00000000000001
 31
0.0
  0
LINE
  5
292
330
1E
100
AcDbEntity
  8
0
100
AcDbLine
 10
145.3839999999999
 20
2.00000000000001
 30
0.0
 11
145.3839999999999
 21
0.00000000000001
 31
0.0
  0
LINE
  5
293
330
1E
100
AcDbEntity
  8
0
100
AcDbLine
 10
144.738
 20
0.00000000000001
 30
0.0
 11
145.3839999999999
 21
0.00000000000001
 31
0.0
  0
LINE
  5
294
330
1E
100
AcDbEntity
  8
0
100
AcDbLine
 10
144.738
 20
0.00000000000001
 30
0.0
 11
144.738
 21
2.00000000000001
 31
0.0
  0
LINE
  5
295
330
1E
100
AcDbEntity
  8
0
100
AcDbLine
 10
145.752
 20
2.00000000000001
 30
0.0
 11
147.0239999999999
 21
2.00000000000001
 31
0.0
  0
LINE
  5
296
330
1E
100
AcDbEntity
  8
0
100
AcDbLine
 10
144.493
 20
18.5461
 30
0.0
 11
146.238
 21
18.5461
 31
0.0
  0
LINE
  5
297
330
1E
100
AcDbEntity
  8
0
100
AcDbLine
 10
144.455
 20
30.34219999999999
 30
0.0
 11
146.2129999999999
 21
30.34219999999999
 31
0.0
  0
LINE
  5
298
330
1E
100
AcDbEntity
  8
0
100
AcDbLine
 10
144.7499999999999
 20
39.008
 30
0.0
 11
146.506
 21
39.008
 31
0.0
  0
LINE
  5
299
330
1E
100
AcDbEntity
  8
0
100
AcDbLine
 10
144.455
 20
38.86169999999999
 30
0.0
 11
146.2129999999999
 21
38.86169999999999
 31
0.0
  0
LINE
  5
29A
330
1E
100
AcDbEntity
  8
0
100
AcDbLine
 10
144.7499999999999
 20
30.34219999999999
 30
0.0
 11
146.506
 21
30.34219999999999
 31
0.0
  0
LINE
  5
29B
330
1E
100
AcDbEntity
  8
0
100
AcDbLine
 10
146.2129999999999
 20
38.86169999999999
 30
0.0
 11
148.0069999999999
 21
38.86169999999999
 31
0.0
  0
LINE
  5
29C
330
1E
100
AcDbEntity
  8
0
100
AcDbLine
 10
146.2129999999999
 20
30.34219999999999
 30
0.0
 11
148.0069999999999
 21
30.34219999999999
 31
0.0
  0
LINE
  5
29D
330
1E
100
AcDbEntity
  8
0
100
AcDbLine
 10
146.506
 20
30.34219999999999
 30
0.0
 11
148.299
 21
30.34219999999999
 31
0.0
  0
LINE
  5
29F
330
1E
100
AcDbEntity
  8
0
100
AcDbLine
 10
144.7499999999999
 20
39.8446
 30
0.0
 11
146.506
 21
39.8446
 31
0.0
  0
LINE
  5
2A0
330
1E
100
AcDbEntity
  8
0
100
AcDbLine
 10
146.506
 20
39.8446
 30
0.0
 11
148.299
 21
39.8446
 31
0.0
  0
LINE
  5
2A1
330
1E
100
AcDbEntity
  8
0
100
AcDbLine
 10
146.506
 20
39.008
 30
0.0
 11
148.3
 21
39.008
 31
0.0
  0
LINE
  5
2A2
330
1E
100
AcDbEntity
  8
0
100
AcDbLine
 10
146.238
 20
18.5461
 30
0.0
 11
148.02
 21
18.5461
 31
0.0
  0
LINE
  5
2A3
330
1E
100
AcDbEntity
  8
0
100
AcDbLine
 10
147.0239999999999
 20
0.0000000000000099
 30
0.0
 11
148.4639999999999
 21
0.0000000000000098
 31
0.0
  0
LINE
  5
2A4
330
1E
100
AcDbEntity
  8
0
100
AcDbLine
 10
147.0239999999999
 20
2.00000000000001
 30
0.0
 11
148.4639999999999
 21
2.00000000000001
 31
0.0
  0
LINE
  5
2A5
330
1E
100
AcDbEntity
  8
0
100
AcDbLine
 10
148.4639999999999
 20
0.0000000000000098
 30
0.0
 11
148.75
 21
0.0000000000000098
 31
0.0
  0
LINE
  5
2A6
330
1E
100
AcDbEntity
  8
0
100
AcDbLine
 10
148.75
 20
2.00000000000001
 30
0.0
 11
148.75
 21
0.0000000000000097
 31
0.0
  0
LINE
  5
2A7
330
1E
100
AcDbEntity
  8
0
100
AcDbLine
 10
148.75
 20
2.00000000000001
 30
0.0
 11
150.0
 21
2.00000000000001
 31
0.0
  0
LINE
  5
2A8
330
1E
100
AcDbEntity
  8
0
100
AcDbLine
 10
148.75
 20
0.0000000000000098
 30
0.0
 11
151.25
 21
0.0000000000000096
 31
0.0
  0
LINE
  5
2A9
330
1E
100
AcDbEntity
  8
0
100
AcDbLine
 10
148.75
 20
0.0000000000000098
 30
0.0
 11
148.75
 21
2.00000000000001
 31
0.0
  0
LINE
  5
2AA
330
1E
100
AcDbEntity
  8
0
100
AcDbLine
 10
148.4639999999999
 20
2.00000000000001
 30
0.0
 11
148.75
 21
2.00000000000001
 31
0.0
  0
LINE
  5
2AC
330
1E
100
AcDbEntity
  8
0
100
AcDbLine
 10
148.0069999999999
 20
38.86169999999999
 30
0.0
 11
149.8199999999999
 21
38.86169999999999
 31
0.0
  0
LINE
  5
2AD
330
1E
100
AcDbEntity
  8
0
100
AcDbLine
 10
148.299
 20
39.8446
 30
0.0
 11
149.989
 21
39.8446
 31
0.0
  0
LINE
  5
2AE
330
1E
100
AcDbEntity
  8
0
100
AcDbLine
 10
148.299
 20
30.34219999999999
 30
0.0
 11
149.989
 21
30.34219999999999
 31
0.0
  0
LINE
  5
2B0
330
1E
100
AcDbEntity
  8
0
100
AcDbLine
 10
148.0069999999999
 20
30.34219999999999
 30
0.0
 11
149.8199999999999
 21
30.34219999999999
 31
0.0
  0
LINE
  5
2B3
330
1E
100
AcDbEntity
  8
0
100
AcDbLine
 10
149.8199999999999
 20
38.86169999999999
 30
0.0
 11
149.989
 21
38.86169999999999
 31
0.0
  0
LINE
  5
2B5
330
1E
100
AcDbEntity
  8
0
100
AcDbLine
 10
148.3
 20
39.008
 30
0.0
 11
149.989
 21
39.008
 31
0.0
  0
LINE
  5
2B6
330
1E
100
AcDbEntity
  8
0
100
AcDbLine
 10
149.8199999999999
 20
30.34219999999999
 30
0.0
 11
149.989
 21
30.34219999999999
 31
0.0
  0
LINE
  5
2BA
330
1E
100
AcDbEntity
  8
0
100
AcDbLine
 10
148.02
 20
18.5461
 30
0.0
 11
149.822
 21
18.5461
 31
0.0
  0
LINE
  5
2BC
330
1E
100
AcDbEntity
  8
0
100
AcDbLine
 10
149.989
 20
18.5461
 30
0.0
 11
150.157
 21
18.5461
 31
0.0
  0
LINE
  5
2BD
330
1E
100
AcDbEntity
  8
0
100
AcDbLine
 10
150.0
 20
14.0
 30
0.0
 11
169.5
 21
14.0
 31
0.0
  0
LINE
  5
2BE
330
1E
100
AcDbEntity
  8
0
100
AcDbLine
 10
150.0
 20
13.0
 30
0.0
 11
169.5
 21
13.0
 31
0.0
  0
LINE
  5
2BF
330
1E
100
AcDbEntity
  8
0
100
AcDbLine
 10
150.0
 20
3.000000000000009
 30
0.0
 11
169.5
 21
3.000000000000009
 31
0.0
  0
LINE
  5
2C0
330
1E
100
AcDbEntity
  8
0
100
AcDbLine
 10
150.0
 20
2.00000000000001
 30
0.0
 11
169.5
 21
2.00000000000001
 31
0.0
  0
LINE
  5
2C1
330
1E
100
AcDbEntity
  8
0
100
AcDbLine
 10
150.0
 20
18.0
 30
0.0
 11
156.4999999999999
 21
18.0
 31
0.0
  0
LINE
  5
2C2
330
1E
100
AcDbEntity
  8
0
100
AcDbLine
 10
151.536
 20
0.0000000000000096
 30
0.0
 11
152.976
 21
0.0000000000000095
 31
0.0
  0
LINE
  5
2C3
330
1E
100
AcDbEntity
  8
0
100
AcDbLine
 10
151.25
 20
2.00000000000001
 30
0.0
 11
151.25
 21
0.0000000000000097
 31
0.0
  0
LINE
  5
2C4
330
1E
100
AcDbEntity
  8
0
100
AcDbLine
 10
151.25
 20
0.0000000000000096
 30
0.0
 11
151.25
 21
2.00000000000001
 31
0.0
  0
LINE
  5
2C5
330
1E
100
AcDbEntity
  8
0
100
AcDbLine
 10
151.25
 20
0.0000000000000096
 30
0.0
 11
151.536
 21
0.0000000000000096
 31
0.0
  0
LINE
  5
2C6
330
1E
100
AcDbEntity
  8
0
100
AcDbLine
 10
152.976
 20
0.0000000000000095
 30
0.0
 11
154.2479999999999
 21
0.0000000000000094
 31
0.0
  0
LINE
  5
2C7
330
1E
100
AcDbEntity
  8
0
100
AcDbLine
 10
152.976
 20
2.00000000000001
 30
0.0
 11
154.2479999999999
 21
2.00000000000001
 31
0.0
  0
LINE
  5
2C8
330
1E
100
AcDbEntity
  8
0
100
AcDbLine
 10
151.536
 20
2.00000000000001
 30
0.0
 11
152.976
 21
2.00000000000001
 31
0.0
  0
LINE
  5
2CA
330
1E
100
AcDbEntity
  8
0
100
AcDbLine
 10
150.157
 20
18.5461
 30
0.0
 11
151.9579999999999
 21
18.5461
 31
0.0
  0
LINE
  5
2CC
330
1E
100
AcDbEntity
  8
0
100
AcDbLine
 10
151.9579999999999
 20
18.5461
 30
0.0
 11
153.74
 21
18.5461
 31
0.0
  0
LINE
  5
2CD
330
1E
100
AcDbEntity
  8
0
100
AcDbLine
 10
155.208
 20
0.0000000000000094
 30
0.0
 11
155.262
 21
0.0000000000000094
 31
0.0
  0
LINE
  5
2CE
330
1E
100
AcDbEntity
  8
0
100
AcDbLine
 10
155.208
 20
0.0000000000000094
 30
0.0
 11
155.262
 21
0.0000000000000094
 31
0.0
  0
LINE
  5
2CF
330
1E
100
AcDbEntity
  8
0
100
AcDbLine
 10
154.2479999999999
 20
0.0000000000000094
 30
0.0
 11
155.208
 21
0.0000000000000094
 31
0.0
  0
LINE
  5
2D0
330
1E
100
AcDbEntity
  8
0
100
AcDbLine
 10
155.262
 20
2.00000000000001
 30
0.0
 11
155.262
 21
0.0000000000000094
 31
0.0
  0
LINE
  5
2D1
330
1E
100
AcDbEntity
  8
0
100
AcDbLine
 10
154.616
 20
2.00000000000001
 30
0.0
 11
154.616
 21
0.0000000000000094
 31
0.0
  0
LINE
  5
2D2
330
1E
100
AcDbEntity
  8
0
100
AcDbLine
 10
154.616
 20
0.0000000000000094
 30
0.0
 11
155.262
 21
0.0000000000000094
 31
0.0
  0
LINE
  5
2D3
330
1E
100
AcDbEntity
  8
0
100
AcDbLine
 10
154.616
 20
0.0000000000000094
 30
0.0
 11
155.262
 21
0.0000000000000094
 31
0.0
  0
LINE
  5
2D4
330
1E
100
AcDbEntity
  8
0
100
AcDbLine
 10
154.616
 20
0.0000000000000094
 30
0.0
 11
154.616
 21
2.00000000000001
 31
0.0
  0
LINE
  5
2D5
330
1E
100
AcDbEntity
  8
0
100
AcDbLine
 10
155.262
 20
0.0000000000000094
 30
0.0
 11
155.262
 21
2.00000000000001
 31
0.0
  0
LINE
  5
2D6
330
1E
100
AcDbEntity
  8
0
100
AcDbLine
 10
155.262
 20
0.0000000000000094
 30
0.0
 11
157.678
 21
0.0000000000000092
 31
0.0
  0
LINE
  5
2D7
330
1E
100
AcDbEntity
  8
0
100
AcDbLine
 10
154.2479999999999
 20
2.00000000000001
 30
0.0
 11
154.616
 21
2.00000000000001
 31
0.0
  0
LINE
  5
2D8
330
1E
100
AcDbEntity
  8
0
100
AcDbLine
 10
155.7839999999999
 20
0.0000000000000093
 30
0.0
 11
156.0
 21
0.0000000000000093
 31
0.0
  0
LINE
  5
2D9
330
1E
100
AcDbEntity
  8
0
100
AcDbLine
 10
159.4689999999999
 20
0.0000000000000091
 30
0.0
 11
160.116
 21
0.0000000000000091
 31
0.0
  0
LINE
  5
2DA
330
1E
100
AcDbEntity
  8
0
100
AcDbLine
 10
159.4689999999999
 20
0.0000000000000091
 30
0.0
 11
161.8839999999999
 21
0.000000000000009
 31
0.0
  0
LINE
  5
2DB
330
1E
100
AcDbEntity
  8
0
100
AcDbLine
 10
159.4689999999999
 20
0.0000000000000091
 30
0.0
 11
159.4689999999999
 21
2.00000000000001
 31
0.0
  0
LINE
  5
2DC
330
1E
100
AcDbEntity
  8
0
100
AcDbLine
 10
159.4689999999999
 20
2.00000000000001
 30
0.0
 11
159.4689999999999
 21
0.0000000000000091
 31
0.0
  0
LINE
  5
2DD
330
1E
100
AcDbEntity
  8
0
100
AcDbLine
 10
157.678
 20
2.00000000000001
 30
0.0
 11
157.678
 21
0.0000000000000091
 31
0.0
  0
LINE
  5
2DE
330
1E
100
AcDbEntity
  8
0
100
AcDbLine
 10
157.031
 20
0.0000000000000093
 30
0.0
 11
157.678
 21
0.0000000000000092
 31
0.0
  0
LINE
  5
2DF
330
1E
100
AcDbEntity
  8
0
100
AcDbLine
 10
157.678
 20
0.0000000000000092
 30
0.0
 11
157.678
 21
2.00000000000001
 31
0.0
  0
LINE
  5
2E0
330
1E
100
AcDbEntity
  8
0
100
AcDbLine
 10
156.0
 20
2.00000000000001
 30
0.0
 11
159.4689999999999
 21
2.00000000000001
 31
0.0
  0
LINE
  5
2E1
330
1E
100
AcDbEntity
  8
0
100
AcDbLine
 10
156.4999999999999
 20
18.0
 30
0.0
 11
162.9
 21
18.0
 31
0.0
  0
LINE
  5
2E2
330
1E
100
AcDbEntity
  8
0
100
AcDbLine
 10
155.4859999999999
 20
18.5461
 30
0.0
 11
157.179
 21
18.5461
 31
0.0
  0
LINE
  5
2E3
330
1E
100
AcDbEntity
  8
0
100
AcDbLine
 10
157.179
 20
18.5461
 30
0.0
 11
158.803
 21
18.5461
 31
0.0
  0
LINE
  5
2E4
330
1E
100
AcDbEntity
  8
0
100
AcDbLine
 10
153.74
 20
18.5461
 30
0.0
 11
155.4859999999999
 21
18.5461
 31
0.0
  0
LINE
  5
2E5
330
1E
100
AcDbEntity
  8
0
100
AcDbLine
 10
158.803
 20
18.5461
 30
0.0
 11
160.341
 21
18.5461
 31
0.0
  0
LINE
  5
2E9
330
1E
100
AcDbEntity
  8
0
100
AcDbLine
 10
149.989
 20
39.8446
 30
0.0
 11
151.68
 21
39.8446
 31
0.0
  0
LINE
  5
2EA
330
1E
100
AcDbEntity
  8
0
100
AcDbLine
 10
149.989
 20
39.008
 30
0.0
 11
151.6779999999999
 21
39.008
 31
0.0
  0
LINE
  5
2EC
330
1E
100
AcDbEntity
  8
0
100
AcDbLine
 10
149.989
 20
38.86169999999999
 30
0.0
 11
150.1579999999999
 21
38.86169999999999
 31
0.0
  0
LINE
  5
2ED
330
1E
100
AcDbEntity
  8
0
100
AcDbLine
 10
149.989
 20
30.34219999999999
 30
0.0
 11
150.1579999999999
 21
30.34219999999999
 31
0.0
  0
LINE
  5
2EE
330
1E
100
AcDbEntity
  8
0
100
AcDbLine
 10
149.989
 20
30.34219999999999
 30
0.0
 11
151.68
 21
30.34219999999999
 31
0.0
  0
LINE
  5
2EF
330
1E
100
AcDbEntity
  8
0
100
AcDbLine
 10
149.989
 20
40.3908
 30
0.0
 11
151.621
 21
40.3908
 31
0.0
  0
LINE
  5
2F3
330
1E
100
AcDbEntity
  8
0
100
AcDbLine
 10
151.68
 20
30.34219999999999
 30
0.0
 11
153.472
 21
30.34219999999999
 31
0.0
  0
LINE
  5
2F5
330
1E
100
AcDbEntity
  8
0
100
AcDbLine
 10
150.1579999999999
 20
30.34219999999999
 30
0.0
 11
151.972
 21
30.34219999999999
 31
0.0
  0
LINE
  5
2F6
330
1E
100
AcDbEntity
  8
0
100
AcDbLine
 10
153.765
 20
30.34219999999999
 30
0.0
 11
155.5229999999999
 21
30.34219999999999
 31
0.0
  0
LINE
  5
2F7
330
1E
100
AcDbEntity
  8
0
100
AcDbLine
 10
155.5229999999999
 20
30.34219999999999
 30
0.0
 11
157.227
 21
30.34219999999999
 31
0.0
  0
LINE
  5
2F8
330
1E
100
AcDbEntity
  8
0
100
AcDbLine
 10
155.2289999999999
 20
30.34219999999999
 30
0.0
 11
156.9329999999999
 21
30.34219999999999
 31
0.0
  0
LINE
  5
2F9
330
1E
100
AcDbEntity
  8
0
100
AcDbLine
 10
156.9329999999999
 20
30.34219999999999
 30
0.0
 11
158.565
 21
30.34219999999999
 31
0.0
  0
LINE
  5
2FA
330
1E
100
AcDbEntity
  8
0
100
AcDbLine
 10
157.227
 20
30.34219999999999
 30
0.0
 11
158.8619999999999
 21
30.34219999999999
 31
0.0
  0
LINE
  5
2FB
330
1E
100
AcDbEntity
  8
0
100
AcDbLine
 10
153.472
 20
30.34219999999999
 30
0.0
 11
155.2289999999999
 21
30.34219999999999
 31
0.0
  0
LINE
  5
2FC
330
1E
100
AcDbEntity
  8
0
100
AcDbLine
 10
151.972
 20
30.34219999999999
 30
0.0
 11
153.765
 21
30.34219999999999
 31
0.0
  0
LINE
  5
2FD
330
1E
100
AcDbEntity
  8
0
100
AcDbLine
 10
158.565
 20
30.34219999999999
 30
0.0
 11
160.109
 21
30.34219999999999
 31
0.0
  0
LINE
  5
2FE
330
1E
100
AcDbEntity
  8
0
100
AcDbLine
 10
150.1579999999999
 20
38.86169999999999
 30
0.0
 11
151.972
 21
38.86169999999999
 31
0.0
  0
LINE
  5
2FF
330
1E
100
AcDbEntity
  8
0
100
AcDbLine
 10
151.6779999999999
 20
39.008
 30
0.0
 11
153.472
 21
39.008
 31
0.0
  0
LINE
  5
300
330
1E
100
AcDbEntity
  8
0
100
AcDbLine
 10
153.765
 20
38.86169999999999
 30
0.0
 11
155.5229999999999
 21
38.86169999999999
 31
0.0
  0
LINE
  5
301
330
1E
100
AcDbEntity
  8
0
100
AcDbLine
 10
155.5229999999999
 20
38.86169999999999
 30
0.0
 11
157.227
 21
38.86169999999999
 31
0.0
  0
LINE
  5
302
330
1E
100
AcDbEntity
  8
0
100
AcDbLine
 10
153.472
 20
39.008
 30
0.0
 11
155.2289999999999
 21
39.008
 31
0.0
  0
LINE
  5
303
330
1E
100
AcDbEntity
  8
0
100
AcDbLine
 10
155.2289999999999
 20
39.008
 30
0.0
 11
156.9329999999999
 21
39.008
 31
0.0
  0
LINE
  5
304
330
1E
100
AcDbEntity
  8
0
100
AcDbLine
 10
156.9329999999999
 20
39.008
 30
0.0
 11
158.565
 21
39.008
 31
0.0
  0
LINE
  5
305
330
1E
100
AcDbEntity
  8
0
100
AcDbLine
 10
157.227
 20
38.86169999999999
 30
0.0
 11
158.8619999999999
 21
38.86169999999999
 31
0.0
  0
LINE
  5
306
330
1E
100
AcDbEntity
  8
0
100
AcDbLine
 10
151.972
 20
38.86169999999999
 30
0.0
 11
153.765
 21
38.86169999999999
 31
0.0
  0
LINE
  5
307
330
1E
100
AcDbEntity
  8
0
100
AcDbLine
 10
158.8619999999999
 20
30.34219999999999
 30
0.0
 11
160.4119999999999
 21
30.34219999999999
 31
0.0
  0
LINE
  5
308
330
1E
100
AcDbEntity
  8
0
100
AcDbLine
 10
158.8619999999999
 20
38.86169999999999
 30
0.0
 11
160.4119999999999
 21
38.86169999999999
 31
0.0
  0
LINE
  5
309
330
1E
100
AcDbEntity
  8
0
100
AcDbLine
 10
151.68
 20
39.8446
 30
0.0
 11
153.472
 21
39.8446
 31
0.0
  0
LINE
  5
30A
330
1E
100
AcDbEntity
  8
0
100
AcDbLine
 10
153.472
 20
39.8446
 30
0.0
 11
155.2289999999999
 21
39.8446
 31
0.0
  0
LINE
  5
30B
330
1E
100
AcDbEntity
  8
0
100
AcDbLine
 10
156.9329999999999
 20
39.8446
 30
0.0
 11
158.565
 21
39.8446
 31
0.0
  0
LINE
  5
30C
330
1E
100
AcDbEntity
  8
0
100
AcDbLine
 10
155.2289999999999
 20
39.8446
 30
0.0
 11
156.9329999999999
 21
39.8446
 31
0.0
  0
LINE
  5
30D
330
1E
100
AcDbEntity
  8
0
100
AcDbLine
 10
156.692
 20
40.3908
 30
0.0
 11
158.267
 21
40.3908
 31
0.0
  0
LINE
  5
30E
330
1E
100
AcDbEntity
  8
0
100
AcDbLine
 10
155.0469999999999
 20
40.3908
 30
0.0
 11
156.692
 21
40.3908
 31
0.0
  0
LINE
  5
30F
330
1E
100
AcDbEntity
  8
0
100
AcDbLine
 10
153.352
 20
40.3908
 30
0.0
 11
155.0469999999999
 21
40.3908
 31
0.0
  0
LINE
  5
310
330
1E
100
AcDbEntity
  8
0
100
AcDbLine
 10
151.621
 20
40.3908
 30
0.0
 11
153.352
 21
40.3908
 31
0.0
  0
LINE
  5
311
330
1E
100
AcDbEntity
  8
0
100
AcDbLine
 10
158.267
 20
40.3908
 30
0.0
 11
159.757
 21
40.3908
 31
0.0
  0
LINE
  5
312
330
1E
100
AcDbEntity
  8
0
100
AcDbLine
 10
158.565
 20
39.8446
 30
0.0
 11
160.109
 21
39.8446
 31
0.0
  0
LINE
  5
313
330
1E
100
AcDbEntity
  8
0
100
AcDbLine
 10
158.565
 20
39.008
 30
0.0
 11
160.109
 21
39.008
 31
0.0
  0
LINE
  5
31A
330
1E
100
AcDbEntity
  8
0
100
AcDbLine
 10
149.822
 20
18.5461
 30
0.0
 11
149.989
 21
18.5461
 31
0.0
  0
LINE
  5
31B
330
1E
100
AcDbEntity
  8
0
100
AcDbLine
 10
148.357
 20
40.3908
 30
0.0
 11
149.989
 21
40.3908
 31
0.0
  0
LINE
  5
31C
330
1E
100
AcDbEntity
  8
0
100
AcDbLine
 10
146.627
 20
40.3908
 30
0.0
 11
148.357
 21
40.3908
 31
0.0
  0
LINE
  5
322
330
1E
100
AcDbEntity
  8
0
100
AcDbLine
 10
144.157
 20
63.0
 30
0.0
 11
145.987
 21
63.0
 31
0.0
  0
LINE
  5
331
330
1E
100
AcDbEntity
  8
0
100
AcDbLine
 10
149.835
 20
63.0
 30
0.0
 11
149.989
 21
63.0
 31
0.0
  0
LINE
  5
332
330
1E
100
AcDbEntity
  8
0
100
AcDbLine
 10
147.8909999999999
 20
63.0
 30
0.0
 11
149.835
 21
63.0
 31
0.0
  0
LINE
  5
333
330
1E
100
AcDbEntity
  8
0
100
AcDbLine
 10
145.987
 20
63.0
 30
0.0
 11
147.8909999999999
 21
63.0
 31
0.0
  0
LINE
  5
334
330
1E
100
AcDbEntity
  8
0
100
AcDbLine
 10
149.989
 20
63.0
 30
0.0
 11
150.143
 21
63.0
 31
0.0
  0
LINE
  5
335
330
1E
100
AcDbEntity
  8
0
100
AcDbLine
 10
155.821
 20
63.0
 30
0.0
 11
157.543
 21
63.0
 31
0.0
  0
LINE
  5
336
330
1E
100
AcDbEntity
  8
0
100
AcDbLine
 10
157.543
 20
63.0
 30
0.0
 11
159.1239999999999
 21
63.0
 31
0.0
  0
LINE
  5
337
330
1E
100
AcDbEntity
  8
0
100
AcDbLine
 10
153.991
 20
63.0
 30
0.0
 11
155.821
 21
63.0
 31
0.0
  0
LINE
  5
338
330
1E
100
AcDbEntity
  8
0
100
AcDbLine
 10
152.087
 20
63.0
 30
0.0
 11
153.991
 21
63.0
 31
0.0
  0
LINE
  5
339
330
1E
100
AcDbEntity
  8
0
100
AcDbLine
 10
150.143
 20
63.0
 30
0.0
 11
152.087
 21
63.0
 31
0.0
  0
LINE
  5
33C
330
1E
100
AcDbEntity
  8
0
100
AcDbLine
 10
159.1239999999999
 20
63.0
 30
0.0
 11
160.5339999999999
 21
63.0
 31
0.0
  0
LINE
  5
342
330
1E
100
AcDbEntity
  8
0
100
AcDbLine
 10
144.931
 20
40.3908
 30
0.0
 11
146.627
 21
40.3908
 31
0.0
  0
LINE
  5
343
330
1E
100
AcDbEntity
  8
0
100
AcDbLine
 10
160.167
 20
0.0000000000000091
 30
0.0
 11
161.417
 21
0.000000000000009
 31
0.0
  0
LINE
  5
344
330
1E
100
AcDbEntity
  8
0
100
AcDbLine
 10
160.167
 20
0.0000000000000091
 30
0.0
 11
162.3329999999999
 21
0.0000000000000089
 31
0.0
  0
LINE
  5
345
330
1E
100
AcDbEntity
  8
0
100
AcDbLine
 10
160.116
 20
0.0000000000000091
 30
0.0
 11
160.116
 21
2.00000000000001
 31
0.0
  0
LINE
  5
346
330
1E
100
AcDbEntity
  8
0
100
AcDbLine
 10
160.116
 20
0.0000000000000091
 30
0.0
 11
162.5309999999999
 21
0.0000000000000089
 31
0.0
  0
LINE
  5
347
330
1E
100
AcDbEntity
  8
0
100
AcDbLine
 10
160.116
 20
0.0000000000000091
 30
0.0
 11
161.8839999999999
 21
0.000000000000009
 31
0.0
  0
LINE
  5
348
330
1E
100
AcDbEntity
  8
0
100
AcDbLine
 10
160.116
 20
2.00000000000001
 30
0.0
 11
161.417
 21
2.00000000000001
 31
0.0
  0
LINE
  5
349
330
1E
100
AcDbEntity
  8
0
100
AcDbLine
 10
160.116
 20
2.00000000000001
 30
0.0
 11
160.116
 21
0.0000000000000091
 31
0.0
  0
LINE
  5
34A
330
1E
100
AcDbEntity
  8
0
100
AcDbLine
 10
160.116
 20
2.00000000000001
 30
0.0
 11
162.5309999999999
 21
2.00000000000001
 31
0.0
  0
LINE
  5
34B
330
1E
100
AcDbEntity
  8
0
100
AcDbLine
 10
160.341
 20
18.5461
 30
0.0
 11
161.781
 21
18.5461
 31
0.0
  0
LINE
  5
34C
330
1E
100
AcDbEntity
  8
0
100
AcDbLine
 10
160.4119999999999
 20
30.34219999999999
 30
0.0
 11
161.86
 21
30.34219999999999
 31
0.0
  0
LINE
  5
34D
330
1E
100
AcDbEntity
  8
0
100
AcDbLine
 10
161.781
 20
18.5461
 30
0.0
 11
163.1059999999999
 21
18.5461
 31
0.0
  0
LINE
  5
34E
330
1E
100
AcDbEntity
  8
0
100
AcDbLine
 10
161.5479999999999
 20
30.34219999999999
 30
0.0
 11
162.87
 21
30.34219999999999
 31
0.0
  0
LINE
  5
34F
330
1E
100
AcDbEntity
  8
0
100
AcDbLine
 10
161.86
 20
30.34219999999999
 30
0.0
 11
163.196
 21
30.34219999999999
 31
0.0
  0
LINE
  5
350
330
1E
100
AcDbEntity
  8
0
100
AcDbLine
 10
160.4119999999999
 20
38.86169999999999
 30
0.0
 11
161.86
 21
38.86169999999999
 31
0.0
  0
LINE
  5
351
330
1E
100
AcDbEntity
  8
0
100
AcDbLine
 10
161.5479999999999
 20
39.008
 30
0.0
 11
162.87
 21
39.008
 31
0.0
  0
LINE
  5
352
330
1E
100
AcDbEntity
  8
0
100
AcDbLine
 10
160.109
 20
30.34219999999999
 30
0.0
 11
161.5479999999999
 21
30.34219999999999
 31
0.0
  0
LINE
  5
353
330
1E
100
AcDbEntity
  8
0
100
AcDbLine
 10
162.3329999999999
 20
0.0000000000000089
 30
0.0
 11
163.583
 21
0.0000000000000089
 31
0.0
  0
LINE
  5
354
330
1E
100
AcDbEntity
  8
0
100
AcDbLine
 10
161.8839999999999
 20
0.000000000000009
 30
0.0
 11
162.5309999999999
 21
0.0000000000000089
 31
0.0
  0
LINE
  5
355
330
1E
100
AcDbEntity
  8
0
100
AcDbLine
 10
161.86
 20
38.86169999999999
 30
0.0
 11
163.196
 21
38.86169999999999
 31
0.0
  0
LINE
  5
356
330
1E
100
AcDbEntity
  8
0
100
AcDbLine
 10
161.5479999999999
 20
39.8446
 30
0.0
 11
162.87
 21
39.8446
 31
0.0
  0
LINE
  5
357
330
1E
100
AcDbEntity
  8
0
100
AcDbLine
 10
160.109
 20
39.8446
 30
0.0
 11
161.5479999999999
 21
39.8446
 31
0.0
  0
LINE
  5
358
330
1E
100
AcDbEntity
  8
0
100
AcDbLine
 10
160.109
 20
39.008
 30
0.0
 11
161.5479999999999
 21
39.008
 31
0.0
  0
LINE
  5
359
330
1E
100
AcDbEntity
  8
0
100
AcDbLine
 10
159.757
 20
40.3908
 30
0.0
 11
161.147
 21
40.3908
 31
0.0
  0
LINE
  5
35A
330
1E
100
AcDbEntity
  8
0
100
AcDbLine
 10
161.147
 20
40.3908
 30
0.0
 11
162.423
 21
40.3908
 31
0.0
  0
LINE
  5
35B
330
1E
100
AcDbEntity
  8
0
100
AcDbLine
 10
162.5309999999999
 20
2.00000000000001
 30
0.0
 11
162.5309999999999
 21
0.0000000000000088
 31
0.0
  0
LINE
  5
35C
330
1E
100
AcDbEntity
  8
0
100
AcDbLine
 10
162.5309999999999
 20
2.00000000000001
 30
0.0
 11
163.583
 21
2.00000000000001
 31
0.0
  0
LINE
  5
35D
330
1E
100
AcDbEntity
  8
0
100
AcDbLine
 10
162.5309999999999
 20
0.0000000000000089
 30
0.0
 11
162.5309999999999
 21
2.00000000000001
 31
0.0
  0
LINE
  5
35E
330
1E
100
AcDbEntity
  8
0
100
AcDbLine
 10
162.5309999999999
 20
0.0000000000000089
 30
0.0
 11
163.583
 21
0.0000000000000089
 31
0.0
  0
LINE
  5
35F
330
1E
100
AcDbEntity
  8
0
100
AcDbLine
 10
162.9
 20
18.0
 30
0.0
 11
169.1
 21
18.0
 31
0.0
  0
LINE
  5
360
330
1E
100
AcDbEntity
  8
0
100
AcDbLine
 10
162.87
 20
30.34219999999999
 30
0.0
 11
164.06
 21
30.34219999999999
 31
0.0
  0
LINE
  5
361
330
1E
100
AcDbEntity
  8
0
100
AcDbLine
 10
162.87
 20
39.8446
 30
0.0
 11
164.06
 21
39.8446
 31
0.0
  0
LINE
  5
362
330
1E
100
AcDbEntity
  8
0
100
AcDbLine
 10
163.196
 20
38.86169999999999
 30
0.0
 11
164.4029999999999
 21
38.86169999999999
 31
0.0
  0
LINE
  5
363
330
1E
100
AcDbEntity
  8
0
100
AcDbLine
 10
163.196
 20
30.34219999999999
 30
0.0
 11
164.4029999999999
 21
30.34219999999999
 31
0.0
  0
LINE
  5
364
330
1E
100
AcDbEntity
  8
0
100
AcDbLine
 10
162.87
 20
39.008
 30
0.0
 11
164.06
 21
39.008
 31
0.0
  0
LINE
  5
365
330
1E
100
AcDbEntity
  8
0
100
AcDbLine
 10
163.1059999999999
 20
18.5461
 30
0.0
 11
164.306
 21
18.5461
 31
0.0
  0
LINE
  5
366
330
1E
100
AcDbEntity
  8
0
100
AcDbLine
 10
162.423
 20
40.3908
 30
0.0
 11
163.5709999999999
 21
40.3908
 31
0.0
  0
LINE
  5
36C
330
1E
100
AcDbEntity
  8
0
100
AcDbLine
 10
162.0749999999999
 20
42.0692
 30
0.0
 11
163.241
 21
40.6092
 31
0.0
  0
LINE
  5
36E
330
1E
100
AcDbEntity
  8
0
100
AcDbLine
 10
160.442
 20
43.60079999999999
 30
0.0
 11
160.636
 21
43.4446
 31
0.0
  0
LINE
  5
370
330
1E
100
AcDbEntity
  8
0
100
AcDbLine
 10
160.636
 20
43.4446
 30
0.0
 11
160.701
 21
43.38409999999999
 31
0.0
  0
LINE
  5
371
330
1E
100
AcDbEntity
  8
0
100
AcDbLine
 10
160.701
 20
43.38409999999999
 30
0.0
 11
162.0749999999999
 21
42.0692
 31
0.0
  0
LINE
  5
374
330
1E
100
AcDbEntity
  8
0
100
AcDbLine
 10
160.135
 20
43.9558
 30
0.0
 11
160.442
 21
43.60079999999999
 31
0.0
  0
LINE
  5
375
330
1E
100
AcDbEntity
  8
0
100
AcDbLine
 10
160.0229999999999
 20
44.3828
 30
0.0
 11
160.1129999999999
 21
44.8143
 31
0.0
  0
LINE
  5
376
330
1E
100
AcDbEntity
  8
0
100
AcDbLine
 10
160.0229999999999
 20
44.3828
 30
0.0
 11
160.135
 21
43.9558
 31
0.0
  0
LINE
  5
378
330
1E
100
AcDbEntity
  8
0
100
AcDbLine
 10
160.2829999999999
 20
45.03359999999999
 30
0.0
 11
160.381
 21
45.1813
 31
0.0
  0
LINE
  5
379
330
1E
100
AcDbEntity
  8
0
100
AcDbLine
 10
160.1129999999999
 20
44.8143
 30
0.0
 11
160.2829999999999
 21
45.03359999999999
 31
0.0
  0
LINE
  5
37A
330
1E
100
AcDbEntity
  8
0
100
AcDbLine
 10
160.5339999999999
 20
63.0
 30
0.0
 11
161.747
 21
63.0
 31
0.0
  0
LINE
  5
37B
330
1E
100
AcDbEntity
  8
0
100
AcDbLine
 10
161.747
 20
63.0
 30
0.0
 11
162.742
 21
63.0
 31
0.0
  0
LINE
  5
37C
330
1E
100
AcDbEntity
  8
0
100
AcDbLine
 10
162.742
 20
63.0
 30
0.0
 11
163.4999999999999
 21
63.0
 31
0.0
  0
LINE
  5
37D
330
1E
100
AcDbEntity
  8
0
100
AcDbLine
 10
162.0409999999999
 20
46.62609999999999
 30
0.0
 11
163.902
 21
48.2625
 31
0.0
  0
LINE
  5
381
330
1E
100
AcDbEntity
  8
0
100
AcDbLine
 10
160.381
 20
45.1813
 30
0.0
 11
162.0409999999999
 21
46.62609999999999
 31
0.0
  0
LINE
  5
386
330
1E
100
AcDbEntity
  8
0
100
AcDbLine
 10
163.241
 20
40.6092
 30
0.0
 11
163.370916176749
 21
40.3908
 31
0.0
  0
LINE
  5
387
330
1E
100
AcDbEntity
  8
0
100
AcDbLine
 10
163.4999999999999
 20
163.0
 30
0.0
 11
163.4999999999999
 21
63.0
 31
0.0
  0
LINE
  5
388
330
1E
100
AcDbEntity
  8
0
100
AcDbLine
 10
163.4999999999999
 20
163.0
 30
0.0
 11
165.009
 21
163.0
 31
0.0
  0
LINE
  5
389
330
1E
100
AcDbEntity
  8
0
100
AcDbLine
 10
163.014
 20
163.0
 30
0.0
 11
163.4999999999999
 21
163.0
 31
0.0
  0
LINE
  5
38A
330
1E
100
AcDbEntity
  8
0
100
AcDbLine
 10
163.583
 20
0.0000000000000089
 30
0.0
 11
163.583
 21
2.00000000000001
 31
0.0
  0
LINE
  5
38B
330
1E
100
AcDbEntity
  8
0
100
AcDbLine
 10
163.583
 20
2.00000000000001
 30
0.0
 11
164.321
 21
2.00000000000001
 31
0.0
  0
LINE
  5
38C
330
1E
100
AcDbEntity
  8
0
100
AcDbLine
 10
163.583
 20
2.00000000000001
 30
0.0
 11
163.583
 21
0.0000000000000088
 31
0.0
  0
LINE
  5
38D
330
1E
100
AcDbEntity
  8
0
100
AcDbLine
 10
164.06
 20
39.8446
 30
0.0
 11
165.1049999999999
 21
39.8446
 31
0.0
  0
LINE
  5
38E
330
1E
100
AcDbEntity
  8
0
100
AcDbLine
 10
164.06
 20
39.008
 30
0.0
 11
165.1049999999999
 21
39.008
 31
0.0
  0
LINE
  5
38F
330
1E
100
AcDbEntity
  8
0
100
AcDbLine
 10
164.06
 20
30.34219999999999
 30
0.0
 11
165.1049999999999
 21
30.34219999999999
 31
0.0
  0
LINE
  5
390
330
1E
100
AcDbEntity
  8
0
100
AcDbLine
 10
164.321
 20
2.00000000000001
 30
0.0
 11
164.321
 21
0.0000000000000088
 31
0.0
  0
LINE
  5
391
330
1E
100
AcDbEntity
  8
0
100
AcDbLine
 10
164.321
 20
0.0000000000000088
 30
0.0
 11
164.969
 21
0.0000000000000088
 31
0.0
  0
LINE
  5
392
330
1E
100
AcDbEntity
  8
0
100
AcDbLine
 10
164.321
 20
0.0000000000000088
 30
0.0
 11
166.7359999999999
 21
0.0000000000000087
 31
0.0
  0
LINE
  5
393
330
1E
100
AcDbEntity
  8
0
100
AcDbLine
 10
164.321
 20
0.0000000000000088
 30
0.0
 11
164.321
 21
2.00000000000001
 31
0.0
  0
LINE
  5
394
330
1E
100
AcDbEntity
  8
0
100
AcDbLine
 10
164.4029999999999
 20
30.34219999999999
 30
0.0
 11
165.4709999999999
 21
30.34219999999999
 31
0.0
  0
LINE
  5
395
330
1E
100
AcDbEntity
  8
0
100
AcDbLine
 10
164.4029999999999
 20
38.86169999999999
 30
0.0
 11
165.4709999999999
 21
38.86169999999999
 31
0.0
  0
LINE
  5
396
330
1E
100
AcDbEntity
  8
0
100
AcDbLine
 10
164.306
 20
18.5461
 30
0.0
 11
165.367
 21
18.5461
 31
0.0
  0
LINE
  5
397
330
1E
100
AcDbEntity
  8
0
100
AcDbLine
 10
163.902
 20
48.2625
 30
0.0
 11
164.1709999999999
 21
48.6164
 31
0.0
  0
LINE
  5
399
330
1E
100
AcDbEntity
  8
0
100
AcDbLine
 10
164.25
 20
63.0
 30
0.0
 11
164.27
 21
49.0347
 31
0.0
  0
LINE
  5
39A
330
1E
100
AcDbEntity
  8
0
100
AcDbLine
 10
164.1709999999999
 20
48.6164
 30
0.0
 11
164.27
 21
49.0347
 31
0.0
  0
LINE
  5
39B
330
1E
100
AcDbEntity
  8
0
100
AcDbLine
 10
164.005
 20
63.0
 30
0.0
 11
164.25
 21
63.0
 31
0.0
  0
LINE
  5
39C
330
1E
100
AcDbEntity
  8
0
100
AcDbLine
 10
163.5709999999999
 20
40.3908
 30
0.0
 11
164.579
 21
40.3908
 31
0.0
  0
LINE
  5
39D
330
1E
100
AcDbEntity
  8
0
100
AcDbLine
 10
165.0259999999999
 20
0.0000000000000088
 30
0.0
 11
166.794
 21
0.0000000000000087
 31
0.0
  0
LINE
  5
39E
330
1E
100
AcDbEntity
  8
0
100
AcDbLine
 10
165.0259999999999
 20
0.0000000000000088
 30
0.0
 11
166.7359999999999
 21
0.0000000000000087
 31
0.0
  0
LINE
  5
39F
330
1E
100
AcDbEntity
  8
0
100
AcDbLine
 10
164.969
 20
0.0000000000000088
 30
0.0
 11
164.969
 21
2.00000000000001
 31
0.0
  0
LINE
  5
3A0
330
1E
100
AcDbEntity
  8
0
100
AcDbLine
 10
164.969
 20
0.0000000000000088
 30
0.0
 11
167.384
 21
0.0000000000000086
 31
0.0
  0
LINE
  5
3A1
330
1E
100
AcDbEntity
  8
0
100
AcDbLine
 10
164.969
 20
2.00000000000001
 30
0.0
 11
166.794
 21
2.00000000000001
 31
0.0
  0
LINE
  5
3A2
330
1E
100
AcDbEntity
  8
0
100
AcDbLine
 10
164.969
 20
2.00000000000001
 30
0.0
 11
164.969
 21
0.0000000000000088
 31
0.0
  0
LINE
  5
3A3
330
1E
100
AcDbEntity
  8
0
100
AcDbLine
 10
165.367
 20
18.5461
 30
0.0
 11
166.2809999999999
 21
18.5461
 31
0.0
  0
LINE
  5
3A4
330
1E
100
AcDbEntity
  8
0
100
AcDbLine
 10
165.1049999999999
 20
30.34219999999999
 30
0.0
 11
165.995
 21
30.34219999999999
 31
0.0
  0
LINE
  5
3A5
330
1E
100
AcDbEntity
  8
0
100
AcDbLine
 10
165.4709999999999
 20
30.34219999999999
 30
0.0
 11
166.3899999999999
 21
30.34219999999999
 31
0.0
  0
LINE
  5
3A6
330
1E
100
AcDbEntity
  8
0
100
AcDbLine
 10
166.794
 20
0.0000000000000087
 30
0.0
 11
168.5609999999999
 21
0.0000000000000086
 31
0.0
  0
LINE
  5
3A7
330
1E
100
AcDbEntity
  8
0
100
AcDbLine
 10
166.7359999999999
 20
0.0000000000000087
 30
0.0
 11
167.384
 21
0.0000000000000086
 31
0.0
  0
LINE
  5
3A8
330
1E
100
AcDbEntity
  8
0
100
AcDbLine
 10
167.152
 20
30.34219999999999
 30
0.0
 11
167.7479999999999
 21
30.34219999999999
 31
0.0
  0
LINE
  5
3A9
330
1E
100
AcDbEntity
  8
0
100
AcDbLine
 10
167.0379999999999
 20
18.5461
 30
0.0
 11
167.629
 21
18.5461
 31
0.0
  0
LINE
  5
3AA
330
1E
100
AcDbEntity
  8
0
100
AcDbLine
 10
166.2809999999999
 20
18.5461
 30
0.0
 11
167.0379999999999
 21
18.5461
 31
0.0
  0
LINE
  5
3AB
330
1E
100
AcDbEntity
  8
0
100
AcDbLine
 10
166.7209999999999
 20
30.34219999999999
 30
0.0
 11
167.275
 21
30.34219999999999
 31
0.0
  0
LINE
  5
3AC
330
1E
100
AcDbEntity
  8
0
100
AcDbLine
 10
165.995
 20
30.34219999999999
 30
0.0
 11
166.7209999999999
 21
30.34219999999999
 31
0.0
  0
LINE
  5
3AD
330
1E
100
AcDbEntity
  8
0
100
AcDbLine
 10
165.4709999999999
 20
38.86169999999999
 30
0.0
 11
166.3899999999999
 21
38.86169999999999
 31
0.0
  0
LINE
  5
3AE
330
1E
100
AcDbEntity
  8
0
100
AcDbLine
 10
165.994
 20
39.008
 30
0.0
 11
166.7209999999999
 21
39.008
 31
0.0
  0
LINE
  5
3AF
330
1E
100
AcDbEntity
  8
0
100
AcDbLine
 10
165.995
 20
39.8446
 30
0.0
 11
166.7209999999999
 21
39.8446
 31
0.0
  0
LINE
  5
3B0
330
1E
100
AcDbEntity
  8
0
100
AcDbLine
 10
165.439
 20
40.3908
 30
0.0
 11
166.139
 21
40.3908
 31
0.0
  0
LINE
  5
3B1
330
1E
100
AcDbEntity
  8
0
100
AcDbLine
 10
166.139
 20
40.3908
 30
0.0
 11
166.675
 21
40.3908
 31
0.0
  0
LINE
  5
3B2
330
1E
100
AcDbEntity
  8
0
100
AcDbLine
 10
165.1049999999999
 20
39.8446
 30
0.0
 11
165.995
 21
39.8446
 31
0.0
  0
LINE
  5
3B3
330
1E
100
AcDbEntity
  8
0
100
AcDbLine
 10
165.1049999999999
 20
39.008
 30
0.0
 11
165.994
 21
39.008
 31
0.0
  0
LINE
  5
3B4
330
1E
100
AcDbEntity
  8
0
100
AcDbLine
 10
167.152
 20
38.86169999999999
 30
0.0
 11
167.7479999999999
 21
38.86169999999999
 31
0.0
  0
LINE
  5
3B5
330
1E
100
AcDbEntity
  8
0
100
AcDbLine
 10
166.7209999999999
 20
39.008
 30
0.0
 11
167.275
 21
39.008
 31
0.0
  0
LINE
  5
3B6
330
1E
100
AcDbEntity
  8
0
100
AcDbLine
 10
166.675
 20
40.3908
 30
0.0
 11
167.0379999999999
 21
40.3908
 31
0.0
  0
LINE
  5
3B7
330
1E
100
AcDbEntity
  8
0
100
AcDbLine
 10
166.7209999999999
 20
39.8446
 30
0.0
 11
167.275
 21
39.8446
 31
0.0
  0
LINE
  5
3B8
330
1E
100
AcDbEntity
  8
0
100
AcDbLine
 10
166.3899999999999
 20
38.86169999999999
 30
0.0
 11
167.152
 21
38.86169999999999
 31
0.0
  0
LINE
  5
3B9
330
1E
100
AcDbEntity
  8
0
100
AcDbLine
 10
166.3899999999999
 20
30.34219999999999
 30
0.0
 11
167.152
 21
30.34219999999999
 31
0.0
  0
LINE
  5
3BA
330
1E
100
AcDbEntity
  8
0
100
AcDbLine
 10
167.384
 20
2.00000000000001
 30
0.0
 11
167.384
 21
0.0000000000000086
 31
0.0
  0
LINE
  5
3BB
330
1E
100
AcDbEntity
  8
0
100
AcDbLine
 10
167.384
 20
2.00000000000001
 30
0.0
 11
168.5609999999999
 21
2.00000000000001
 31
0.0
  0
LINE
  5
3BC
330
1E
100
AcDbEntity
  8
0
100
AcDbLine
 10
167.384
 20
0.0000000000000086
 30
0.0
 11
167.384
 21
2.00000000000001
 31
0.0
  0
LINE
  5
3BD
330
1E
100
AcDbEntity
  8
0
100
AcDbLine
 10
167.275
 20
30.34219999999999
 30
0.0
 11
167.6509999999999
 21
30.34219999999999
 31
0.0
  0
LINE
  5
3BE
330
1E
100
AcDbEntity
  8
0
100
AcDbLine
 10
167.629
 20
18.5461
 30
0.0
 11
168.0509999999999
 21
18.5461
 31
0.0
  0
LINE
  5
3BF
330
1E
100
AcDbEntity
  8
0
100
AcDbLine
 10
167.7299999999999
 20
18.0
 30
0.0
 11
168.365
 21
18.5461
 31
0.0
  0
LINE
  5
3C0
330
1E
100
AcDbEntity
  8
0
100
AcDbLine
 10
167.7479999999999
 20
30.34219999999999
 30
0.0
 11
168.174
 21
30.34219999999999
 31
0.0
  0
LINE
  5
3C1
330
1E
100
AcDbEntity
  8
0
100
AcDbLine
 10
167.8459999999999
 20
30.34219999999999
 30
0.0
 11
168.041
 21
30.34219999999999
 31
0.0
  0
LINE
  5
3C2
330
1E
100
AcDbEntity
  8
0
100
AcDbLine
 10
167.7479999999999
 20
38.86169999999999
 30
0.0
 11
168.174
 21
38.86169999999999
 31
0.0
  0
LINE
  5
3C3
330
1E
100
AcDbEntity
  8
0
100
AcDbLine
 10
167.275
 20
39.008
 30
0.0
 11
167.6509999999999
 21
39.008
 31
0.0
  0
LINE
  5
3C4
330
1E
100
AcDbEntity
  8
0
100
AcDbLine
 10
167.6509999999999
 20
30.34219999999999
 30
0.0
 11
167.8459999999999
 21
30.34219999999999
 31
0.0
  0
LINE
  5
3C5
330
1E
100
AcDbEntity
  8
0
100
AcDbLine
 10
167.8529999999999
 20
29.5776
 30
0.0
 11
168.365
 21
28.8208
 31
0.0
  0
LINE
  5
3C6
330
1E
100
AcDbEntity
  8
0
100
AcDbLine
 10
167.8529999999999
 20
29.5776
 30
0.0
 11
167.8529999999999
 21
30.34219999999999
 31
0.0
  0
LINE
  5
3C7
330
1E
100
AcDbEntity
  8
0
100
AcDbLine
 10
167.8529999999999
 20
30.34219999999999
 30
0.0
 11
168.174
 21
30.34219999999999
 31
0.0
  0
LINE
  5
3C8
330
1E
100
AcDbEntity
  8
0
100
AcDbLine
 10
167.8529999999999
 20
30.34219999999999
 30
0.0
 11
167.8529999999999
 21
29.5776
 31
0.0
  0
LINE
  5
3C9
330
1E
100
AcDbEntity
  8
0
100
AcDbLine
 10
167.8529999999999
 20
30.34219999999999
 30
0.0
 11
168.041
 21
30.34219999999999
 31
0.0
  0
LINE
  5
3CA
330
1E
100
AcDbEntity
  8
0
100
AcDbLine
 10
168.5609999999999
 20
0.0000000000000086
 30
0.0
 11
168.5609999999999
 21
2.00000000000001
 31
0.0
  0
LINE
  5
3CB
330
1E
100
AcDbEntity
  8
0
100
AcDbLine
 10
168.86
 20
2.00000000000001
 30
0.0
 11
168.86
 21
0.0000000000000086
 31
0.0
  0
LINE
  5
3CC
330
1E
100
AcDbEntity
  8
0
100
AcDbLine
 10
168.86
 20
2.00000000000001
 30
0.0
 11
169.175
 21
2.00000000000001
 31
0.0
  0
LINE
  5
3CD
330
1E
100
AcDbEntity
  8
0
100
AcDbLine
 10
168.86
 20
0.0000000000000085
 30
0.0
 11
169.175
 21
0.0000000000000085
 31
0.0
  0
LINE
  5
3CE
330
1E
100
AcDbEntity
  8
0
100
AcDbLine
 10
168.86
 20
0.0000000000000085
 30
0.0
 11
168.86
 21
2.00000000000001
 31
0.0
  0
LINE
  5
3CF
330
1E
100
AcDbEntity
  8
0
100
AcDbLine
 10
169.175
 20
2.00000000000001
 30
0.0
 11
169.175
 21
0.0000000000000086
 31
0.0
  0
LINE
  5
3D0
330
1E
100
AcDbEntity
  8
0
100
AcDbLine
 10
169.175
 20
2.00000000000001
 30
0.0
 11
169.5
 21
2.00000000000001
 31
0.0
  0
LINE
  5
3D1
330
1E
100
AcDbEntity
  8
0
100
AcDbLine
 10
169.175
 20
0.0000000000000085
 30
0.0
 11
169.8209999999999
 21
0.0000000000000085
 31
0.0
  0
LINE
  5
3D2
330
1E
100
AcDbEntity
  8
0
100
AcDbLine
 10
169.175
 20
0.0000000000000085
 30
0.0
 11
171.5899999999999
 21
0.0000000000000084
 31
0.0
  0
LINE
  5
3D3
330
1E
100
AcDbEntity
  8
0
100
AcDbLine
 10
169.175
 20
0.0000000000000085
 30
0.0
 11
169.175
 21
2.00000000000001
 31
0.0
  0
LINE
  5
3D4
330
1E
100
AcDbEntity
  8
0
100
AcDbLine
 10
169.175
 20
0.0000000000000085
 30
0.0
 11
171.0259999999999
 21
0.0000000000000084
 31
0.0
  0
LINE
  5
3D5
330
1E
100
AcDbEntity
  8
0
100
AcDbLine
 10
169.175
 20
0.0000000000000085
 30
0.0
 11
169.542
 21
0.0000000000000085
 31
0.0
  0
LINE
  5
3D6
330
1E
100
AcDbEntity
  8
0
100
AcDbLine
 10
168.5609999999999
 20
2.00000000000001
 30
0.0
 11
168.86
 21
2.00000000000001
 31
0.0
  0
LINE
  5
3D7
330
1E
100
AcDbEntity
  8
0
100
AcDbLine
 10
168.5609999999999
 20
2.00000000000001
 30
0.0
 11
168.5609999999999
 21
0.0000000000000086
 31
0.0
  0
LINE
  5
3D8
330
1E
100
AcDbEntity
  8
0
100
AcDbLine
 10
169.5
 20
13.0
 30
0.0
 11
188.75
 21
13.0
 31
0.0
  0
LINE
  5
3D9
330
1E
100
AcDbEntity
  8
0
100
AcDbLine
 10
169.5
 20
3.000000000000009
 30
0.0
 11
188.75
 21
3.000000000000009
 31
0.0
  0
LINE
  5
3DA
330
1E
100
AcDbEntity
  8
0
100
AcDbLine
 10
170.11
 20
0.0000000000000085
 30
0.0
 11
172.2759999999999
 21
0.0000000000000083
 31
0.0
  0
LINE
  5
3DB
330
1E
100
AcDbEntity
  8
0
100
AcDbLine
 10
170.11
 20
0.0000000000000085
 30
0.0
 11
171.7079999999999
 21
0.0000000000000084
 31
0.0
  0
LINE
  5
3DC
330
1E
100
AcDbEntity
  8
0
100
AcDbLine
 10
170.792
 20
0.0000000000000084
 30
0.0
 11
172.958
 21
0.0000000000000083
 31
0.0
  0
LINE
  5
3DD
330
1E
100
AcDbEntity
  8
0
100
AcDbLine
 10
169.8209999999999
 20
0.0000000000000085
 30
0.0
 11
170.11
 21
0.0000000000000085
 31
0.0
  0
LINE
  5
3DE
330
1E
100
AcDbEntity
  8
0
100
AcDbLine
 10
169.542
 20
0.0000000000000085
 30
0.0
 11
170.792
 21
0.0000000000000084
 31
0.0
  0
LINE
  5
3DF
330
1E
100
AcDbEntity
  8
0
100
AcDbLine
 10
169.8209999999999
 20
0.0000000000000085
 30
0.0
 11
170.792
 21
0.0000000000000084
 31
0.0
  0
LINE
  5
3E0
330
1E
100
AcDbEntity
  8
0
100
AcDbLine
 10
169.8209999999999
 20
0.0000000000000085
 30
0.0
 11
171.7079999999999
 21
0.0000000000000084
 31
0.0
  0
LINE
  5
3E1
330
1E
100
AcDbEntity
  8
0
100
AcDbLine
 10
169.8209999999999
 20
0.0000000000000085
 30
0.0
 11
170.11
 21
0.0000000000000085
 31
0.0
  0
LINE
  5
3E2
330
1E
100
AcDbEntity
  8
0
100
AcDbLine
 10
170.792
 20
2.00000000000001
 30
0.0
 11
172.958
 21
2.00000000000001
 31
0.0
  0
LINE
  5
3E3
330
1E
100
AcDbEntity
  8
0
100
AcDbLine
 10
169.8209999999999
 20
2.00000000000001
 30
0.0
 11
169.8209999999999
 21
0.0000000000000086
 31
0.0
  0
LINE
  5
3E4
330
1E
100
AcDbEntity
  8
0
100
AcDbLine
 10
169.8209999999999
 20
2.00000000000001
 30
0.0
 11
172.2359999999999
 21
2.00000000000001
 31
0.0
  0
LINE
  5
3E5
330
1E
100
AcDbEntity
  8
0
100
AcDbLine
 10
169.8209999999999
 20
0.0000000000000085
 30
0.0
 11
169.8209999999999
 21
2.00000000000001
 31
0.0
  0
LINE
  5
3E6
330
1E
100
AcDbEntity
  8
0
100
AcDbLine
 10
169.8209999999999
 20
0.0000000000000085
 30
0.0
 11
172.2359999999999
 21
0.0000000000000083
 31
0.0
  0
LINE
  5
3E7
330
1E
100
AcDbEntity
  8
0
100
AcDbLine
 10
169.8209999999999
 20
0.0000000000000085
 30
0.0
 11
171.0259999999999
 21
0.0000000000000084
 31
0.0
  0
LINE
  5
3E8
330
1E
100
AcDbEntity
  8
0
100
AcDbLine
 10
169.5
 20
2.00000000000001
 30
0.0
 11
188.375
 21
2.00000000000001
 31
0.0
  0
LINE
  5
3E9
330
1E
100
AcDbEntity
  8
0
100
AcDbLine
 10
169.1
 20
18.0
 30
0.0
 11
174.9
 21
18.0
 31
0.0
  0
LINE
  5
3EA
330
1E
100
AcDbEntity
  8
0
100
AcDbLine
 10
169.5
 20
14.0
 30
0.0
 11
188.375
 21
14.0
 31
0.0
  0
LINE
  5
3EB
330
1E
100
AcDbEntity
  8
0
100
AcDbLine
 10
168.299
 20
18.5461
 30
0.0
 11
168.365
 21
18.5461
 31
0.0
  0
LINE
  5
3EC
330
1E
100
AcDbEntity
  8
0
100
AcDbLine
 10
168.489
 20
30.34219999999999
 30
0.0
 11
168.489
 21
38.86169999999999
 31
0.0
  0
LINE
  5
3ED
330
1E
100
AcDbEntity
  8
0
100
AcDbLine
 10
168.424
 20
30.34219999999999
 30
0.0
 11
168.489
 21
30.34219999999999
 31
0.0
  0
LINE
  5
3EE
330
1E
100
AcDbEntity
  8
0
100
AcDbLine
 10
168.365
 20
28.8208
 30
0.0
 11
168.365
 21
18.5461
 31
0.0
  0
LINE
  5
3EF
330
1E
100
AcDbEntity
  8
0
100
AcDbLine
 10
168.365
 20
18.5461
 30
0.0
 11
168.365
 21
28.8208
 31
0.0
  0
LINE
  5
3F0
330
1E
100
AcDbEntity
  8
0
100
AcDbLine
 10
168.0509999999999
 20
18.5461
 30
0.0
 11
168.299
 21
18.5461
 31
0.0
  0
LINE
  5
3F1
330
1E
100
AcDbEntity
  8
0
100
AcDbLine
 10
167.8529999999999
 20
39.008
 30
0.0
 11
168.404
 21
38.8823
 31
0.0
  0
LINE
  5
3F2
330
1E
100
AcDbEntity
  8
0
100
AcDbLine
 10
167.8529999999999
 20
39.008
 30
0.0
 11
167.8529999999999
 21
39.8446
 31
0.0
  0
LINE
  5
3F3
330
1E
100
AcDbEntity
  8
0
100
AcDbLine
 10
168.424
 20
38.86169999999999
 30
0.0
 11
168.489
 21
38.86169999999999
 31
0.0
  0
LINE
  5
3F4
330
1E
100
AcDbEntity
  8
0
100
AcDbLine
 10
168.404
 20
38.8823
 30
0.0
 11
168.489
 21
38.86169999999999
 31
0.0
  0
LINE
  5
3F5
330
1E
100
AcDbEntity
  8
0
100
AcDbLine
 10
168.489
 20
38.86169999999999
 30
0.0
 11
168.489
 21
30.34219999999999
 31
0.0
  0
LINE
  5
3F6
330
1E
100
AcDbEntity
  8
0
100
AcDbLine
 10
168.174
 20
38.86169999999999
 30
0.0
 11
168.424
 21
38.86169999999999
 31
0.0
  0
LINE
  5
3F7
330
1E
100
AcDbEntity
  8
0
100
AcDbLine
 10
168.174
 20
30.34219999999999
 30
0.0
 11
168.424
 21
30.34219999999999
 31
0.0
  0
LINE
  5
3FA
330
1E
100
AcDbEntity
  8
0
100
AcDbLine
 10
167.275
 20
39.8446
 30
0.0
 11
167.6509999999999
 21
39.8446
 31
0.0
  0
LINE
  5
3FB
330
1E
100
AcDbEntity
  8
0
100
AcDbLine
 10
167.233
 20
40.3908
 30
0.0
 11
167.8529999999999
 21
39.8446
 31
0.0
  0
LINE
  5
3FC
330
1E
100
AcDbEntity
  8
0
100
AcDbLine
 10
167.8529999999999
 20
39.8446
 30
0.0
 11
167.8529999999999
 21
39.008
 31
0.0
  0
LINE
  5
3FD
330
1E
100
AcDbEntity
  8
0
100
AcDbLine
 10
167.6509999999999
 20
39.8446
 30
0.0
 11
167.8459999999999
 21
39.8446
 31
0.0
  0
LINE
  5
3FE
330
1E
100
AcDbEntity
  8
0
100
AcDbLine
 10
167.6509999999999
 20
39.008
 30
0.0
 11
167.8459999999999
 21
39.008
 31
0.0
  0
LINE
  5
400
330
1E
100
AcDbEntity
  8
0
100
AcDbLine
 10
167.0379999999999
 20
40.3908
 30
0.0
 11
167.226
 21
40.3908
 31
0.0
  0
LINE
  5
401
330
1E
100
AcDbEntity
  8
0
100
AcDbLine
 10
164.579
 20
40.3908
 30
0.0
 11
165.439
 21
40.3908
 31
0.0
  0
LINE
  5
402
330
1E
100
AcDbEntity
  8
0
100
AcDbLine
 10
165.009
 20
163.0
 30
0.0
 11
171.309
 21
163.0
 31
0.0
  0
LINE
  5
403
330
1E
100
AcDbEntity
  8
0
100
AcDbLine
 10
172.5
 20
0.0000000000000083
 30
0.0
 11
175.0
 21
0.0000000000000082
 31
0.0
  0
LINE
  5
404
330
1E
100
AcDbEntity
  8
0
100
AcDbLine
 10
172.2359999999999
 20
0.0000000000000083
 30
0.0
 11
172.958
 21
0.0000000000000083
 31
0.0
  0
LINE
  5
405
330
1E
100
AcDbEntity
  8
0
100
AcDbLine
 10
173.8249999999999
 20
0.0000000000000082
 30
0.0
 11
173.8249999999999
 21
2.00000000000001
 31
0.0
  0
LINE
  5
406
330
1E
100
AcDbEntity
  8
0
100
AcDbLine
 10
173.8249999999999
 20
0.0000000000000082
 30
0.0
 11
174.4709999999999
 21
0.0000000000000082
 31
0.0
  0
LINE
  5
407
330
1E
100
AcDbEntity
  8
0
100
AcDbLine
 10
172.958
 20
0.0000000000000083
 30
0.0
 11
172.958
 21
2.00000000000001
 31
0.0
  0
LINE
  5
408
330
1E
100
AcDbEntity
  8
0
100
AcDbLine
 10
172.958
 20
0.0000000000000083
 30
0.0
 11
173.8249999999999
 21
0.0000000000000082
 31
0.0
  0
LINE
  5
409
330
1E
100
AcDbEntity
  8
0
100
AcDbLine
 10
172.958
 20
0.0000000000000083
 30
0.0
 11
174.4709999999999
 21
0.0000000000000082
 31
0.0
  0
LINE
  5
40A
330
1E
100
AcDbEntity
  8
0
100
AcDbLine
 10
174.027
 20
0.0000000000000082
 30
0.0
 11
174.675
 21
0.0000000000000082
 31
0.0
  0
LINE
  5
40B
330
1E
100
AcDbEntity
  8
0
100
AcDbLine
 10
174.027
 20
0.0000000000000082
 30
0.0
 11
176.4429999999999
 21
0.0000000000000081
 31
0.0
  0
LINE
  5
40C
330
1E
100
AcDbEntity
  8
0
100
AcDbLine
 10
174.027
 20
0.0000000000000082
 30
0.0
 11
174.027
 21
2.00000000000001
 31
0.0
  0
LINE
  5
40D
330
1E
100
AcDbEntity
  8
0
100
AcDbLine
 10
175.0
 20
0.0000000000000082
 30
0.0
 11
176.4429999999999
 21
0.0000000000000081
 31
0.0
  0
LINE
  5
40E
330
1E
100
AcDbEntity
  8
0
100
AcDbLine
 10
174.675
 20
0.0000000000000082
 30
0.0
 11
174.675
 21
2.00000000000001
 31
0.0
  0
LINE
  5
40F
330
1E
100
AcDbEntity
  8
0
100
AcDbLine
 10
174.675
 20
0.0000000000000082
 30
0.0
 11
177.089
 21
0.000000000000008
 31
0.0
  0
LINE
  5
410
330
1E
100
AcDbEntity
  8
0
100
AcDbLine
 10
173.8249999999999
 20
2.00000000000001
 30
0.0
 11
173.8249999999999
 21
0.0000000000000083
 31
0.0
  0
LINE
  5
411
330
1E
100
AcDbEntity
  8
0
100
AcDbLine
 10
173.8249999999999
 20
2.00000000000001
 30
0.0
 11
174.027
 21
2.00000000000001
 31
0.0
  0
LINE
  5
412
330
1E
100
AcDbEntity
  8
0
100
AcDbLine
 10
172.958
 20
2.00000000000001
 30
0.0
 11
172.958
 21
0.0000000000000083
 31
0.0
  0
LINE
  5
413
330
1E
100
AcDbEntity
  8
0
100
AcDbLine
 10
172.958
 20
2.00000000000001
 30
0.0
 11
173.8249999999999
 21
2.00000000000001
 31
0.0
  0
LINE
  5
414
330
1E
100
AcDbEntity
  8
0
100
AcDbLine
 10
171.7079999999999
 20
0.0000000000000084
 30
0.0
 11
172.958
 21
0.0000000000000083
 31
0.0
  0
LINE
  5
415
330
1E
100
AcDbEntity
  8
0
100
AcDbLine
 10
174.675
 20
2.00000000000001
 30
0.0
 11
174.675
 21
0.0000000000000083
 31
0.0
  0
LINE
  5
416
330
1E
100
AcDbEntity
  8
0
100
AcDbLine
 10
174.675
 20
2.00000000000001
 30
0.0
 11
175.0
 21
2.00000000000001
 31
0.0
  0
LINE
  5
417
330
1E
100
AcDbEntity
  8
0
100
AcDbLine
 10
174.027
 20
2.00000000000001
 30
0.0
 11
174.027
 21
0.0000000000000083
 31
0.0
  0
LINE
  5
418
330
1E
100
AcDbEntity
  8
0
100
AcDbLine
 10
172.2359999999999
 20
2.00000000000001
 30
0.0
 11
172.2359999999999
 21
0.0000000000000083
 31
0.0
  0
LINE
  5
419
330
1E
100
AcDbEntity
  8
0
100
AcDbLine
 10
171.5899999999999
 20
0.0000000000000084
 30
0.0
 11
172.2359999999999
 21
0.0000000000000083
 31
0.0
  0
LINE
  5
41A
330
1E
100
AcDbEntity
  8
0
100
AcDbLine
 10
172.2359999999999
 20
0.0000000000000083
 30
0.0
 11
172.2359999999999
 21
2.00000000000001
 31
0.0
  0
LINE
  5
41B
330
1E
100
AcDbEntity
  8
0
100
AcDbLine
 10
178.284
 20
0.000000000000008
 30
0.0
 11
180.053
 21
0.0000000000000078
 31
0.0
  0
LINE
  5
41C
330
1E
100
AcDbEntity
  8
0
100
AcDbLine
 10
178.284
 20
0.000000000000008
 30
0.0
 11
178.284
 21
2.00000000000001
 31
0.0
  0
LINE
  5
41D
330
1E
100
AcDbEntity
  8
0
100
AcDbLine
 10
178.8799999999999
 20
0.0000000000000079
 30
0.0
 11
179.527
 21
0.0000000000000079
 31
0.0
  0
LINE
  5
41E
330
1E
100
AcDbEntity
  8
0
100
AcDbLine
 10
178.8799999999999
 20
0.0000000000000079
 30
0.0
 11
181.2949999999999
 21
0.0000000000000078
 31
0.0
  0
LINE
  5
41F
330
1E
100
AcDbEntity
  8
0
100
AcDbLine
 10
178.8799999999999
 20
0.0000000000000079
 30
0.0
 11
178.8799999999999
 21
2.00000000000001
 31
0.0
  0
LINE
  5
420
330
1E
100
AcDbEntity
  8
0
100
AcDbLine
 10
178.284
 20
2.00000000000001
 30
0.0
 11
178.284
 21
0.000000000000008
 31
0.0
  0
LINE
  5
421
330
1E
100
AcDbEntity
  8
0
100
AcDbLine
 10
178.8799999999999
 20
2.00000000000001
 30
0.0
 11
178.8799999999999
 21
0.000000000000008
 31
0.0
  0
LINE
  5
422
330
1E
100
AcDbEntity
  8
0
100
AcDbLine
 10
177.089
 20
2.00000000000001
 30
0.0
 11
177.089
 21
0.000000000000008
 31
0.0
  0
LINE
  5
423
330
1E
100
AcDbEntity
  8
0
100
AcDbLine
 10
177.089
 20
0.000000000000008
 30
0.0
 11
177.089
 21
2.00000000000001
 31
0.0
  0
LINE
  5
424
330
1E
100
AcDbEntity
  8
0
100
AcDbLine
 10
175.0
 20
2.00000000000001
 30
0.0
 11
178.284
 21
2.00000000000001
 31
0.0
  0
LINE
  5
425
330
1E
100
AcDbEntity
  8
0
100
AcDbLine
 10
174.9
 20
18.0
 30
0.0
 11
180.4
 21
18.0
 31
0.0
  0
LINE
  5
426
330
1E
100
AcDbEntity
  8
0
100
AcDbLine
 10
171.309
 20
163.0
 30
0.0
 11
176.034
 21
163.0
 31
0.0
  0
LINE
  5
427
330
1E
100
AcDbEntity
  8
0
100
AcDbLine
 10
176.034
 20
163.0
 30
0.0
 11
178.999
 21
163.0
 31
0.0
  0
LINE
  5
428
330
1E
100
AcDbEntity
  8
0
100
AcDbLine
 10
181.9429999999999
 20
0.0000000000000077
 30
0.0
 11
182.333
 21
0.0000000000000077
 31
0.0
  0
LINE
  5
429
330
1E
100
AcDbEntity
  8
0
100
AcDbLine
 10
181.0829999999999
 20
0.0000000000000078
 30
0.0
 11
182.333
 21
0.0000000000000077
 31
0.0
  0
LINE
  5
42A
330
1E
100
AcDbEntity
  8
0
100
AcDbLine
 10
181.2949999999999
 20
0.0000000000000078
 30
0.0
 11
181.9429999999999
 21
0.0000000000000077
 31
0.0
  0
LINE
  5
42B
330
1E
100
AcDbEntity
  8
0
100
AcDbLine
 10
181.9429999999999
 20
0.0000000000000077
 30
0.0
 11
181.9429999999999
 21
2.00000000000001
 31
0.0
  0
LINE
  5
42C
330
1E
100
AcDbEntity
  8
0
100
AcDbLine
 10
179.527
 20
2.00000000000001
 30
0.0
 11
179.527
 21
0.000000000000008
 31
0.0
  0
LINE
  5
42D
330
1E
100
AcDbEntity
  8
0
100
AcDbLine
 10
179.527
 20
2.00000000000001
 30
0.0
 11
181.9429999999999
 21
2.00000000000001
 31
0.0
  0
LINE
  5
42E
330
1E
100
AcDbEntity
  8
0
100
AcDbLine
 10
179.527
 20
0.0000000000000079
 30
0.0
 11
179.527
 21
2.00000000000001
 31
0.0
  0
LINE
  5
42F
330
1E
100
AcDbEntity
  8
0
100
AcDbLine
 10
179.527
 20
0.0000000000000079
 30
0.0
 11
181.9429999999999
 21
0.0000000000000077
 31
0.0
  0
LINE
  5
430
330
1E
100
AcDbEntity
  8
0
100
AcDbLine
 10
182.333
 20
2.00000000000001
 30
0.0
 11
182.333
 21
0.0000000000000077
 31
0.0
  0
LINE
  5
431
330
1E
100
AcDbEntity
  8
0
100
AcDbLine
 10
182.333
 20
0.0000000000000077
 30
0.0
 11
182.333
 21
2.00000000000001
 31
0.0
  0
LINE
  5
432
330
1E
100
AcDbEntity
  8
0
100
AcDbLine
 10
183.734
 20
2.00000000000001
 30
0.0
 11
183.734
 21
0.0000000000000077
 31
0.0
  0
LINE
  5
433
330
1E
100
AcDbEntity
  8
0
100
AcDbLine
 10
183.734
 20
0.0000000000000076
 30
0.0
 11
184.3799999999999
 21
0.0000000000000076
 31
0.0
  0
LINE
  5
434
330
1E
100
AcDbEntity
  8
0
100
AcDbLine
 10
183.734
 20
0.0000000000000076
 30
0.0
 11
186.148
 21
0.0000000000000075
 31
0.0
  0
LINE
  5
435
330
1E
100
AcDbEntity
  8
0
100
AcDbLine
 10
183.734
 20
0.0000000000000076
 30
0.0
 11
183.734
 21
2.00000000000001
 31
0.0
  0
LINE
  5
436
330
1E
100
AcDbEntity
  8
0
100
AcDbLine
 10
185.099
 20
0.0000000000000075
 30
0.0
 11
187.264
 21
0.0000000000000074
 31
0.0
  0
LINE
  5
437
330
1E
100
AcDbEntity
  8
0
100
AcDbLine
 10
185.099
 20
0.0000000000000075
 30
0.0
 11
186.349
 21
0.0000000000000075
 31
0.0
  0
LINE
  5
438
330
1E
100
AcDbEntity
  8
0
100
AcDbLine
 10
184.3799999999999
 20
0.0000000000000076
 30
0.0
 11
184.3799999999999
 21
2.00000000000001
 31
0.0
  0
LINE
  5
439
330
1E
100
AcDbEntity
  8
0
100
AcDbLine
 10
184.3799999999999
 20
0.0000000000000076
 30
0.0
 11
186.795
 21
0.0000000000000074
 31
0.0
  0
LINE
  5
43A
330
1E
100
AcDbEntity
  8
0
100
AcDbLine
 10
184.3799999999999
 20
0.0000000000000076
 30
0.0
 11
185.099
 21
0.0000000000000075
 31
0.0
  0
LINE
  5
43B
330
1E
100
AcDbEntity
  8
0
100
AcDbLine
 10
184.3799999999999
 20
2.00000000000001
 30
0.0
 11
185.099
 21
2.00000000000001
 31
0.0
  0
LINE
  5
43C
330
1E
100
AcDbEntity
  8
0
100
AcDbLine
 10
184.3799999999999
 20
2.00000000000001
 30
0.0
 11
184.3799999999999
 21
0.0000000000000077
 31
0.0
  0
LINE
  5
43D
330
1E
100
AcDbEntity
  8
0
100
AcDbLine
 10
181.9429999999999
 20
2.00000000000001
 30
0.0
 11
183.734
 21
2.00000000000001
 31
0.0
  0
LINE
  5
43E
330
1E
100
AcDbEntity
  8
0
100
AcDbLine
 10
181.9429999999999
 20
2.00000000000001
 30
0.0
 11
181.9429999999999
 21
0.0000000000000077
 31
0.0
  0
LINE
  5
43F
330
1E
100
AcDbEntity
  8
0
100
AcDbLine
 10
181.9429999999999
 20
2.00000000000001
 30
0.0
 11
182.333
 21
2.00000000000001
 31
0.0
  0
LINE
  5
440
330
1E
100
AcDbEntity
  8
0
100
AcDbLine
 10
180.167
 20
2.00000000000001
 30
0.0
 11
181.2949999999999
 21
2.00000000000001
 31
0.0
  0
LINE
  5
441
330
1E
100
AcDbEntity
  8
0
100
AcDbLine
 10
180.167
 20
2.00000000000001
 30
0.0
 11
183.734
 21
2.00000000000001
 31
0.0
  0
LINE
  5
442
330
1E
100
AcDbEntity
  8
0
100
AcDbLine
 10
180.167
 20
2.00000000000001
 30
0.0
 11
181.2949999999999
 21
2.00000000000001
 31
0.0
  0
LINE
  5
443
330
1E
100
AcDbEntity
  8
0
100
AcDbLine
 10
186.349
 20
0.0000000000000075
 30
0.0
 11
186.795
 21
0.0000000000000074
 31
0.0
  0
LINE
  5
444
330
1E
100
AcDbEntity
  8
0
100
AcDbLine
 10
186.349
 20
0.0000000000000075
 30
0.0
 11
188.5139999999999
 21
0.0000000000000073
 31
0.0
  0
LINE
  5
445
330
1E
100
AcDbEntity
  8
0
100
AcDbLine
 10
186.795
 20
2.00000000000001
 30
0.0
 11
186.795
 21
0.0000000000000074
 31
0.0
  0
LINE
  5
446
330
1E
100
AcDbEntity
  8
0
100
AcDbLine
 10
186.148
 20
0.0000000000000075
 30
0.0
 11
186.795
 21
0.0000000000000074
 31
0.0
  0
LINE
  5
447
330
1E
100
AcDbEntity
  8
0
100
AcDbLine
 10
186.148
 20
0.0000000000000075
 30
0.0
 11
186.349
 21
0.0000000000000075
 31
0.0
  0
LINE
  5
448
330
1E
100
AcDbEntity
  8
0
100
AcDbLine
 10
191.25
 20
0.0000000000000072
 30
0.0
 11
193.75
 21
0.000000000000007
 31
0.0
  0
LINE
  5
449
330
1E
100
AcDbEntity
  8
0
100
AcDbLine
 10
191.542
 20
0.0000000000000071
 30
0.0
 11
193.3099999999999
 21
0.000000000000007
 31
0.0
  0
LINE
  5
44A
330
1E
100
AcDbEntity
  8
0
100
AcDbLine
 10
190.167
 20
0.0000000000000072
 30
0.0
 11
191.708
 21
0.0000000000000071
 31
0.0
  0
LINE
  5
44B
330
1E
100
AcDbEntity
  8
0
100
AcDbLine
 10
190.4579999999999
 20
0.0000000000000072
 30
0.0
 11
191.708
 21
0.0000000000000071
 31
0.0
  0
LINE
  5
44C
330
1E
100
AcDbEntity
  8
0
100
AcDbLine
 10
191.9359999999999
 20
0.0000000000000071
 30
0.0
 11
192.5829999999999
 21
0.0000000000000071
 31
0.0
  0
LINE
  5
44D
330
1E
100
AcDbEntity
  8
0
100
AcDbLine
 10
191.9359999999999
 20
0.0000000000000071
 30
0.0
 11
193.75
 21
0.000000000000007
 31
0.0
  0
LINE
  5
44E
330
1E
100
AcDbEntity
  8
0
100
AcDbLine
 10
191.9359999999999
 20
0.0000000000000071
 30
0.0
 11
192.5829999999999
 21
0.0000000000000071
 31
0.0
  0
LINE
  5
44F
330
1E
100
AcDbEntity
  8
0
100
AcDbLine
 10
191.708
 20
0.0000000000000071
 30
0.0
 11
191.708
 21
2.00000000000001
 31
0.0
  0
LINE
  5
450
330
1E
100
AcDbEntity
  8
0
100
AcDbLine
 10
187.264
 20
2.00000000000001
 30
0.0
 11
187.264
 21
0.0000000000000074
 31
0.0
  0
LINE
  5
451
330
1E
100
AcDbEntity
  8
0
100
AcDbLine
 10
187.264
 20
2.00000000000001
 30
0.0
 11
188.292
 21
2.00000000000001
 31
0.0
  0
LINE
  5
452
330
1E
100
AcDbEntity
  8
0
100
AcDbLine
 10
187.264
 20
0.0000000000000074
 30
0.0
 11
187.264
 21
2.00000000000001
 31
0.0
  0
LINE
  5
453
330
1E
100
AcDbEntity
  8
0
100
AcDbLine
 10
187.264
 20
0.0000000000000074
 30
0.0
 11
188.5139999999999
 21
0.0000000000000073
 31
0.0
  0
LINE
  5
454
330
1E
100
AcDbEntity
  8
0
100
AcDbLine
 10
188.292
 20
2.00000000000001
 30
0.0
 11
188.292
 21
0.0000000000000074
 31
0.0
  0
LINE
  5
455
330
1E
100
AcDbEntity
  8
0
100
AcDbLine
 10
188.292
 20
2.00000000000001
 30
0.0
 11
188.375
 21
2.00000000000001
 31
0.0
  0
LINE
  5
456
330
1E
100
AcDbEntity
  8
0
100
AcDbLine
 10
189.5209999999999
 20
0.0000000000000073
 30
0.0
 11
191.9359999999999
 21
0.0000000000000071
 31
0.0
  0
LINE
  5
457
330
1E
100
AcDbEntity
  8
0
100
AcDbLine
 10
190.167
 20
2.00000000000001
 30
0.0
 11
191.542
 21
2.00000000000001
 31
0.0
  0
LINE
  5
458
330
1E
100
AcDbEntity
  8
0
100
AcDbLine
 10
191.708
 20
2.00000000000001
 30
0.0
 11
191.708
 21
0.0000000000000071
 31
0.0
  0
LINE
  5
459
330
1E
100
AcDbEntity
  8
0
100
AcDbLine
 10
191.708
 20
2.00000000000001
 30
0.0
 11
193.3099999999999
 21
2.00000000000001
 31
0.0
  0
LINE
  5
45A
330
1E
100
AcDbEntity
  8
0
100
AcDbLine
 10
189.542
 20
2.00000000000001
 30
0.0
 11
189.542
 21
0.0000000000000074
 31
0.0
  0
LINE
  5
45B
330
1E
100
AcDbEntity
  8
0
100
AcDbLine
 10
189.542
 20
2.00000000000001
 30
0.0
 11
191.708
 21
2.00000000000001
 31
0.0
  0
LINE
  5
45C
330
1E
100
AcDbEntity
  8
0
100
AcDbLine
 10
189.542
 20
2.00000000000001
 30
0.0
 11
191.542
 21
2.00000000000001
 31
0.0
  0
LINE
  5
45D
330
1E
100
AcDbEntity
  8
0
100
AcDbLine
 10
188.292
 20
0.0000000000000073
 30
0.0
 11
189.542
 21
0.0000000000000073
 31
0.0
  0
LINE
  5
45E
330
1E
100
AcDbEntity
  8
0
100
AcDbLine
 10
188.292
 20
0.0000000000000073
 30
0.0
 11
190.4579999999999
 21
0.0000000000000072
 31
0.0
  0
LINE
  5
45F
330
1E
100
AcDbEntity
  8
0
100
AcDbLine
 10
188.292
 20
0.0000000000000073
 30
0.0
 11
188.292
 21
2.00000000000001
 31
0.0
  0
LINE
  5
460
330
1E
100
AcDbEntity
  8
0
100
AcDbLine
 10
188.292
 20
0.0000000000000073
 30
0.0
 11
189.5209999999999
 21
0.0000000000000073
 31
0.0
  0
LINE
  5
461
330
1E
100
AcDbEntity
  8
0
100
AcDbLine
 10
189.542
 20
0.0000000000000073
 30
0.0
 11
189.542
 21
2.00000000000001
 31
0.0
  0
LINE
  5
462
330
1E
100
AcDbEntity
  8
0
100
AcDbLine
 10
189.542
 20
0.0000000000000073
 30
0.0
 11
191.708
 21
0.0000000000000071
 31
0.0
  0
LINE
  5
463
330
1E
100
AcDbEntity
  8
0
100
AcDbLine
 10
186.795
 20
0.0000000000000074
 30
0.0
 11
186.795
 21
2.00000000000001
 31
0.0
  0
LINE
  5
464
330
1E
100
AcDbEntity
  8
0
100
AcDbLine
 10
188.375
 20
14.0
 30
0.0
 11
206.875
 21
14.0
 31
0.0
  0
LINE
  5
465
330
1E
100
AcDbEntity
  8
0
100
AcDbLine
 10
188.75
 20
13.0
 30
0.0
 11
207.25
 21
13.0
 31
0.0
  0
LINE
  5
466
330
1E
100
AcDbEntity
  8
0
100
AcDbLine
 10
188.75
 20
3.000000000000009
 30
0.0
 11
207.25
 21
3.000000000000009
 31
0.0
  0
LINE
  5
467
330
1E
100
AcDbEntity
  8
0
100
AcDbLine
 10
188.375
 20
2.00000000000001
 30
0.0
 11
206.875
 21
2.00000000000001
 31
0.0
  0
LINE
  5
468
330
1E
100
AcDbEntity
  8
0
100
AcDbLine
 10
185.3
 20
18.0
 30
0.0
 11
189.5999999999999
 21
18.0
 31
0.0
  0
LINE
  5
469
330
1E
100
AcDbEntity
  8
0
100
AcDbLine
 10
189.5999999999999
 20
18.0
 30
0.0
 11
193.3
 21
18.0
 31
0.0
  0
LINE
  5
46A
330
1E
100
AcDbEntity
  8
0
100
AcDbLine
 10
193.75
 20
0.000000000000007
 30
0.0
 11
195.077
 21
0.0000000000000069
 31
0.0
  0
LINE
  5
46B
330
1E
100
AcDbEntity
  8
0
100
AcDbLine
 10
195.077
 20
2.00000000000001
 30
0.0
 11
195.077
 21
0.0000000000000068
 31
0.0
  0
LINE
  5
46C
330
1E
100
AcDbEntity
  8
0
100
AcDbLine
 10
195.077
 20
0.0000000000000069
 30
0.0
 11
195.077
 21
2.00000000000001
 31
0.0
  0
LINE
  5
46D
330
1E
100
AcDbEntity
  8
0
100
AcDbLine
 10
193.3099999999999
 20
0.000000000000007
 30
0.0
 11
193.3099999999999
 21
2.00000000000001
 31
0.0
  0
LINE
  5
46E
330
1E
100
AcDbEntity
  8
0
100
AcDbLine
 10
193.3099999999999
 20
0.000000000000007
 30
0.0
 11
195.077
 21
0.0000000000000069
 31
0.0
  0
LINE
  5
46F
330
1E
100
AcDbEntity
  8
0
100
AcDbLine
 10
193.3099999999999
 20
2.00000000000001
 30
0.0
 11
193.3099999999999
 21
0.0000000000000071
 31
0.0
  0
LINE
  5
470
330
1E
100
AcDbEntity
  8
0
100
AcDbLine
 10
193.3099999999999
 20
2.00000000000001
 30
0.0
 11
193.75
 21
2.00000000000001
 31
0.0
  0
LINE
  5
471
330
1E
100
AcDbEntity
  8
0
100
AcDbLine
 10
197.667
 20
2.00000000000001
 30
0.0
 11
197.667
 21
0.0000000000000068
 31
0.0
  0
LINE
  5
472
330
1E
100
AcDbEntity
  8
0
100
AcDbLine
 10
197.667
 20
0.0000000000000068
 30
0.0
 11
198.917
 21
0.0000000000000067
 31
0.0
  0
LINE
  5
473
330
1E
100
AcDbEntity
  8
0
100
AcDbLine
 10
197.667
 20
0.0000000000000068
 30
0.0
 11
199.8329999999999
 21
0.0000000000000066
 31
0.0
  0
LINE
  5
474
330
1E
100
AcDbEntity
  8
0
100
AcDbLine
 10
197.667
 20
0.0000000000000068
 30
0.0
 11
197.667
 21
2.00000000000001
 31
0.0
  0
LINE
  5
475
330
1E
100
AcDbEntity
  8
0
100
AcDbLine
 10
193.75
 20
2.00000000000001
 30
0.0
 11
197.667
 21
2.00000000000001
 31
0.0
  0
LINE
  5
476
330
1E
100
AcDbEntity
  8
0
100
AcDbLine
 10
193.3
 20
18.0
 30
0.0
 11
196.1
 21
18.0
 31
0.0
  0
LINE
  5
477
330
1E
100
AcDbEntity
  8
0
100
AcDbLine
 10
196.1
 20
18.0
 30
0.0
 11
198.2
 21
18.0
 31
0.0
  0
LINE
  5
478
330
1E
100
AcDbEntity
  8
0
100
AcDbLine
 10
198.917
 20
2.00000000000001
 30
0.0
 11
198.917
 21
0.0000000000000068
 31
0.0
  0
LINE
  5
479
330
1E
100
AcDbEntity
  8
0
100
AcDbLine
 10
198.917
 20
2.00000000000001
 30
0.0
 11
201.0829999999999
 21
2.00000000000001
 31
0.0
  0
LINE
  5
47A
330
1E
100
AcDbEntity
  8
0
100
AcDbLine
 10
199.8329999999999
 20
0.0000000000000066
 30
0.0
 11
201.0829999999999
 21
0.0000000000000066
 31
0.0
  0
LINE
  5
47B
330
1E
100
AcDbEntity
  8
0
100
AcDbLine
 10
198.917
 20
0.0000000000000067
 30
0.0
 11
198.917
 21
2.00000000000001
 31
0.0
  0
LINE
  5
47C
330
1E
100
AcDbEntity
  8
0
100
AcDbLine
 10
198.917
 20
0.0000000000000067
 30
0.0
 11
201.0829999999999
 21
0.0000000000000066
 31
0.0
  0
LINE
  5
47D
330
1E
100
AcDbEntity
  8
0
100
AcDbLine
 10
200.0
 20
18.0
 30
0.0
 11
200.0
 21
14.0
 31
0.0
  0
LINE
  5
47E
330
1E
100
AcDbEntity
  8
0
100
AcDbLine
 10
198.2
 20
18.0
 30
0.0
 11
199.5
 21
18.0
 31
0.0
  0
LINE
  5
47F
330
1E
100
AcDbEntity
  8
0
100
AcDbLine
 10
199.5
 20
18.0
 30
0.0
 11
200.0
 21
18.0
 31
0.0
  0
LINE
  5
480
330
1E
100
AcDbEntity
  8
0
100
AcDbLine
 10
208.279
 20
0.0000000000000061
 30
0.0
 11
210.694
 21
0.000000000000006
 31
0.0
  0
LINE
  5
481
330
1E
100
AcDbEntity
  8
0
100
AcDbLine
 10
208.279
 20
0.0000000000000061
 30
0.0
 11
210.0
 21
0.000000000000006
 31
0.0
  0
LINE
  5
482
330
1E
100
AcDbEntity
  8
0
100
AcDbLine
 10
206.569
 20
0.0000000000000062
 30
0.0
 11
206.569
 21
2.00000000000001
 31
0.0
  0
LINE
  5
483
330
1E
100
AcDbEntity
  8
0
100
AcDbLine
 10
206.569
 20
0.0000000000000062
 30
0.0
 11
208.3359999999999
 21
0.0000000000000061
 31
0.0
  0
LINE
  5
484
330
1E
100
AcDbEntity
  8
0
100
AcDbLine
 10
204.801
 20
0.0000000000000063
 30
0.0
 11
206.569
 21
0.0000000000000062
 31
0.0
  0
LINE
  5
485
330
1E
100
AcDbEntity
  8
0
100
AcDbLine
 10
204.801
 20
0.0000000000000063
 30
0.0
 11
204.801
 21
2.00000000000001
 31
0.0
  0
LINE
  5
486
330
1E
100
AcDbEntity
  8
0
100
AcDbLine
 10
204.7509999999999
 20
0.0000000000000063
 30
0.0
 11
204.7509999999999
 21
2.00000000000001
 31
0.0
  0
LINE
  5
487
330
1E
100
AcDbEntity
  8
0
100
AcDbLine
 10
202.5859999999999
 20
0.0000000000000065
 30
0.0
 11
204.7509999999999
 21
0.0000000000000063
 31
0.0
  0
LINE
  5
488
330
1E
100
AcDbEntity
  8
0
100
AcDbLine
 10
203.5009999999999
 20
0.0000000000000064
 30
0.0
 11
203.5009999999999
 21
2.00000000000001
 31
0.0
  0
LINE
  5
489
330
1E
100
AcDbEntity
  8
0
100
AcDbLine
 10
203.5009999999999
 20
0.0000000000000064
 30
0.0
 11
204.7509999999999
 21
0.0000000000000063
 31
0.0
  0
LINE
  5
48A
330
1E
100
AcDbEntity
  8
0
100
AcDbLine
 10
201.336
 20
0.0000000000000065
 30
0.0
 11
203.5009999999999
 21
0.0000000000000064
 31
0.0
  0
LINE
  5
48B
330
1E
100
AcDbEntity
  8
0
100
AcDbLine
 10
201.336
 20
0.0000000000000065
 30
0.0
 11
202.5859999999999
 21
0.0000000000000065
 31
0.0
  0
LINE
  5
48C
330
1E
100
AcDbEntity
  8
0
100
AcDbLine
 10
201.336
 20
0.0000000000000065
 30
0.0
 11
201.336
 21
2.00000000000001
 31
0.0
  0
LINE
  5
48D
330
1E
100
AcDbEntity
  8
0
100
AcDbLine
 10
207.0419999999999
 20
0.0000000000000062
 30
0.0
 11
208.292
 21
0.0000000000000061
 31
0.0
  0
LINE
  5
48E
330
1E
100
AcDbEntity
  8
0
100
AcDbLine
 10
207.0419999999999
 20
0.0000000000000062
 30
0.0
 11
209.208
 21
0.0000000000000061
 31
0.0
  0
LINE
  5
48F
330
1E
100
AcDbEntity
  8
0
100
AcDbLine
 10
207.0419999999999
 20
0.0000000000000062
 30
0.0
 11
207.0419999999999
 21
2.00000000000001
 31
0.0
  0
LINE
  5
490
330
1E
100
AcDbEntity
  8
0
100
AcDbLine
 10
217.5749999999999
 20
0.0000000000000056
 30
0.0
 11
219.74
 21
0.0000000000000054
 31
0.0
  0
LINE
  5
491
330
1E
100
AcDbEntity
  8
0
100
AcDbLine
 10
217.5749999999999
 20
0.0000000000000056
 30
0.0
 11
217.667
 21
0.0000000000000055
 31
0.0
  0
LINE
  5
492
330
1E
100
AcDbEntity
  8
0
100
AcDbLine
 10
212.5
 20
0.0000000000000059
 30
0.0
 11
212.5
 21
2.00000000000001
 31
0.0
  0
LINE
  5
493
330
1E
100
AcDbEntity
  8
0
100
AcDbLine
 10
210.694
 20
0.000000000000006
 30
0.0
 11
210.694
 21
2.00000000000001
 31
0.0
  0
LINE
  5
494
330
1E
100
AcDbEntity
  8
0
100
AcDbLine
 10
216.4169999999999
 20
0.0000000000000056
 30
0.0
 11
217.667
 21
0.0000000000000055
 31
0.0
  0
LINE
  5
495
330
1E
100
AcDbEntity
  8
0
100
AcDbLine
 10
216.4169999999999
 20
0.0000000000000056
 30
0.0
 11
218.583
 21
0.0000000000000055
 31
0.0
  0
LINE
  5
496
330
1E
100
AcDbEntity
  8
0
100
AcDbLine
 10
216.4169999999999
 20
0.0000000000000056
 30
0.0
 11
216.4169999999999
 21
2.00000000000001
 31
0.0
  0
LINE
  5
497
330
1E
100
AcDbEntity
  8
0
100
AcDbLine
 10
220.99
 20
0.0000000000000053
 30
0.0
 11
221.5949999999999
 21
0.0000000000000053
 31
0.0
  0
LINE
  5
498
330
1E
100
AcDbEntity
  8
0
100
AcDbLine
 10
221.5949999999999
 20
0.0000000000000053
 30
0.0
 11
221.5949999999999
 21
2.00000000000001
 31
0.0
  0
LINE
  5
499
330
1E
100
AcDbEntity
  8
0
100
AcDbLine
 10
218.059
 20
0.0000000000000055
 30
0.0
 11
219.8259999999999
 21
0.0000000000000054
 31
0.0
  0
LINE
  5
49A
330
1E
100
AcDbEntity
  8
0
100
AcDbLine
 10
219.8259999999999
 20
0.0000000000000054
 30
0.0
 11
221.5949999999999
 21
0.0000000000000053
 31
0.0
  0
LINE
  5
49B
330
1E
100
AcDbEntity
  8
0
100
AcDbLine
 10
218.825
 20
0.0000000000000055
 30
0.0
 11
219.74
 21
0.0000000000000054
 31
0.0
  0
LINE
  5
49C
330
1E
100
AcDbEntity
  8
0
100
AcDbLine
 10
219.74
 20
0.0000000000000054
 30
0.0
 11
220.99
 21
0.0000000000000053
 31
0.0
  0
LINE
  5
49D
330
1E
100
AcDbEntity
  8
0
100
AcDbLine
 10
218.583
 20
0.0000000000000055
 30
0.0
 11
219.8329999999999
 21
0.0000000000000054
 31
0.0
  0
LINE
  5
49E
330
1E
100
AcDbEntity
  8
0
100
AcDbLine
 10
218.583
 20
0.0000000000000055
 30
0.0
 11
219.74
 21
0.0000000000000054
 31
0.0
  0
LINE
  5
49F
330
1E
100
AcDbEntity
  8
0
100
AcDbLine
 10
219.8329999999999
 20
0.0000000000000054
 30
0.0
 11
219.8329999999999
 21
2.00000000000001
 31
0.0
  0
LINE
  5
4A0
330
1E
100
AcDbEntity
  8
0
100
AcDbLine
 10
217.667
 20
0.0000000000000055
 30
0.0
 11
217.667
 21
2.00000000000001
 31
0.0
  0
LINE
  5
4A1
330
1E
100
AcDbEntity
  8
0
100
AcDbLine
 10
217.667
 20
0.0000000000000055
 30
0.0
 11
219.8329999999999
 21
0.0000000000000054
 31
0.0
  0
LINE
  5
4A2
330
1E
100
AcDbEntity
  8
0
100
AcDbLine
 10
217.667
 20
0.0000000000000055
 30
0.0
 11
219.74
 21
0.0000000000000054
 31
0.0
  0
LINE
  5
4A3
330
1E
100
AcDbEntity
  8
0
100
AcDbLine
 10
208.3359999999999
 20
0.0000000000000061
 30
0.0
 11
210.0459999999999
 21
0.000000000000006
 31
0.0
  0
LINE
  5
4A4
330
1E
100
AcDbEntity
  8
0
100
AcDbLine
 10
210.0
 20
0.000000000000006
 30
0.0
 11
212.5
 21
0.0000000000000059
 31
0.0
  0
LINE
  5
4A5
330
1E
100
AcDbEntity
  8
0
100
AcDbLine
 10
210.0459999999999
 20
0.000000000000006
 30
0.0
 11
210.694
 21
0.000000000000006
 31
0.0
  0
LINE
  5
4A6
330
1E
100
AcDbEntity
  8
0
100
AcDbLine
 10
209.208
 20
0.0000000000000061
 30
0.0
 11
210.4579999999999
 21
0.000000000000006
 31
0.0
  0
LINE
  5
4A7
330
1E
100
AcDbEntity
  8
0
100
AcDbLine
 10
209.208
 20
0.0000000000000061
 30
0.0
 11
210.0459999999999
 21
0.000000000000006
 31
0.0
  0
LINE
  5
4A8
330
1E
100
AcDbEntity
  8
0
100
AcDbLine
 10
209.208
 20
0.0000000000000061
 30
0.0
 11
210.0
 21
0.000000000000006
 31
0.0
  0
LINE
  5
4A9
330
1E
100
AcDbEntity
  8
0
100
AcDbLine
 10
210.4579999999999
 20
0.000000000000006
 30
0.0
 11
210.4579999999999
 21
2.00000000000001
 31
0.0
  0
LINE
  5
4AA
330
1E
100
AcDbEntity
  8
0
100
AcDbLine
 10
208.292
 20
0.0000000000000061
 30
0.0
 11
208.292
 21
2.00000000000001
 31
0.0
  0
LINE
  5
4AB
330
1E
100
AcDbEntity
  8
0
100
AcDbLine
 10
208.292
 20
0.0000000000000061
 30
0.0
 11
210.4579999999999
 21
0.000000000000006
 31
0.0
  0
LINE
  5
4AC
330
1E
100
AcDbEntity
  8
0
100
AcDbLine
 10
208.292
 20
0.0000000000000061
 30
0.0
 11
210.0
 21
0.000000000000006
 31
0.0
  0
LINE
  5
4AD
330
1E
100
AcDbEntity
  8
0
100
AcDbLine
 10
208.292
 20
0.0000000000000061
 30
0.0
 11
210.0459999999999
 21
0.000000000000006
 31
0.0
  0
LINE
  5
4AE
330
1E
100
AcDbEntity
  8
0
100
AcDbLine
 10
219.8329999999999
 20
2.00000000000001
 30
0.0
 11
219.8329999999999
 21
0.0000000000000053
 31
0.0
  0
LINE
  5
4AF
330
1E
100
AcDbEntity
  8
0
100
AcDbLine
 10
217.667
 20
2.00000000000001
 30
0.0
 11
217.667
 21
0.0000000000000056
 31
0.0
  0
LINE
  5
4B0
330
1E
100
AcDbEntity
  8
0
100
AcDbLine
 10
217.667
 20
2.00000000000001
 30
0.0
 11
219.8329999999999
 21
2.00000000000001
 31
0.0
  0
LINE
  5
4B1
330
1E
100
AcDbEntity
  8
0
100
AcDbLine
 10
210.694
 20
2.00000000000001
 30
0.0
 11
210.694
 21
0.0000000000000059
 31
0.0
  0
LINE
  5
4B2
330
1E
100
AcDbEntity
  8
0
100
AcDbLine
 10
216.4169999999999
 20
2.00000000000001
 30
0.0
 11
216.4169999999999
 21
0.0000000000000056
 31
0.0
  0
LINE
  5
4B3
330
1E
100
AcDbEntity
  8
0
100
AcDbLine
 10
210.4579999999999
 20
2.00000000000001
 30
0.0
 11
210.4579999999999
 21
0.0000000000000059
 31
0.0
  0
LINE
  5
4B4
330
1E
100
AcDbEntity
  8
0
100
AcDbLine
 10
210.4579999999999
 20
2.00000000000001
 30
0.0
 11
210.694
 21
2.00000000000001
 31
0.0
  0
LINE
  5
4B5
330
1E
100
AcDbEntity
  8
0
100
AcDbLine
 10
201.0829999999999
 20
0.0000000000000066
 30
0.0
 11
201.0829999999999
 21
2.00000000000001
 31
0.0
  0
LINE
  5
4B6
330
1E
100
AcDbEntity
  8
0
100
AcDbLine
 10
221.5949999999999
 20
2.00000000000001
 30
0.0
 11
224.0
 21
2.0
 31
0.0
  0
LINE
  5
4B7
330
1E
100
AcDbEntity
  8
0
100
AcDbLine
 10
221.5949999999999
 20
2.00000000000001
 30
0.0
 11
221.5949999999999
 21
0.0000000000000053
 31
0.0
  0
LINE
  5
4B8
330
1E
100
AcDbEntity
  8
0
100
AcDbLine
 10
206.569
 20
2.00000000000001
 30
0.0
 11
206.569
 21
0.0000000000000062
 31
0.0
  0
LINE
  5
4B9
330
1E
100
AcDbEntity
  8
0
100
AcDbLine
 10
206.569
 20
2.00000000000001
 30
0.0
 11
206.875
 21
2.00000000000001
 31
0.0
  0
LINE
  5
4BA
330
1E
100
AcDbEntity
  8
0
100
AcDbLine
 10
204.801
 20
2.00000000000001
 30
0.0
 11
204.801
 21
0.0000000000000062
 31
0.0
  0
LINE
  5
4BB
330
1E
100
AcDbEntity
  8
0
100
AcDbLine
 10
204.801
 20
2.00000000000001
 30
0.0
 11
206.569
 21
2.00000000000001
 31
0.0
  0
LINE
  5
4BC
330
1E
100
AcDbEntity
  8
0
100
AcDbLine
 10
204.7509999999999
 20
2.00000000000001
 30
0.0
 11
204.7509999999999
 21
0.0000000000000062
 31
0.0
  0
LINE
  5
4BD
330
1E
100
AcDbEntity
  8
0
100
AcDbLine
 10
208.292
 20
2.00000000000001
 30
0.0
 11
208.292
 21
0.0000000000000062
 31
0.0
  0
LINE
  5
4BE
330
1E
100
AcDbEntity
  8
0
100
AcDbLine
 10
208.292
 20
2.00000000000001
 30
0.0
 11
210.4579999999999
 21
2.00000000000001
 31
0.0
  0
LINE
  5
4BF
330
1E
100
AcDbEntity
  8
0
100
AcDbLine
 10
207.0419999999999
 20
2.00000000000001
 30
0.0
 11
207.0419999999999
 21
0.0000000000000062
 31
0.0
  0
LINE
  5
4C0
330
1E
100
AcDbEntity
  8
0
100
AcDbLine
 10
212.5
 20
2.00000000000001
 30
0.0
 11
216.4169999999999
 21
2.00000000000001
 31
0.0
  0
LINE
  5
4C1
330
1E
100
AcDbEntity
  8
0
100
AcDbLine
 10
212.5
 20
2.00000000000001
 30
0.0
 11
212.5
 21
0.0000000000000059
 31
0.0
  0
LINE
  5
4C2
330
1E
100
AcDbEntity
  8
0
100
AcDbLine
 10
228.805
 20
0.0000000000000049
 30
0.0
 11
231.25
 21
0.0000000000000047
 31
0.0
  0
LINE
  5
4C3
330
1E
100
AcDbEntity
  8
0
100
AcDbLine
 10
235.977
 20
0.0000000000000044
 30
0.0
 11
237.2269999999999
 21
0.0000000000000043
 31
0.0
  0
LINE
  5
4C4
330
1E
100
AcDbEntity
  8
0
100
AcDbLine
 10
244.5749999999999
 20
0.0000000000000039
 30
0.0
 11
246.344
 21
0.0000000000000038
 31
0.0
  0
LINE
  5
4C5
330
1E
100
AcDbEntity
  8
0
100
AcDbLine
 10
244.5749999999999
 20
0.0000000000000039
 30
0.0
 11
244.5749999999999
 21
2.0
 31
0.0
  0
LINE
  5
4C6
330
1E
100
AcDbEntity
  8
0
100
AcDbLine
 10
244.5009999999999
 20
0.0000000000000039
 30
0.0
 11
244.5749999999999
 21
0.0000000000000039
 31
0.0
  0
LINE
  5
4C7
330
1E
100
AcDbEntity
  8
0
100
AcDbLine
 10
247.5
 20
0.0000000000000037
 30
0.0
 11
250.0
 21
0.0000000000000036
 31
0.0
  0
LINE
  5
4C8
330
1E
100
AcDbEntity
  8
0
100
AcDbLine
 10
250.0
 20
0.0000000000000036
 30
0.0
 11
250.0
 21
2.0
 31
0.0
  0
LINE
  5
4C9
330
1E
100
AcDbEntity
  8
0
100
AcDbLine
 10
248.111
 20
0.0000000000000037
 30
0.0
 11
248.111
 21
2.0
 31
0.0
  0
LINE
  5
4CA
330
1E
100
AcDbEntity
  8
0
100
AcDbLine
 10
246.344
 20
0.0000000000000038
 30
0.0
 11
246.344
 21
2.0
 31
0.0
  0
LINE
  5
4CB
330
1E
100
AcDbEntity
  8
0
100
AcDbLine
 10
246.344
 20
0.0000000000000038
 30
0.0
 11
248.111
 21
0.0000000000000037
 31
0.0
  0
LINE
  5
4CC
330
1E
100
AcDbEntity
  8
0
100
AcDbLine
 10
246.269
 20
0.0000000000000038
 30
0.0
 11
246.916
 21
0.0000000000000038
 31
0.0
  0
LINE
  5
4CD
330
1E
100
AcDbEntity
  8
0
100
AcDbLine
 10
243.854
 20
0.0000000000000039
 30
0.0
 11
246.269
 21
0.0000000000000038
 31
0.0
  0
LINE
  5
4CE
330
1E
100
AcDbEntity
  8
0
100
AcDbLine
 10
243.854
 20
0.0000000000000039
 30
0.0
 11
244.5009999999999
 21
0.0000000000000039
 31
0.0
  0
LINE
  5
4CF
330
1E
100
AcDbEntity
  8
0
100
AcDbLine
 10
243.854
 20
0.0000000000000039
 30
0.0
 11
243.854
 21
2.0
 31
0.0
  0
LINE
  5
4D0
330
1E
100
AcDbEntity
  8
0
100
AcDbLine
 10
262.612
 20
0.0000000000000028
 30
0.0
 11
265.0269999999999
 21
0.0000000000000026
 31
0.0
  0
LINE
  5
4D1
330
1E
100
AcDbEntity
  8
0
100
AcDbLine
 10
267.5389999999999
 20
0.0000000000000025
 30
0.0
 11
269.704
 21
0.0000000000000024
 31
0.0
  0
LINE
  5
4D2
330
1E
100
AcDbEntity
  8
0
100
AcDbLine
 10
269.704
 20
0.0000000000000024
 30
0.0
 11
269.704
 21
2.0
 31
0.0
  0
LINE
  5
4D3
330
1E
100
AcDbEntity
  8
0
100
AcDbLine
 10
268.454
 20
0.0000000000000024
 30
0.0
 11
268.454
 21
2.0
 31
0.0
  0
LINE
  5
4D4
330
1E
100
AcDbEntity
  8
0
100
AcDbLine
 10
268.454
 20
0.0000000000000024
 30
0.0
 11
269.704
 21
0.0000000000000024
 31
0.0
  0
LINE
  5
4D5
330
1E
100
AcDbEntity
  8
0
100
AcDbLine
 10
266.25
 20
0.0000000000000026
 30
0.0
 11
268.75
 21
0.0000000000000024
 31
0.0
  0
LINE
  5
4D6
330
1E
100
AcDbEntity
  8
0
100
AcDbLine
 10
266.25
 20
0.0000000000000026
 30
0.0
 11
266.25
 21
2.0
 31
0.0
  0
LINE
  5
4D7
330
1E
100
AcDbEntity
  8
0
100
AcDbLine
 10
266.2889999999999
 20
0.0000000000000026
 30
0.0
 11
268.454
 21
0.0000000000000024
 31
0.0
  0
LINE
  5
4D8
330
1E
100
AcDbEntity
  8
0
100
AcDbLine
 10
266.2889999999999
 20
0.0000000000000026
 30
0.0
 11
267.5389999999999
 21
0.0000000000000025
 31
0.0
  0
LINE
  5
4D9
330
1E
100
AcDbEntity
  8
0
100
AcDbLine
 10
266.2889999999999
 20
0.0000000000000026
 30
0.0
 11
266.2889999999999
 21
2.0
 31
0.0
  0
LINE
  5
4DA
330
1E
100
AcDbEntity
  8
0
100
AcDbLine
 10
266.2889999999999
 20
0.0000000000000026
 30
0.0
 11
267.5389999999999
 21
0.0000000000000025
 31
0.0
  0
LINE
  5
4DB
330
1E
100
AcDbEntity
  8
0
100
AcDbLine
 10
287.5
 20
0.0000000000000013
 30
0.0
 11
287.5
 21
2.0
 31
0.0
  0
LINE
  5
4DC
330
1E
100
AcDbEntity
  8
0
100
AcDbLine
 10
285.0
 20
0.0000000000000014
 30
0.0
 11
287.5
 21
0.0000000000000013
 31
0.0
  0
LINE
  5
4DD
330
1E
100
AcDbEntity
  8
0
100
AcDbLine
 10
285.0
 20
0.0000000000000014
 30
0.0
 11
285.0
 21
2.0
 31
0.0
  0
LINE
  5
4DE
330
1E
100
AcDbEntity
  8
0
100
AcDbLine
 10
283.139
 20
0.0000000000000015
 30
0.0
 11
283.139
 21
2.0
 31
0.0
  0
LINE
  5
4DF
330
1E
100
AcDbEntity
  8
0
100
AcDbLine
 10
280.7239999999999
 20
0.0000000000000017
 30
0.0
 11
282.491
 21
0.0000000000000016
 31
0.0
  0
LINE
  5
4E0
330
1E
100
AcDbEntity
  8
0
100
AcDbLine
 10
282.491
 20
0.0000000000000016
 30
0.0
 11
282.491
 21
2.0
 31
0.0
  0
LINE
  5
4E1
330
1E
100
AcDbEntity
  8
0
100
AcDbLine
 10
282.491
 20
0.0000000000000016
 30
0.0
 11
283.139
 21
0.0000000000000015
 31
0.0
  0
LINE
  5
4E2
330
1E
100
AcDbEntity
  8
0
100
AcDbLine
 10
280.076
 20
0.0000000000000017
 30
0.0
 11
282.491
 21
0.0000000000000016
 31
0.0
  0
LINE
  5
4E3
330
1E
100
AcDbEntity
  8
0
100
AcDbLine
 10
280.076
 20
0.0000000000000017
 30
0.0
 11
280.7239999999999
 21
0.0000000000000017
 31
0.0
  0
LINE
  5
4E4
330
1E
100
AcDbEntity
  8
0
100
AcDbLine
 10
280.076
 20
0.0000000000000017
 30
0.0
 11
280.076
 21
2.0
 31
0.0
  0
LINE
  5
4E5
330
1E
100
AcDbEntity
  8
0
100
AcDbLine
 10
265.0269999999999
 20
0.0000000000000026
 30
0.0
 11
265.0269999999999
 21
2.0
 31
0.0
  0
LINE
  5
4E6
330
1E
100
AcDbEntity
  8
0
100
AcDbLine
 10
264.38
 20
0.0000000000000027
 30
0.0
 11
264.38
 21
2.0
 31
0.0
  0
LINE
  5
4E7
330
1E
100
AcDbEntity
  8
0
100
AcDbLine
 10
264.38
 20
0.0000000000000027
 30
0.0
 11
265.0269999999999
 21
0.0000000000000026
 31
0.0
  0
LINE
  5
4E8
330
1E
100
AcDbEntity
  8
0
100
AcDbLine
 10
261.9649999999999
 20
0.0000000000000028
 30
0.0
 11
264.38
 21
0.0000000000000027
 31
0.0
  0
LINE
  5
4E9
330
1E
100
AcDbEntity
  8
0
100
AcDbLine
 10
261.9649999999999
 20
0.0000000000000028
 30
0.0
 11
262.612
 21
0.0000000000000028
 31
0.0
  0
LINE
  5
4EA
330
1E
100
AcDbEntity
  8
0
100
AcDbLine
 10
261.9649999999999
 20
0.0000000000000028
 30
0.0
 11
261.9649999999999
 21
2.0
 31
0.0
  0
LINE
  5
4EB
330
1E
100
AcDbEntity
  8
0
100
AcDbLine
 10
253.465
 20
0.0000000000000034
 30
0.0
 11
253.465
 21
2.0
 31
0.0
  0
LINE
  5
4EC
330
1E
100
AcDbEntity
  8
0
100
AcDbLine
 10
252.2149999999999
 20
0.0000000000000034
 30
0.0
 11
253.465
 21
0.0000000000000034
 31
0.0
  0
LINE
  5
4ED
330
1E
100
AcDbEntity
  8
0
100
AcDbLine
 10
252.2149999999999
 20
0.0000000000000034
 30
0.0
 11
252.2149999999999
 21
2.0
 31
0.0
  0
LINE
  5
4EE
330
1E
100
AcDbEntity
  8
0
100
AcDbLine
 10
252.2149999999999
 20
0.0000000000000034
 30
0.0
 11
253.465
 21
0.0000000000000034
 31
0.0
  0
LINE
  5
4EF
330
1E
100
AcDbEntity
  8
0
100
AcDbLine
 10
250.05
 20
0.0000000000000036
 30
0.0
 11
252.2149999999999
 21
0.0000000000000034
 31
0.0
  0
LINE
  5
4F0
330
1E
100
AcDbEntity
  8
0
100
AcDbLine
 10
250.05
 20
0.0000000000000036
 30
0.0
 11
251.3
 21
0.0000000000000035
 31
0.0
  0
LINE
  5
4F1
330
1E
100
AcDbEntity
  8
0
100
AcDbLine
 10
250.05
 20
0.0000000000000036
 30
0.0
 11
250.05
 21
2.0
 31
0.0
  0
LINE
  5
4F2
330
1E
100
AcDbEntity
  8
0
100
AcDbLine
 10
237.2269999999999
 20
0.0000000000000043
 30
0.0
 11
237.2269999999999
 21
2.0
 31
0.0
  0
LINE
  5
4F3
330
1E
100
AcDbEntity
  8
0
100
AcDbLine
 10
235.977
 20
0.0000000000000044
 30
0.0
 11
235.977
 21
2.0
 31
0.0
  0
LINE
  5
4F4
330
1E
100
AcDbEntity
  8
0
100
AcDbLine
 10
235.977
 20
0.0000000000000044
 30
0.0
 11
237.2269999999999
 21
0.0000000000000043
 31
0.0
  0
LINE
  5
4F5
330
1E
100
AcDbEntity
  8
0
100
AcDbLine
 10
234.852
 20
0.0000000000000045
 30
0.0
 11
234.852
 21
2.0
 31
0.0
  0
LINE
  5
4F6
330
1E
100
AcDbEntity
  8
0
100
AcDbLine
 10
233.085
 20
0.0000000000000046
 30
0.0
 11
233.085
 21
2.0
 31
0.0
  0
LINE
  5
4F7
330
1E
100
AcDbEntity
  8
0
100
AcDbLine
 10
233.085
 20
0.0000000000000046
 30
0.0
 11
234.852
 21
0.0000000000000045
 31
0.0
  0
LINE
  5
4F8
330
1E
100
AcDbEntity
  8
0
100
AcDbLine
 10
231.25
 20
0.0000000000000047
 30
0.0
 11
231.25
 21
2.0
 31
0.0
  0
LINE
  5
4F9
330
1E
100
AcDbEntity
  8
0
100
AcDbLine
 10
231.318
 20
0.0000000000000047
 30
0.0
 11
233.085
 21
0.0000000000000046
 31
0.0
  0
LINE
  5
4FA
330
1E
100
AcDbEntity
  8
0
100
AcDbLine
 10
231.318
 20
0.0000000000000047
 30
0.0
 11
231.318
 21
2.0
 31
0.0
  0
LINE
  5
4FB
330
1E
100
AcDbEntity
  8
0
100
AcDbLine
 10
234.852
 20
0.0000000000000045
 30
0.0
 11
235.0629999999999
 21
0.0000000000000045
 31
0.0
  0
LINE
  5
4FC
330
1E
100
AcDbEntity
  8
0
100
AcDbLine
 10
234.852
 20
0.0000000000000045
 30
0.0
 11
235.977
 21
0.0000000000000044
 31
0.0
  0
LINE
  5
4FD
330
1E
100
AcDbEntity
  8
0
100
AcDbLine
 10
228.805
 20
0.0000000000000049
 30
0.0
 11
228.805
 21
2.0
 31
0.0
  0
LINE
  5
4FE
330
1E
100
AcDbEntity
  8
0
100
AcDbLine
 10
226.39
 20
0.000000000000005
 30
0.0
 11
228.805
 21
0.0000000000000049
 31
0.0
  0
LINE
  5
4FF
330
1E
100
AcDbEntity
  8
0
100
AcDbLine
 10
228.1579999999999
 20
0.0000000000000049
 30
0.0
 11
228.1579999999999
 21
2.0
 31
0.0
  0
LINE
  5
500
330
1E
100
AcDbEntity
  8
0
100
AcDbLine
 10
228.1579999999999
 20
0.0000000000000049
 30
0.0
 11
228.805
 21
0.0000000000000049
 31
0.0
  0
LINE
  5
501
330
1E
100
AcDbEntity
  8
0
100
AcDbLine
 10
225.744
 20
0.0000000000000051
 30
0.0
 11
228.1579999999999
 21
0.0000000000000049
 31
0.0
  0
LINE
  5
502
330
1E
100
AcDbEntity
  8
0
100
AcDbLine
 10
225.744
 20
0.0000000000000051
 30
0.0
 11
226.39
 21
0.000000000000005
 31
0.0
  0
LINE
  5
503
330
1E
100
AcDbEntity
  8
0
100
AcDbLine
 10
225.744
 20
0.0000000000000051
 30
0.0
 11
225.744
 21
2.0
 31
0.0
  0
LINE
  5
504
330
1E
100
AcDbEntity
  8
0
100
AcDbLine
 10
225.744
 20
0.0000000000000051
 30
0.0
 11
226.39
 21
0.000000000000005
 31
0.0
  0
LINE
  5
505
330
1E
100
AcDbEntity
  8
0
100
AcDbLine
 10
282.491
 20
2.0
 30
0.0
 11
282.491
 21
0.0000000000000015
 31
0.0
  0
LINE
  5
506
330
1E
100
AcDbEntity
  8
0
100
AcDbLine
 10
282.491
 20
2.0
 30
0.0
 11
283.139
 21
2.0
 31
0.0
  0
LINE
  5
507
330
1E
100
AcDbEntity
  8
0
100
AcDbLine
 10
280.076
 20
2.0
 30
0.0
 11
280.076
 21
0.0000000000000018
 31
0.0
  0
LINE
  5
508
330
1E
100
AcDbEntity
  8
0
100
AcDbLine
 10
285.0
 20
2.0
 30
0.0
 11
285.0
 21
0.0000000000000015
 31
0.0
  0
LINE
  5
509
330
1E
100
AcDbEntity
  8
0
100
AcDbLine
 10
283.139
 20
2.0
 30
0.0
 11
285.0
 21
2.0
 31
0.0
  0
LINE
  5
50A
330
1E
100
AcDbEntity
  8
0
100
AcDbLine
 10
283.139
 20
2.0
 30
0.0
 11
283.139
 21
0.0000000000000015
 31
0.0
  0
LINE
  5
50B
330
1E
100
AcDbEntity
  8
0
100
AcDbLine
 10
266.25
 20
2.0
 30
0.0
 11
266.25
 21
0.0000000000000027
 31
0.0
  0
LINE
  5
50C
330
1E
100
AcDbEntity
  8
0
100
AcDbLine
 10
266.2889999999999
 20
2.0
 30
0.0
 11
266.2889999999999
 21
0.0000000000000027
 31
0.0
  0
LINE
  5
50D
330
1E
100
AcDbEntity
  8
0
100
AcDbLine
 10
265.0269999999999
 20
2.0
 30
0.0
 11
265.0269999999999
 21
0.0000000000000027
 31
0.0
  0
LINE
  5
50E
330
1E
100
AcDbEntity
  8
0
100
AcDbLine
 10
264.38
 20
2.0
 30
0.0
 11
264.38
 21
0.0000000000000027
 31
0.0
  0
LINE
  5
50F
330
1E
100
AcDbEntity
  8
0
100
AcDbLine
 10
261.9649999999999
 20
2.0
 30
0.0
 11
261.9649999999999
 21
0.0000000000000029
 31
0.0
  0
LINE
  5
510
330
1E
100
AcDbEntity
  8
0
100
AcDbLine
 10
253.465
 20
2.0
 30
0.0
 11
255.0
 21
2.0
 31
0.0
  0
LINE
  5
511
330
1E
100
AcDbEntity
  8
0
100
AcDbLine
 10
253.465
 20
2.0
 30
0.0
 11
253.465
 21
0.0000000000000032
 31
0.0
  0
LINE
  5
512
330
1E
100
AcDbEntity
  8
0
100
AcDbLine
 10
246.344
 20
2.0
 30
0.0
 11
246.344
 21
0.0000000000000038
 31
0.0
  0
LINE
  5
513
330
1E
100
AcDbEntity
  8
0
100
AcDbLine
 10
246.344
 20
2.0
 30
0.0
 11
248.111
 21
2.0
 31
0.0
  0
LINE
  5
514
330
1E
100
AcDbEntity
  8
0
100
AcDbLine
 10
244.5749999999999
 20
2.0
 30
0.0
 11
244.5749999999999
 21
0.0000000000000038
 31
0.0
  0
LINE
  5
515
330
1E
100
AcDbEntity
  8
0
100
AcDbLine
 10
243.854
 20
2.0
 30
0.0
 11
243.854
 21
0.0000000000000038
 31
0.0
  0
LINE
  5
516
330
1E
100
AcDbEntity
  8
0
100
AcDbLine
 10
243.854
 20
2.0
 30
0.0
 11
244.5749999999999
 21
2.0
 31
0.0
  0
LINE
  5
517
330
1E
100
AcDbEntity
  8
0
100
AcDbLine
 10
248.111
 20
2.0
 30
0.0
 11
248.111
 21
0.0000000000000035
 31
0.0
  0
LINE
  5
518
330
1E
100
AcDbEntity
  8
0
100
AcDbLine
 10
252.2149999999999
 20
2.0
 30
0.0
 11
252.2149999999999
 21
0.0000000000000035
 31
0.0
  0
LINE
  5
519
330
1E
100
AcDbEntity
  8
0
100
AcDbLine
 10
250.05
 20
2.0
 30
0.0
 11
250.05
 21
0.0000000000000035
 31
0.0
  0
LINE
  5
51A
330
1E
100
AcDbEntity
  8
0
100
AcDbLine
 10
247.5
 20
2.0
 30
0.0
 11
250.0
 21
2.0
 31
0.0
  0
LINE
  5
51B
330
1E
100
AcDbEntity
  8
0
100
AcDbLine
 10
250.0
 20
2.0
 30
0.0
 11
250.05
 21
2.0
 31
0.0
  0
LINE
  5
51C
330
1E
100
AcDbEntity
  8
0
100
AcDbLine
 10
250.0
 20
2.0
 30
0.0
 11
250.0
 21
0.0000000000000035
 31
0.0
  0
LINE
  5
51D
330
1E
100
AcDbEntity
  8
0
100
AcDbLine
 10
246.916
 20
2.0
 30
0.0
 11
247.5
 21
2.0
 31
0.0
  0
LINE
  5
51E
330
1E
100
AcDbEntity
  8
0
100
AcDbLine
 10
255.0
 20
2.0
 30
0.0
 11
267.75
 21
2.0
 31
0.0
  0
LINE
  5
51F
330
1E
100
AcDbEntity
  8
0
100
AcDbLine
 10
268.454
 20
2.0
 30
0.0
 11
268.454
 21
0.0000000000000024
 31
0.0
  0
LINE
  5
520
330
1E
100
AcDbEntity
  8
0
100
AcDbLine
 10
269.704
 20
2.0
 30
0.0
 11
278.8749999999999
 21
2.0
 31
0.0
  0
LINE
  5
521
330
1E
100
AcDbEntity
  8
0
100
AcDbLine
 10
269.704
 20
2.0
 30
0.0
 11
269.704
 21
0.0000000000000024
 31
0.0
  0
LINE
  5
522
330
1E
100
AcDbEntity
  8
0
100
AcDbLine
 10
267.75
 20
2.0
 30
0.0
 11
278.8749999999999
 21
2.0
 31
0.0
  0
LINE
  5
523
330
1E
100
AcDbEntity
  8
0
100
AcDbLine
 10
278.8749999999999
 20
2.0
 30
0.0
 11
287.1249999999999
 21
2.0
 31
0.0
  0
LINE
  5
524
330
1E
100
AcDbEntity
  8
0
100
AcDbLine
 10
278.8749999999999
 20
2.0
 30
0.0
 11
280.076
 21
2.0
 31
0.0
  0
LINE
  5
525
330
1E
100
AcDbEntity
  8
0
100
AcDbLine
 10
287.5
 20
2.0
 30
0.0
 11
287.5
 21
0.0000000000000012
 31
0.0
  0
LINE
  5
526
330
1E
100
AcDbEntity
  8
0
100
AcDbLine
 10
287.1249999999999
 20
2.0
 30
0.0
 11
293.3749999999999
 21
2.0
 31
0.0
  0
LINE
  5
527
330
1E
100
AcDbEntity
  8
0
100
AcDbLine
 10
293.3749999999999
 20
2.0
 30
0.0
 11
297.25
 21
2.0
 31
0.0
  0
LINE
  5
528
330
1E
100
AcDbEntity
  8
0
100
AcDbLine
 10
298.75
 20
2.0
 30
0.0
 11
300.0
 21
3.0
 31
0.0
  0
LINE
  5
529
330
1E
100
AcDbEntity
  8
0
100
AcDbLine
 10
297.25
 20
2.0
 30
0.0
 11
298.75
 21
2.0
 31
0.0
  0
LINE
  5
52A
330
1E
100
AcDbEntity
  8
0
100
AcDbLine
 10
237.2269999999999
 20
2.0
 30
0.0
 11
237.2269999999999
 21
0.0000000000000044
 31
0.0
  0
LINE
  5
52B
330
1E
100
AcDbEntity
  8
0
100
AcDbLine
 10
235.977
 20
2.0
 30
0.0
 11
235.977
 21
0.0000000000000044
 31
0.0
  0
LINE
  5
52C
330
1E
100
AcDbEntity
  8
0
100
AcDbLine
 10
231.25
 20
2.0
 30
0.0
 11
231.25
 21
0.0000000000000047
 31
0.0
  0
LINE
  5
52D
330
1E
100
AcDbEntity
  8
0
100
AcDbLine
 10
233.085
 20
2.0
 30
0.0
 11
233.085
 21
0.0000000000000047
 31
0.0
  0
LINE
  5
52E
330
1E
100
AcDbEntity
  8
0
100
AcDbLine
 10
231.318
 20
2.0
 30
0.0
 11
231.318
 21
0.0000000000000047
 31
0.0
  0
LINE
  5
52F
330
1E
100
AcDbEntity
  8
0
100
AcDbLine
 10
234.852
 20
2.0
 30
0.0
 11
235.977
 21
2.0
 31
0.0
  0
LINE
  5
530
330
1E
100
AcDbEntity
  8
0
100
AcDbLine
 10
234.852
 20
2.0
 30
0.0
 11
234.852
 21
0.0000000000000044
 31
0.0
  0
LINE
  5
531
330
1E
100
AcDbEntity
  8
0
100
AcDbLine
 10
228.805
 20
2.0
 30
0.0
 11
228.805
 21
0.0000000000000047
 31
0.0
  0
LINE
  5
532
330
1E
100
AcDbEntity
  8
0
100
AcDbLine
 10
228.1579999999999
 20
2.0
 30
0.0
 11
228.1579999999999
 21
0.000000000000005
 31
0.0
  0
LINE
  5
533
330
1E
100
AcDbEntity
  8
0
100
AcDbLine
 10
228.1579999999999
 20
2.0
 30
0.0
 11
228.805
 21
2.0
 31
0.0
  0
LINE
  5
534
330
1E
100
AcDbEntity
  8
0
100
AcDbLine
 10
225.744
 20
2.0
 30
0.0
 11
225.744
 21
0.000000000000005
 31
0.0
  0
LINE
  5
535
330
1E
100
AcDbEntity
  8
0
100
AcDbLine
 10
240.375
 20
2.0
 30
0.0
 11
255.0
 21
2.0
 31
0.0
  0
LINE
  5
536
330
1E
100
AcDbEntity
  8
0
100
AcDbLine
 10
240.375
 20
2.0
 30
0.0
 11
243.854
 21
2.0
 31
0.0
  0
LINE
  5
537
330
1E
100
AcDbEntity
  8
0
100
AcDbLine
 10
224.0
 20
2.0
 30
0.0
 11
240.375
 21
2.0
 31
0.0
  0
LINE
  5
538
330
1E
100
AcDbEntity
  8
0
100
AcDbLine
 10
201.336
 20
2.00000000000001
 30
0.0
 11
201.336
 21
0.0000000000000065
 31
0.0
  0
LINE
  5
539
330
1E
100
AcDbEntity
  8
0
100
AcDbLine
 10
203.5009999999999
 20
2.00000000000001
 30
0.0
 11
204.801
 21
2.00000000000001
 31
0.0
  0
LINE
  5
53A
330
1E
100
AcDbEntity
  8
0
100
AcDbLine
 10
203.5009999999999
 20
2.00000000000001
 30
0.0
 11
203.5009999999999
 21
0.0000000000000065
 31
0.0
  0
LINE
  5
53B
330
1E
100
AcDbEntity
  8
0
100
AcDbLine
 10
201.0829999999999
 20
2.00000000000001
 30
0.0
 11
201.336
 21
2.00000000000001
 31
0.0
  0
LINE
  5
53C
330
1E
100
AcDbEntity
  8
0
100
AcDbLine
 10
201.0829999999999
 20
2.00000000000001
 30
0.0
 11
201.0829999999999
 21
0.0000000000000065
 31
0.0
  0
LINE
  5
53D
330
1E
100
AcDbEntity
  8
0
100
AcDbLine
 10
206.875
 20
14.0
 30
0.0
 11
224.0
 21
14.0
 31
0.0
  0
LINE
  5
53E
330
1E
100
AcDbEntity
  8
0
100
AcDbLine
 10
207.25
 20
13.0
 30
0.0
 11
224.6249999999999
 21
13.0
 31
0.0
  0
LINE
  5
53F
330
1E
100
AcDbEntity
  8
0
100
AcDbLine
 10
300.0
 20
3.0
 30
0.0
 11
300.0
 21
13.0
 31
0.0
  0
LINE
  5
540
330
1E
100
AcDbEntity
  8
0
100
AcDbLine
 10
294.625
 20
3.0
 30
0.0
 11
298.4999999999999
 21
3.0
 31
0.0
  0
LINE
  5
541
330
1E
100
AcDbEntity
  8
0
100
AcDbLine
 10
255.8749999999999
 20
3.0
 30
0.0
 11
268.75
 21
3.0
 31
0.0
  0
LINE
  5
542
330
1E
100
AcDbEntity
  8
0
100
AcDbLine
 10
268.75
 20
3.0
 30
0.0
 11
279.875
 21
3.0
 31
0.0
  0
LINE
  5
543
330
1E
100
AcDbEntity
  8
0
100
AcDbLine
 10
279.875
 20
3.0
 30
0.0
 11
288.2499999999999
 21
3.0
 31
0.0
  0
LINE
  5
544
330
1E
100
AcDbEntity
  8
0
100
AcDbLine
 10
288.2499999999999
 20
3.0
 30
0.0
 11
294.625
 21
3.0
 31
0.0
  0
LINE
  5
545
330
1E
100
AcDbEntity
  8
0
100
AcDbLine
 10
298.4999999999999
 20
3.0
 30
0.0
 11
300.0
 21
3.0
 31
0.0
  0
LINE
  5
546
330
1E
100
AcDbEntity
  8
0
100
AcDbLine
 10
241.1249999999999
 20
3.0
 30
0.0
 11
255.8749999999999
 21
3.0
 31
0.0
  0
LINE
  5
547
330
1E
100
AcDbEntity
  8
0
100
AcDbLine
 10
224.0
 20
14.0
 30
0.0
 11
240.375
 21
14.0
 31
0.0
  0
LINE
  5
548
330
1E
100
AcDbEntity
  8
0
100
AcDbLine
 10
255.8749999999999
 20
13.0
 30
0.0
 11
268.75
 21
13.0
 31
0.0
  0
LINE
  5
549
330
1E
100
AcDbEntity
  8
0
100
AcDbLine
 10
268.75
 20
13.0
 30
0.0
 11
279.875
 21
13.0
 31
0.0
  0
LINE
  5
54A
330
1E
100
AcDbEntity
  8
0
100
AcDbLine
 10
279.875
 20
13.0
 30
0.0
 11
288.2499999999999
 21
13.0
 31
0.0
  0
LINE
  5
54B
330
1E
100
AcDbEntity
  8
0
100
AcDbLine
 10
288.2499999999999
 20
13.0
 30
0.0
 11
294.625
 21
13.0
 31
0.0
  0
LINE
  5
54C
330
1E
100
AcDbEntity
  8
0
100
AcDbLine
 10
294.625
 20
13.0
 30
0.0
 11
298.4999999999999
 21
13.0
 31
0.0
  0
LINE
  5
54D
330
1E
100
AcDbEntity
  8
0
100
AcDbLine
 10
300.0
 20
13.0
 30
0.0
 11
300.0
 21
3.0
 31
0.0
  0
LINE
  5
54E
330
1E
100
AcDbEntity
  8
0
100
AcDbLine
 10
298.4999999999999
 20
13.0
 30
0.0
 11
300.0
 21
13.0
 31
0.0
  0
LINE
  5
54F
330
1E
100
AcDbEntity
  8
0
100
AcDbLine
 10
293.3749999999999
 20
14.0
 30
0.0
 11
297.25
 21
14.0
 31
0.0
  0
LINE
  5
550
330
1E
100
AcDbEntity
  8
0
100
AcDbLine
 10
297.25
 20
14.0
 30
0.0
 11
298.75
 21
14.0
 31
0.0
  0
LINE
  5
551
330
1E
100
AcDbEntity
  8
0
100
AcDbLine
 10
255.0
 20
14.0
 30
0.0
 11
267.75
 21
14.0
 31
0.0
  0
LINE
  5
552
330
1E
100
AcDbEntity
  8
0
100
AcDbLine
 10
267.75
 20
14.0
 30
0.0
 11
278.8749999999999
 21
14.0
 31
0.0
  0
LINE
  5
553
330
1E
100
AcDbEntity
  8
0
100
AcDbLine
 10
278.8749999999999
 20
14.0
 30
0.0
 11
287.1249999999999
 21
14.0
 31
0.0
  0
LINE
  5
554
330
1E
100
AcDbEntity
  8
0
100
AcDbLine
 10
287.1249999999999
 20
14.0
 30
0.0
 11
293.3749999999999
 21
14.0
 31
0.0
  0
LINE
  5
555
330
1E
100
AcDbEntity
  8
0
100
AcDbLine
 10
298.75
 20
14.0
 30
0.0
 11
300.0
 21
13.0
 31
0.0
  0
LINE
  5
556
330
1E
100
AcDbEntity
  8
0
100
AcDbLine
 10
240.375
 20
14.0
 30
0.0
 11
255.0
 21
14.0
 31
0.0
  0
LINE
  5
557
330
1E
100
AcDbEntity
  8
0
100
AcDbLine
 10
241.1249999999999
 20
13.0
 30
0.0
 11
255.8749999999999
 21
13.0
 31
0.0
  0
LINE
  5
558
330
1E
100
AcDbEntity
  8
0
100
AcDbLine
 10
224.6249999999999
 20
13.0
 30
0.0
 11
241.1249999999999
 21
13.0
 31
0.0
  0
LINE
  5
559
330
1E
100
AcDbEntity
  8
0
100
AcDbLine
 10
224.6249999999999
 20
3.000000000000009
 30
0.0
 11
241.1249999999999
 21
3.0
 31
0.0
  0
LINE
  5
55A
330
1E
100
AcDbEntity
  8
0
100
AcDbLine
 10
207.25
 20
3.000000000000009
 30
0.0
 11
224.6249999999999
 21
3.000000000000009
 31
0.0
  0
LINE
  5
55B
330
1E
100
AcDbEntity
  8
0
100
AcDbLine
 10
206.875
 20
2.00000000000001
 30
0.0
 11
224.0
 21
2.0
 31
0.0
  0
LINE
  5
55C
330
1E
100
AcDbEntity
  8
0
100
AcDbLine
 10
200.0
 20
14.0
 30
0.0
 11
200.0
 21
18.0
 31
0.0
  0
LINE
  5
55D
330
1E
100
AcDbEntity
  8
0
100
AcDbLine
 10
180.4
 20
18.0
 30
0.0
 11
185.3
 21
18.0
 31
0.0
  0
LINE
  5
55E
330
1E
100
AcDbEntity
  8
0
100
AcDbLine
 10
178.999
 20
163.0
 30
0.0
 11
180.11
 21
163.0
 31
0.0
  0
LINE
  5
55F
330
1E
100
AcDbEntity
  8
0
100
AcDbLine
 10
180.11
 20
163.0
 30
0.0
 11
181.0369999999999
 21
163.241
 31
0.0
  0
LINE
  5
560
330
1E
100
AcDbEntity
  8
0
100
AcDbLine
 10
163.4999999999999
 20
63.0
 30
0.0
 11
163.4999999999999
 21
163.0
 31
0.0
  0
LINE
  5
561
330
1E
100
AcDbEntity
  8
0
100
AcDbLine
 10
163.4999999999999
 20
63.0
 30
0.0
 11
164.005
 21
63.0
 31
0.0
  0
LINE
  5
562
330
1E
100
AcDbEntity
  8
0
100
AcDbLine
 10
161.7179999999999
 20
163.0
 30
0.0
 11
163.014
 21
163.0
 31
0.0
  0
LINE
  5
563
330
1E
100
AcDbEntity
  8
0
100
AcDbLine
 10
159.5579999999999
 20
163.0
 30
0.0
 11
161.7179999999999
 21
163.0
 31
0.0
  0
LINE
  5
564
330
1E
100
AcDbEntity
  8
0
100
AcDbLine
 10
150.0
 20
163.0
 30
0.0
 11
159.5579999999999
 21
163.0
 31
0.0
  0
LINE
  5
565
330
1E
100
AcDbEntity
  8
0
100
AcDbLine
 10
143.304
 20
163.0
 30
0.0
 11
146.5439999999999
 21
163.0
 31
0.0
  0
LINE
  5
566
330
1E
100
AcDbEntity
  8
0
100
AcDbLine
 10
141.9399999999999
 20
163.724
 30
0.0
 11
150.0
 21
163.724
 31
0.0
  0
LINE
  5
568
330
1E
100
AcDbEntity
  8
0
100
AcDbLine
 10
165.657
 20
163.724
 30
0.0
 11
172.235
 21
163.724
 31
0.0
  0
LINE
  5
569
330
1E
100
AcDbEntity
  8
0
100
AcDbLine
 10
158.06
 20
163.724
 30
0.0
 11
165.657
 21
163.724
 31
0.0
  0
LINE
  5
56B
330
1E
100
AcDbEntity
  8
0
100
AcDbLine
 10
150.0
 20
163.724
 30
0.0
 11
158.06
 21
163.724
 31
0.0
  0
LINE
  5
56C
330
1E
100
AcDbEntity
  8
0
100
AcDbLine
 10
165.657
 20
170.0
 30
0.0
 11
172.235
 21
170.0
 31
0.0
  0
LINE
  5
56D
330
1E
100
AcDbEntity
  8
0
100
AcDbLine
 10
158.06
 20
170.0
 30
0.0
 11
165.657
 21
170.0
 31
0.0
  0
LINE
  5
56E
330
1E
100
AcDbEntity
  8
0
100
AcDbLine
 10
150.0
 20
170.0
 30
0.0
 11
158.06
 21
170.0
 31
0.0
  0
LINE
  5
56F
330
1E
100
AcDbEntity
  8
0
100
AcDbLine
 10
172.235
 20
163.724
 30
0.0
 11
177.238
 21
163.724
 31
0.0
  0
LINE
  5
570
330
1E
100
AcDbEntity
  8
0
100
AcDbLine
 10
177.238
 20
163.724
 30
0.0
 11
180.388
 21
163.724
 31
0.0
  0
LINE
  5
571
330
1E
100
AcDbEntity
  8
0
100
AcDbLine
 10
172.235
 20
170.0
 30
0.0
 11
177.238
 21
170.0
 31
0.0
  0
LINE
  5
572
330
1E
100
AcDbEntity
  8
0
100
AcDbLine
 10
181.4999999999999
 20
163.724
 30
0.0
 11
181.4999999999999
 21
170.0
 31
0.0
  0
LINE
  5
573
330
1E
100
AcDbEntity
  8
0
100
AcDbLine
 10
181.0369999999999
 20
163.241
 30
0.0
 11
181.4999999999999
 21
163.724
 31
0.0
  0
LINE
  5
574
330
1E
100
AcDbEntity
  8
0
100
AcDbLine
 10
181.4999999999999
 20
170.0
 30
0.0
 11
181.4999999999999
 21
163.724
 31
0.0
  0
LINE
  5
575
330
1E
100
AcDbEntity
  8
0
100
AcDbLine
 10
180.388
 20
163.724
 30
0.0
 11
181.4999999999999
 21
163.724
 31
0.0
  0
LINE
  5
576
330
1E
100
AcDbEntity
  8
0
100
AcDbLine
 10
177.238
 20
170.0
 30
0.0
 11
180.388
 21
170.0
 31
0.0
  0
LINE
  5
577
330
1E
100
AcDbEntity
  8
0
100
AcDbLine
 10
180.388
 20
170.0
 30
0.0
 11
181.4999999999999
 21
170.0
 31
0.0
  0
LINE
  5
578
330
1E
100
AcDbEntity
  8
0
100
AcDbLine
 10
141.9399999999999
 20
170.0
 30
0.0
 11
150.0
 21
170.0
 31
0.0
  0
LINE
  5
579
330
1E
100
AcDbEntity
  8
0
100
AcDbLine
 10
146.5439999999999
 20
163.0
 30
0.0
 11
150.0
 21
163.0
 31
0.0
  0
LINE
  5
57A
330
1E
100
AcDbEntity
  8
0
100
AcDbLine
 10
136.4999999999999
 20
63.0
 30
0.0
 11
136.4999999999999
 21
163.0
 31
0.0
  0
ENDSEC
  0
SECTION
  2
OBJECTS
  0
DICTIONARY
  5
C
330
0
100
AcDbDictionary
281
     1
  3
ACAD_GROUP
350
D
  3
ACAD_LAYOUT
350
19
  3
ACAD_MLINESTYLE
350
16
  3
ACAD_PLOTSETTINGS
350
18
  3
ACAD_PLOTSTYLENAME
350
E
  3
AcDbVariableDictionary
350
580
  0
DICTIONARY
  5
D
102
{ACAD_REACTORS
330
C
102
}
330
C
100
AcDbDictionary
281
     1
  0
DICTIONARY
  5
19
102
{ACAD_REACTORS
330
C
102
}
330
C
100
AcDbDictionary
281
     1
  3
Layout1
350
1D
  3
Model
350
21
  0
DICTIONARY
  5
16
102
{ACAD_REACTORS
330
C
102
}
330
C
100
AcDbDictionary
281
     1
  3
Standard
350
17
  0
DICTIONARY
  5
18
102
{ACAD_REACTORS
330
C
102
}
330
C
100
AcDbDictionary
281
     1
  0
ACDBDICTIONARYWDFLT
  5
E
102
{ACAD_REACTORS
330
C
102
}
330
C
100
AcDbDictionary
281
     1
  3
Normal
350
F
100
AcDbDictionaryWithDefault
340
F
  0
DICTIONARY
  5
580
102
{ACAD_REACTORS
330
C
102
}
330
C
100
AcDbDictionary
281
     1
  3
DIMASSOC
350
581
  0
LAYOUT
  5
1D
102
{ACAD_REACTORS
330
19
102
}
330
19
100
AcDbPlotSettings
  1

  2
C:\Programme\AutoCAD LT 2002 Deu\plotters\DWF ePlot (optimized for plotting).pc3
  4

  6

 40
0.0
 41
0.0
 42
0.0
 43
0.0
 44
0.0
 45
0.0
 46
0.0
 47
0.0
 48
0.0
 49
0.0
140
0.0
141
0.0
142
1.0
143
1.0
 70
   688
 72
     0
 73
     0
 74
     5
  7

 75
    16
147
1.0
148
0.0
149
0.0
100
AcDbLayout
  1
Layout1
 70
     1
 71
     1
 10
0.0
 20
0.0
 11
12.0
 21
9.0
 12
0.0
 22
0.0
 32
0.0
 14
1.000000000000000E+20
 24
1.000000000000000E+20
 34
1.000000000000000E+20
 15
-1.000000000000000E+20
 25
-1.000000000000000E+20
 35
-1.000000000000000E+20
146
0.0
 13
0.0
 23
0.0
 33
0.0
 16
1.0
 26
0.0
 36
0.0
 17
0.0
 27
1.0
 37
0.0
 76
     0
330
1A
  0
LAYOUT
  5
21
102
{ACAD_REACTORS
330
19
102
}
330
19
100
AcDbPlotSettings
  1

  2
C:\Programme\AutoCAD LT 2002 Deu\plotters\DWF ePlot (optimized for plotting).pc3
  4

  6

 40
0.0
 41
0.0
 42
0.0
 43
0.0
 44
0.0
 45
0.0
 46
0.0
 47
0.0
 48
0.0
 49
0.0
140
0.0
141
0.0
142
1.0
143
1.0
 70
  1712
 72
     0
 73
     0
 74
     0
  7

 75
     0
147
1.0
148
0.0
149
0.0
100
AcDbLayout
  1
Model
 70
     1
 71
     0
 10
0.0
 20
0.0
 11
12.0
 21
9.0
 12
0.0
 22
0.0
 32
0.0
 14
0.0
 24
0.0
 34
0.0
 15
0.0
 25
0.0
 35
0.0
146
0.0
 13
0.0
 23
0.0
 33
0.0
 16
1.0
 26
0.0
 36
0.0
 17
0.0
 27
1.0
 37
0.0
 76
     0
330
1E
  0
MLINESTYLE
  5
17
102
{ACAD_REACTORS
330
16
102
}
330
16
100
AcDbMlineStyle
  2
STANDARD
 70
     0
  3

 62
   256
 51
90.0
 52
90.0
 71
     2
 49
0.5
 62
   256
  6
BYLAYER
 49
-0.5
 62
   256
  6
BYLAYER
  0
ACDBPLACEHOLDER
  5
F
102
{ACAD_REACTORS
330
E
102
}
330
E
  0
DICTIONARYVAR
  5
581
102
{ACAD_REACTORS
330
580
102
}
330
580
100
DictionaryVariables
280
     0
  1
1
  0
ENDSEC
  0
EOF
