999
Erzeugt mit innoplus bad 
0
SECTION
2
HEADER
9
$ACADVER
1
AC1009
9
$DWGCODEPAGE
3
ISO8859-1
0
ENDSEC
0
SECTION
2
TABLES
0
TABLE
2
LAYER
70
1
0
LAYER
2
0
70
0
62
7
6
CONTINUOUS
0
ENDTAB
0
ENDSEC
0
SECTION
2
ENTITIES
0
LINE
8
0
6
CONTINUOUS
10
-105.000000
20
105.000000
30
0.0
11
-117.750000
21
90.375000
31
0.0
0
LINE
8
0
6
CONTINUOUS
10
-117.750000
20
90.375000
30
0.0
11
-128.875000
21
74.000000
31
0.0
0
LINE
8
0
6
CONTINUOUS
10
-128.875000
20
74.000000
30
0.0
11
-137.125000
21
56.875000
31
0.0
0
LINE
8
0
6
CONTINUOUS
10
-143.375000
20
38.375000
30
0.0
11
-147.250000
21
19.500000
31
0.0
0
LINE
8
0
6
CONTINUOUS
10
-147.250000
20
19.500000
30
0.0
11
-148.750000
21
0.000000
31
0.0
0
LINE
8
0
6
CONTINUOUS
10
-105.875000
20
105.875000
30
0.0
11
-118.750000
21
91.125000
31
0.0
0
LINE
8
0
6
CONTINUOUS
10
-117.750000
20
90.375000
30
0.0
11
-105.000000
21
105.000000
31
0.0
0
LINE
8
0
6
CONTINUOUS
10
-118.750000
20
91.125000
30
0.0
11
-129.875000
21
74.625000
31
0.0
0
LINE
8
0
6
CONTINUOUS
10
-128.875000
20
74.000000
30
0.0
11
-117.750000
21
90.375000
31
0.0
0
LINE
8
0
6
CONTINUOUS
10
-129.875000
20
74.625000
30
0.0
11
-138.250000
21
57.250000
31
0.0
0
LINE
8
0
6
CONTINUOUS
10
-137.125000
20
56.875000
30
0.0
11
-128.875000
21
74.000000
31
0.0
0
LINE
8
0
6
CONTINUOUS
10
-138.250000
20
57.250000
30
0.0
11
-144.625000
21
38.750000
31
0.0
0
LINE
8
0
6
CONTINUOUS
10
-143.375000
20
38.375000
30
0.0
11
-137.125000
21
56.875000
31
0.0
0
LINE
8
0
6
CONTINUOUS
10
-144.625000
20
38.750000
30
0.0
11
-148.500000
21
19.500000
31
0.0
0
LINE
8
0
6
CONTINUOUS
10
-147.250000
20
19.500000
30
0.0
11
-143.375000
21
38.375000
31
0.0
0
LINE
8
0
6
CONTINUOUS
10
-148.500000
20
19.500000
30
0.0
11
-150.000000
21
0.000000
31
0.0
0
LINE
8
0
6
CONTINUOUS
10
-148.750000
20
0.000000
30
0.0
11
-147.250000
21
19.500000
31
0.0
0
LINE
8
0
6
CONTINUOUS
10
-118.750000
20
91.125000
30
0.0
11
-105.875000
21
105.875000
31
0.0
0
LINE
8
0
6
CONTINUOUS
10
-129.875000
20
74.625000
30
0.0
11
-118.750000
21
91.125000
31
0.0
0
LINE
8
0
6
CONTINUOUS
10
-138.250000
20
57.250000
30
0.0
11
-129.875000
21
74.625000
31
0.0
0
LINE
8
0
6
CONTINUOUS
10
-148.500000
20
19.500000
30
0.0
11
-144.625000
21
38.750000
31
0.0
0
LINE
8
0
6
CONTINUOUS
10
-150.000000
20
0.000000
30
0.0
11
-148.500000
21
19.500000
31
0.0
0
LINE
8
0
6
CONTINUOUS
10
-90.375000
20
117.750000
30
0.0
11
-105.000000
21
105.000000
31
0.0
0
LINE
8
0
6
CONTINUOUS
10
-56.875000
20
137.125000
30
0.0
11
-74.000000
21
128.875000
31
0.0
0
LINE
8
0
6
CONTINUOUS
10
-38.375000
20
143.375000
30
0.0
11
-56.875000
21
137.125000
31
0.0
0
LINE
8
0
6
CONTINUOUS
10
0.000000
20
148.750000
30
0.0
11
-19.500000
21
147.250000
31
0.0
0
LINE
8
0
6
CONTINUOUS
10
-91.125000
20
118.750000
30
0.0
11
-105.875000
21
105.875000
31
0.0
0
LINE
8
0
6
CONTINUOUS
10
-105.000000
20
105.000000
30
0.0
11
-90.375000
21
117.750000
31
0.0
0
LINE
8
0
6
CONTINUOUS
10
-74.625000
20
129.875000
30
0.0
11
-91.125000
21
118.750000
31
0.0
0
LINE
8
0
6
CONTINUOUS
10
-90.375000
20
117.750000
30
0.0
11
-74.000000
21
128.875000
31
0.0
0
LINE
8
0
6
CONTINUOUS
10
-57.250000
20
138.250000
30
0.0
11
-74.625000
21
129.875000
31
0.0
0
LINE
8
0
6
CONTINUOUS
10
-74.000000
20
128.875000
30
0.0
11
-56.875000
21
137.125000
31
0.0
0
LINE
8
0
6
CONTINUOUS
10
-38.750000
20
144.625000
30
0.0
11
-57.250000
21
138.250000
31
0.0
0
LINE
8
0
6
CONTINUOUS
10
-56.875000
20
137.125000
30
0.0
11
-38.375000
21
143.375000
31
0.0
0
LINE
8
0
6
CONTINUOUS
10
-19.500000
20
148.500000
30
0.0
11
-38.750000
21
144.625000
31
0.0
0
LINE
8
0
6
CONTINUOUS
10
-38.375000
20
143.375000
30
0.0
11
-19.500000
21
147.250000
31
0.0
0
LINE
8
0
6
CONTINUOUS
10
0.000000
20
150.000000
30
0.0
11
-19.500000
21
148.500000
31
0.0
0
LINE
8
0
6
CONTINUOUS
10
-19.500000
20
147.250000
30
0.0
11
0.000000
21
148.750000
31
0.0
0
LINE
8
0
6
CONTINUOUS
10
-105.875000
20
105.875000
30
0.0
11
-91.125000
21
118.750000
31
0.0
0
LINE
8
0
6
CONTINUOUS
10
-74.625000
20
129.875000
30
0.0
11
-57.250000
21
138.250000
31
0.0
0
LINE
8
0
6
CONTINUOUS
10
-57.250000
20
138.250000
30
0.0
11
-38.750000
21
144.625000
31
0.0
0
LINE
8
0
6
CONTINUOUS
10
-19.500000
20
148.500000
30
0.0
11
0.000000
21
150.000000
31
0.0
0
LINE
8
0
6
CONTINUOUS
10
105.000000
20
105.000000
30
0.0
11
90.375000
21
117.750000
31
0.0
0
LINE
8
0
6
CONTINUOUS
10
90.375000
20
117.750000
30
0.0
11
74.000000
21
128.875000
31
0.0
0
LINE
8
0
6
CONTINUOUS
10
74.000000
20
128.875000
30
0.0
11
56.875000
21
137.125000
31
0.0
0
LINE
8
0
6
CONTINUOUS
10
38.375000
20
143.375000
30
0.0
11
19.500000
21
147.250000
31
0.0
0
LINE
8
0
6
CONTINUOUS
10
19.500000
20
147.250000
30
0.0
11
0.000000
21
148.750000
31
0.0
0
LINE
8
0
6
CONTINUOUS
10
105.875000
20
105.875000
30
0.0
11
91.125000
21
118.750000
31
0.0
0
LINE
8
0
6
CONTINUOUS
10
90.375000
20
117.750000
30
0.0
11
105.000000
21
105.000000
31
0.0
0
LINE
8
0
6
CONTINUOUS
10
91.125000
20
118.750000
30
0.0
11
74.625000
21
129.875000
31
0.0
0
LINE
8
0
6
CONTINUOUS
10
74.000000
20
128.875000
30
0.0
11
90.375000
21
117.750000
31
0.0
0
LINE
8
0
6
CONTINUOUS
10
74.625000
20
129.875000
30
0.0
11
57.250000
21
138.250000
31
0.0
0
LINE
8
0
6
CONTINUOUS
10
56.875000
20
137.125000
30
0.0
11
74.000000
21
128.875000
31
0.0
0
LINE
8
0
6
CONTINUOUS
10
57.250000
20
138.250000
30
0.0
11
38.750000
21
144.625000
31
0.0
0
LINE
8
0
6
CONTINUOUS
10
38.375000
20
143.375000
30
0.0
11
56.875000
21
137.125000
31
0.0
0
LINE
8
0
6
CONTINUOUS
10
38.750000
20
144.625000
30
0.0
11
19.500000
21
148.500000
31
0.0
0
LINE
8
0
6
CONTINUOUS
10
19.500000
20
147.250000
30
0.0
11
38.375000
21
143.375000
31
0.0
0
LINE
8
0
6
CONTINUOUS
10
19.500000
20
148.500000
30
0.0
11
0.000000
21
150.000000
31
0.0
0
LINE
8
0
6
CONTINUOUS
10
0.000000
20
148.750000
30
0.0
11
19.500000
21
147.250000
31
0.0
0
LINE
8
0
6
CONTINUOUS
10
91.125000
20
118.750000
30
0.0
11
105.875000
21
105.875000
31
0.0
0
LINE
8
0
6
CONTINUOUS
10
74.625000
20
129.875000
30
0.0
11
91.125000
21
118.750000
31
0.0
0
LINE
8
0
6
CONTINUOUS
10
57.250000
20
138.250000
30
0.0
11
74.625000
21
129.875000
31
0.0
0
LINE
8
0
6
CONTINUOUS
10
19.500000
20
148.500000
30
0.0
11
38.750000
21
144.625000
31
0.0
0
LINE
8
0
6
CONTINUOUS
10
0.000000
20
150.000000
30
0.0
11
19.500000
21
148.500000
31
0.0
0
LINE
8
0
6
CONTINUOUS
10
117.750000
20
90.375000
30
0.0
11
105.000000
21
105.000000
31
0.0
0
LINE
8
0
6
CONTINUOUS
10
137.125000
20
56.875000
30
0.0
11
128.875000
21
74.000000
31
0.0
0
LINE
8
0
6
CONTINUOUS
10
143.375000
20
38.375000
30
0.0
11
137.125000
21
56.875000
31
0.0
0
LINE
8
0
6
CONTINUOUS
10
148.750000
20
0.000000
30
0.0
11
147.250000
21
19.500000
31
0.0
0
LINE
8
0
6
CONTINUOUS
10
118.750000
20
91.125000
30
0.0
11
105.875000
21
105.875000
31
0.0
0
LINE
8
0
6
CONTINUOUS
10
105.000000
20
105.000000
30
0.0
11
117.750000
21
90.375000
31
0.0
0
LINE
8
0
6
CONTINUOUS
10
129.875000
20
74.625000
30
0.0
11
118.750000
21
91.125000
31
0.0
0
LINE
8
0
6
CONTINUOUS
10
117.750000
20
90.375000
30
0.0
11
128.875000
21
74.000000
31
0.0
0
LINE
8
0
6
CONTINUOUS
10
138.250000
20
57.250000
30
0.0
11
129.875000
21
74.625000
31
0.0
0
LINE
8
0
6
CONTINUOUS
10
128.875000
20
74.000000
30
0.0
11
137.125000
21
56.875000
31
0.0
0
LINE
8
0
6
CONTINUOUS
10
144.625000
20
38.750000
30
0.0
11
138.250000
21
57.250000
31
0.0
0
LINE
8
0
6
CONTINUOUS
10
137.125000
20
56.875000
30
0.0
11
143.375000
21
38.375000
31
0.0
0
LINE
8
0
6
CONTINUOUS
10
148.500000
20
19.500000
30
0.0
11
144.625000
21
38.750000
31
0.0
0
LINE
8
0
6
CONTINUOUS
10
143.375000
20
38.375000
30
0.0
11
147.250000
21
19.500000
31
0.0
0
LINE
8
0
6
CONTINUOUS
10
150.000000
20
0.000000
30
0.0
11
148.500000
21
19.500000
31
0.0
0
LINE
8
0
6
CONTINUOUS
10
147.250000
20
19.500000
30
0.0
11
148.750000
21
0.000000
31
0.0
0
LINE
8
0
6
CONTINUOUS
10
105.875000
20
105.875000
30
0.0
11
118.750000
21
91.125000
31
0.0
0
LINE
8
0
6
CONTINUOUS
10
129.875000
20
74.625000
30
0.0
11
138.250000
21
57.250000
31
0.0
0
LINE
8
0
6
CONTINUOUS
10
138.250000
20
57.250000
30
0.0
11
144.625000
21
38.750000
31
0.0
0
LINE
8
0
6
CONTINUOUS
10
148.500000
20
19.500000
30
0.0
11
150.000000
21
0.000000
31
0.0
0
LINE
8
0
6
CONTINUOUS
10
105.000000
20
-105.000000
30
0.0
11
117.750000
21
-90.375000
31
0.0
0
LINE
8
0
6
CONTINUOUS
10
117.750000
20
-90.375000
30
0.0
11
128.875000
21
-74.000000
31
0.0
0
LINE
8
0
6
CONTINUOUS
10
128.875000
20
-74.000000
30
0.0
11
137.125000
21
-56.875000
31
0.0
0
LINE
8
0
6
CONTINUOUS
10
143.375000
20
-38.375000
30
0.0
11
147.250000
21
-19.500000
31
0.0
0
LINE
8
0
6
CONTINUOUS
10
147.250000
20
-19.500000
30
0.0
11
148.750000
21
0.000000
31
0.0
0
LINE
8
0
6
CONTINUOUS
10
105.875000
20
-105.875000
30
0.0
11
118.750000
21
-91.125000
31
0.0
0
LINE
8
0
6
CONTINUOUS
10
117.750000
20
-90.375000
30
0.0
11
105.000000
21
-105.000000
31
0.0
0
LINE
8
0
6
CONTINUOUS
10
118.750000
20
-91.125000
30
0.0
11
129.875000
21
-74.625000
31
0.0
0
LINE
8
0
6
CONTINUOUS
10
128.875000
20
-74.000000
30
0.0
11
117.750000
21
-90.375000
31
0.0
0
LINE
8
0
6
CONTINUOUS
10
129.875000
20
-74.625000
30
0.0
11
138.250000
21
-57.250000
31
0.0
0
LINE
8
0
6
CONTINUOUS
10
137.125000
20
-56.875000
30
0.0
11
128.875000
21
-74.000000
31
0.0
0
LINE
8
0
6
CONTINUOUS
10
138.250000
20
-57.250000
30
0.0
11
144.625000
21
-38.750000
31
0.0
0
LINE
8
0
6
CONTINUOUS
10
143.375000
20
-38.375000
30
0.0
11
137.125000
21
-56.875000
31
0.0
0
LINE
8
0
6
CONTINUOUS
10
144.625000
20
-38.750000
30
0.0
11
148.500000
21
-19.500000
31
0.0
0
LINE
8
0
6
CONTINUOUS
10
147.250000
20
-19.500000
30
0.0
11
143.375000
21
-38.375000
31
0.0
0
LINE
8
0
6
CONTINUOUS
10
148.500000
20
-19.500000
30
0.0
11
150.000000
21
0.000000
31
0.0
0
LINE
8
0
6
CONTINUOUS
10
148.750000
20
0.000000
30
0.0
11
147.250000
21
-19.500000
31
0.0
0
LINE
8
0
6
CONTINUOUS
10
118.750000
20
-91.125000
30
0.0
11
105.875000
21
-105.875000
31
0.0
0
LINE
8
0
6
CONTINUOUS
10
129.875000
20
-74.625000
30
0.0
11
118.750000
21
-91.125000
31
0.0
0
LINE
8
0
6
CONTINUOUS
10
138.250000
20
-57.250000
30
0.0
11
129.875000
21
-74.625000
31
0.0
0
LINE
8
0
6
CONTINUOUS
10
148.500000
20
-19.500000
30
0.0
11
144.625000
21
-38.750000
31
0.0
0
LINE
8
0
6
CONTINUOUS
10
150.000000
20
0.000000
30
0.0
11
148.500000
21
-19.500000
31
0.0
0
LINE
8
0
6
CONTINUOUS
10
90.375000
20
-117.750000
30
0.0
11
105.000000
21
-105.000000
31
0.0
0
LINE
8
0
6
CONTINUOUS
10
56.875000
20
-137.125000
30
0.0
11
74.000000
21
-128.875000
31
0.0
0
LINE
8
0
6
CONTINUOUS
10
38.375000
20
-143.375000
30
0.0
11
56.875000
21
-137.125000
31
0.0
0
LINE
8
0
6
CONTINUOUS
10
0.000000
20
-148.750000
30
0.0
11
19.500000
21
-147.250000
31
0.0
0
LINE
8
0
6
CONTINUOUS
10
91.125000
20
-118.750000
30
0.0
11
105.875000
21
-105.875000
31
0.0
0
LINE
8
0
6
CONTINUOUS
10
105.000000
20
-105.000000
30
0.0
11
90.375000
21
-117.750000
31
0.0
0
LINE
8
0
6
CONTINUOUS
10
74.625000
20
-129.875000
30
0.0
11
91.125000
21
-118.750000
31
0.0
0
LINE
8
0
6
CONTINUOUS
10
90.375000
20
-117.750000
30
0.0
11
74.000000
21
-128.875000
31
0.0
0
LINE
8
0
6
CONTINUOUS
10
57.250000
20
-138.250000
30
0.0
11
74.625000
21
-129.875000
31
0.0
0
LINE
8
0
6
CONTINUOUS
10
74.000000
20
-128.875000
30
0.0
11
56.875000
21
-137.125000
31
0.0
0
LINE
8
0
6
CONTINUOUS
10
38.750000
20
-144.625000
30
0.0
11
57.250000
21
-138.250000
31
0.0
0
LINE
8
0
6
CONTINUOUS
10
56.875000
20
-137.125000
30
0.0
11
38.375000
21
-143.375000
31
0.0
0
LINE
8
0
6
CONTINUOUS
10
19.500000
20
-148.500000
30
0.0
11
38.750000
21
-144.625000
31
0.0
0
LINE
8
0
6
CONTINUOUS
10
38.375000
20
-143.375000
30
0.0
11
19.500000
21
-147.250000
31
0.0
0
LINE
8
0
6
CONTINUOUS
10
0.000000
20
-150.000000
30
0.0
11
19.500000
21
-148.500000
31
0.0
0
LINE
8
0
6
CONTINUOUS
10
19.500000
20
-147.250000
30
0.0
11
0.000000
21
-148.750000
31
0.0
0
LINE
8
0
6
CONTINUOUS
10
105.875000
20
-105.875000
30
0.0
11
91.125000
21
-118.750000
31
0.0
0
LINE
8
0
6
CONTINUOUS
10
74.625000
20
-129.875000
30
0.0
11
57.250000
21
-138.250000
31
0.0
0
LINE
8
0
6
CONTINUOUS
10
57.250000
20
-138.250000
30
0.0
11
38.750000
21
-144.625000
31
0.0
0
LINE
8
0
6
CONTINUOUS
10
19.500000
20
-148.500000
30
0.0
11
0.000000
21
-150.000000
31
0.0
0
LINE
8
0
6
CONTINUOUS
10
-105.000000
20
-105.000000
30
0.0
11
-90.375000
21
-117.750000
31
0.0
0
LINE
8
0
6
CONTINUOUS
10
-90.375000
20
-117.750000
30
0.0
11
-74.000000
21
-128.875000
31
0.0
0
LINE
8
0
6
CONTINUOUS
10
-74.000000
20
-128.875000
30
0.0
11
-56.875000
21
-137.125000
31
0.0
0
LINE
8
0
6
CONTINUOUS
10
-38.375000
20
-143.375000
30
0.0
11
-19.500000
21
-147.250000
31
0.0
0
LINE
8
0
6
CONTINUOUS
10
-19.500000
20
-147.250000
30
0.0
11
0.000000
21
-148.750000
31
0.0
0
LINE
8
0
6
CONTINUOUS
10
-105.875000
20
-105.875000
30
0.0
11
-91.125000
21
-118.750000
31
0.0
0
LINE
8
0
6
CONTINUOUS
10
-90.375000
20
-117.750000
30
0.0
11
-105.000000
21
-105.000000
31
0.0
0
LINE
8
0
6
CONTINUOUS
10
-91.125000
20
-118.750000
30
0.0
11
-74.625000
21
-129.875000
31
0.0
0
LINE
8
0
6
CONTINUOUS
10
-74.000000
20
-128.875000
30
0.0
11
-90.375000
21
-117.750000
31
0.0
0
LINE
8
0
6
CONTINUOUS
10
-74.625000
20
-129.875000
30
0.0
11
-57.250000
21
-138.250000
31
0.0
0
LINE
8
0
6
CONTINUOUS
10
-56.875000
20
-137.125000
30
0.0
11
-74.000000
21
-128.875000
31
0.0
0
LINE
8
0
6
CONTINUOUS
10
-57.250000
20
-138.250000
30
0.0
11
-38.750000
21
-144.625000
31
0.0
0
LINE
8
0
6
CONTINUOUS
10
-38.375000
20
-143.375000
30
0.0
11
-56.875000
21
-137.125000
31
0.0
0
LINE
8
0
6
CONTINUOUS
10
-38.750000
20
-144.625000
30
0.0
11
-19.500000
21
-148.500000
31
0.0
0
LINE
8
0
6
CONTINUOUS
10
-19.500000
20
-147.250000
30
0.0
11
-38.375000
21
-143.375000
31
0.0
0
LINE
8
0
6
CONTINUOUS
10
-19.500000
20
-148.500000
30
0.0
11
0.000000
21
-150.000000
31
0.0
0
LINE
8
0
6
CONTINUOUS
10
0.000000
20
-148.750000
30
0.0
11
-19.500000
21
-147.250000
31
0.0
0
LINE
8
0
6
CONTINUOUS
10
-91.125000
20
-118.750000
30
0.0
11
-105.875000
21
-105.875000
31
0.0
0
LINE
8
0
6
CONTINUOUS
10
-74.625000
20
-129.875000
30
0.0
11
-91.125000
21
-118.750000
31
0.0
0
LINE
8
0
6
CONTINUOUS
10
-57.250000
20
-138.250000
30
0.0
11
-74.625000
21
-129.875000
31
0.0
0
LINE
8
0
6
CONTINUOUS
10
-19.500000
20
-148.500000
30
0.0
11
-38.750000
21
-144.625000
31
0.0
0
LINE
8
0
6
CONTINUOUS
10
0.000000
20
-150.000000
30
0.0
11
-19.500000
21
-148.500000
31
0.0
0
LINE
8
0
6
CONTINUOUS
10
-117.750000
20
-90.375000
30
0.0
11
-105.000000
21
-105.000000
31
0.0
0
LINE
8
0
6
CONTINUOUS
10
-137.125000
20
-56.875000
30
0.0
11
-128.875000
21
-74.000000
31
0.0
0
LINE
8
0
6
CONTINUOUS
10
-143.375000
20
-38.375000
30
0.0
11
-137.125000
21
-56.875000
31
0.0
0
LINE
8
0
6
CONTINUOUS
10
-148.750000
20
0.000000
30
0.0
11
-147.250000
21
-19.500000
31
0.0
0
LINE
8
0
6
CONTINUOUS
10
-118.750000
20
-91.125000
30
0.0
11
-105.875000
21
-105.875000
31
0.0
0
LINE
8
0
6
CONTINUOUS
10
-105.000000
20
-105.000000
30
0.0
11
-117.750000
21
-90.375000
31
0.0
0
LINE
8
0
6
CONTINUOUS
10
-129.875000
20
-74.625000
30
0.0
11
-118.750000
21
-91.125000
31
0.0
0
LINE
8
0
6
CONTINUOUS
10
-117.750000
20
-90.375000
30
0.0
11
-128.875000
21
-74.000000
31
0.0
0
LINE
8
0
6
CONTINUOUS
10
-138.250000
20
-57.250000
30
0.0
11
-129.875000
21
-74.625000
31
0.0
0
LINE
8
0
6
CONTINUOUS
10
-128.875000
20
-74.000000
30
0.0
11
-137.125000
21
-56.875000
31
0.0
0
LINE
8
0
6
CONTINUOUS
10
-144.625000
20
-38.750000
30
0.0
11
-138.250000
21
-57.250000
31
0.0
0
LINE
8
0
6
CONTINUOUS
10
-137.125000
20
-56.875000
30
0.0
11
-143.375000
21
-38.375000
31
0.0
0
LINE
8
0
6
CONTINUOUS
10
-148.500000
20
-19.500000
30
0.0
11
-144.625000
21
-38.750000
31
0.0
0
LINE
8
0
6
CONTINUOUS
10
-143.375000
20
-38.375000
30
0.0
11
-147.250000
21
-19.500000
31
0.0
0
LINE
8
0
6
CONTINUOUS
10
-150.000000
20
0.000000
30
0.0
11
-148.500000
21
-19.500000
31
0.0
0
LINE
8
0
6
CONTINUOUS
10
-147.250000
20
-19.500000
30
0.0
11
-148.750000
21
0.000000
31
0.0
0
LINE
8
0
6
CONTINUOUS
10
-105.875000
20
-105.875000
30
0.0
11
-118.750000
21
-91.125000
31
0.0
0
LINE
8
0
6
CONTINUOUS
10
-129.875000
20
-74.625000
30
0.0
11
-138.250000
21
-57.250000
31
0.0
0
LINE
8
0
6
CONTINUOUS
10
-138.250000
20
-57.250000
30
0.0
11
-144.625000
21
-38.750000
31
0.0
0
LINE
8
0
6
CONTINUOUS
10
-148.500000
20
-19.500000
30
0.0
11
-150.000000
21
0.000000
31
0.0
0
LINE
8
0
6
CONTINUOUS
10
-35.300000
20
35.300000
30
0.0
11
-39.600000
21
30.400000
31
0.0
0
LINE
8
0
6
CONTINUOUS
10
-39.600000
20
30.400000
30
0.0
11
-43.300000
21
24.900000
31
0.0
0
LINE
8
0
6
CONTINUOUS
10
-43.300000
20
24.900000
30
0.0
11
-46.100000
21
19.100000
31
0.0
0
LINE
8
0
6
CONTINUOUS
10
-46.100000
20
19.100000
30
0.0
11
-48.200000
21
12.900000
31
0.0
0
LINE
8
0
6
CONTINUOUS
10
-48.200000
20
12.900000
30
0.0
11
-49.500000
21
6.500000
31
0.0
0
LINE
8
0
6
CONTINUOUS
10
-49.500000
20
6.500000
30
0.0
11
-50.000000
21
0.000000
31
0.0
0
LINE
8
0
6
CONTINUOUS
10
-39.600000
20
30.400000
30
0.0
11
-35.300000
21
35.300000
31
0.0
0
LINE
8
0
6
CONTINUOUS
10
-43.300000
20
24.900000
30
0.0
11
-39.600000
21
30.400000
31
0.0
0
LINE
8
0
6
CONTINUOUS
10
-46.100000
20
19.100000
30
0.0
11
-43.300000
21
24.900000
31
0.0
0
LINE
8
0
6
CONTINUOUS
10
-48.200000
20
12.900000
30
0.0
11
-46.100000
21
19.100000
31
0.0
0
LINE
8
0
6
CONTINUOUS
10
-49.500000
20
6.500000
30
0.0
11
-48.200000
21
12.900000
31
0.0
0
LINE
8
0
6
CONTINUOUS
10
-50.000000
20
0.000000
30
0.0
11
-49.500000
21
6.500000
31
0.0
0
LINE
8
0
6
CONTINUOUS
10
-30.400000
20
39.600000
30
0.0
11
-35.300000
21
35.300000
31
0.0
0
LINE
8
0
6
CONTINUOUS
10
-24.900000
20
43.300000
30
0.0
11
-30.400000
21
39.600000
31
0.0
0
LINE
8
0
6
CONTINUOUS
10
-19.100000
20
46.100000
30
0.0
11
-24.900000
21
43.300000
31
0.0
0
LINE
8
0
6
CONTINUOUS
10
-12.900000
20
48.200000
30
0.0
11
-19.100000
21
46.100000
31
0.0
0
LINE
8
0
6
CONTINUOUS
10
-6.500000
20
49.500000
30
0.0
11
-12.900000
21
48.200000
31
0.0
0
LINE
8
0
6
CONTINUOUS
10
0.000000
20
50.000000
30
0.0
11
-6.500000
21
49.500000
31
0.0
0
LINE
8
0
6
CONTINUOUS
10
-35.300000
20
35.300000
30
0.0
11
-30.400000
21
39.600000
31
0.0
0
LINE
8
0
6
CONTINUOUS
10
-30.400000
20
39.600000
30
0.0
11
-24.900000
21
43.300000
31
0.0
0
LINE
8
0
6
CONTINUOUS
10
-24.900000
20
43.300000
30
0.0
11
-19.100000
21
46.100000
31
0.0
0
LINE
8
0
6
CONTINUOUS
10
-19.100000
20
46.100000
30
0.0
11
-12.900000
21
48.200000
31
0.0
0
LINE
8
0
6
CONTINUOUS
10
-12.900000
20
48.200000
30
0.0
11
-6.500000
21
49.500000
31
0.0
0
LINE
8
0
6
CONTINUOUS
10
-6.500000
20
49.500000
30
0.0
11
0.000000
21
50.000000
31
0.0
0
LINE
8
0
6
CONTINUOUS
10
35.300000
20
35.300000
30
0.0
11
30.400000
21
39.600000
31
0.0
0
LINE
8
0
6
CONTINUOUS
10
30.400000
20
39.600000
30
0.0
11
24.900000
21
43.300000
31
0.0
0
LINE
8
0
6
CONTINUOUS
10
24.900000
20
43.300000
30
0.0
11
19.100000
21
46.100000
31
0.0
0
LINE
8
0
6
CONTINUOUS
10
19.100000
20
46.100000
30
0.0
11
12.900000
21
48.200000
31
0.0
0
LINE
8
0
6
CONTINUOUS
10
12.900000
20
48.200000
30
0.0
11
6.500000
21
49.500000
31
0.0
0
LINE
8
0
6
CONTINUOUS
10
6.500000
20
49.500000
30
0.0
11
0.000000
21
50.000000
31
0.0
0
LINE
8
0
6
CONTINUOUS
10
30.400000
20
39.600000
30
0.0
11
35.300000
21
35.300000
31
0.0
0
LINE
8
0
6
CONTINUOUS
10
24.900000
20
43.300000
30
0.0
11
30.400000
21
39.600000
31
0.0
0
LINE
8
0
6
CONTINUOUS
10
19.100000
20
46.100000
30
0.0
11
24.900000
21
43.300000
31
0.0
0
LINE
8
0
6
CONTINUOUS
10
12.900000
20
48.200000
30
0.0
11
19.100000
21
46.100000
31
0.0
0
LINE
8
0
6
CONTINUOUS
10
6.500000
20
49.500000
30
0.0
11
12.900000
21
48.200000
31
0.0
0
LINE
8
0
6
CONTINUOUS
10
0.000000
20
50.000000
30
0.0
11
6.500000
21
49.500000
31
0.0
0
LINE
8
0
6
CONTINUOUS
10
39.600000
20
30.400000
30
0.0
11
35.300000
21
35.300000
31
0.0
0
LINE
8
0
6
CONTINUOUS
10
43.300000
20
24.900000
30
0.0
11
39.600000
21
30.400000
31
0.0
0
LINE
8
0
6
CONTINUOUS
10
46.100000
20
19.100000
30
0.0
11
43.300000
21
24.900000
31
0.0
0
LINE
8
0
6
CONTINUOUS
10
48.200000
20
12.900000
30
0.0
11
46.100000
21
19.100000
31
0.0
0
LINE
8
0
6
CONTINUOUS
10
49.500000
20
6.500000
30
0.0
11
48.200000
21
12.900000
31
0.0
0
LINE
8
0
6
CONTINUOUS
10
50.000000
20
0.000000
30
0.0
11
49.500000
21
6.500000
31
0.0
0
LINE
8
0
6
CONTINUOUS
10
35.300000
20
35.300000
30
0.0
11
39.600000
21
30.400000
31
0.0
0
LINE
8
0
6
CONTINUOUS
10
39.600000
20
30.400000
30
0.0
11
43.300000
21
24.900000
31
0.0
0
LINE
8
0
6
CONTINUOUS
10
43.300000
20
24.900000
30
0.0
11
46.100000
21
19.100000
31
0.0
0
LINE
8
0
6
CONTINUOUS
10
46.100000
20
19.100000
30
0.0
11
48.200000
21
12.900000
31
0.0
0
LINE
8
0
6
CONTINUOUS
10
48.200000
20
12.900000
30
0.0
11
49.500000
21
6.500000
31
0.0
0
LINE
8
0
6
CONTINUOUS
10
49.500000
20
6.500000
30
0.0
11
50.000000
21
0.000000
31
0.0
0
LINE
8
0
6
CONTINUOUS
10
35.300000
20
-35.300000
30
0.0
11
39.600000
21
-30.400000
31
0.0
0
LINE
8
0
6
CONTINUOUS
10
39.600000
20
-30.400000
30
0.0
11
43.300000
21
-24.900000
31
0.0
0
LINE
8
0
6
CONTINUOUS
10
43.300000
20
-24.900000
30
0.0
11
46.100000
21
-19.100000
31
0.0
0
LINE
8
0
6
CONTINUOUS
10
46.100000
20
-19.100000
30
0.0
11
48.200000
21
-12.900000
31
0.0
0
LINE
8
0
6
CONTINUOUS
10
48.200000
20
-12.900000
30
0.0
11
49.500000
21
-6.500000
31
0.0
0
LINE
8
0
6
CONTINUOUS
10
49.500000
20
-6.500000
30
0.0
11
50.000000
21
0.000000
31
0.0
0
LINE
8
0
6
CONTINUOUS
10
39.600000
20
-30.400000
30
0.0
11
35.300000
21
-35.300000
31
0.0
0
LINE
8
0
6
CONTINUOUS
10
43.300000
20
-24.900000
30
0.0
11
39.600000
21
-30.400000
31
0.0
0
LINE
8
0
6
CONTINUOUS
10
46.100000
20
-19.100000
30
0.0
11
43.300000
21
-24.900000
31
0.0
0
LINE
8
0
6
CONTINUOUS
10
48.200000
20
-12.900000
30
0.0
11
46.100000
21
-19.100000
31
0.0
0
LINE
8
0
6
CONTINUOUS
10
49.500000
20
-6.500000
30
0.0
11
48.200000
21
-12.900000
31
0.0
0
LINE
8
0
6
CONTINUOUS
10
50.000000
20
0.000000
30
0.0
11
49.500000
21
-6.500000
31
0.0
0
LINE
8
0
6
CONTINUOUS
10
30.400000
20
-39.600000
30
0.0
11
35.300000
21
-35.300000
31
0.0
0
LINE
8
0
6
CONTINUOUS
10
24.900000
20
-43.300000
30
0.0
11
30.400000
21
-39.600000
31
0.0
0
LINE
8
0
6
CONTINUOUS
10
19.100000
20
-46.100000
30
0.0
11
24.900000
21
-43.300000
31
0.0
0
LINE
8
0
6
CONTINUOUS
10
12.900000
20
-48.200000
30
0.0
11
19.100000
21
-46.100000
31
0.0
0
LINE
8
0
6
CONTINUOUS
10
6.500000
20
-49.500000
30
0.0
11
12.900000
21
-48.200000
31
0.0
0
LINE
8
0
6
CONTINUOUS
10
0.000000
20
-50.000000
30
0.0
11
6.500000
21
-49.500000
31
0.0
0
LINE
8
0
6
CONTINUOUS
10
35.300000
20
-35.300000
30
0.0
11
30.400000
21
-39.600000
31
0.0
0
LINE
8
0
6
CONTINUOUS
10
30.400000
20
-39.600000
30
0.0
11
24.900000
21
-43.300000
31
0.0
0
LINE
8
0
6
CONTINUOUS
10
24.900000
20
-43.300000
30
0.0
11
19.100000
21
-46.100000
31
0.0
0
LINE
8
0
6
CONTINUOUS
10
19.100000
20
-46.100000
30
0.0
11
12.900000
21
-48.200000
31
0.0
0
LINE
8
0
6
CONTINUOUS
10
12.900000
20
-48.200000
30
0.0
11
6.500000
21
-49.500000
31
0.0
0
LINE
8
0
6
CONTINUOUS
10
6.500000
20
-49.500000
30
0.0
11
0.000000
21
-50.000000
31
0.0
0
LINE
8
0
6
CONTINUOUS
10
-35.300000
20
-35.300000
30
0.0
11
-30.400000
21
-39.600000
31
0.0
0
LINE
8
0
6
CONTINUOUS
10
-30.400000
20
-39.600000
30
0.0
11
-24.900000
21
-43.300000
31
0.0
0
LINE
8
0
6
CONTINUOUS
10
-24.900000
20
-43.300000
30
0.0
11
-19.100000
21
-46.100000
31
0.0
0
LINE
8
0
6
CONTINUOUS
10
-19.100000
20
-46.100000
30
0.0
11
-12.900000
21
-48.200000
31
0.0
0
LINE
8
0
6
CONTINUOUS
10
-12.900000
20
-48.200000
30
0.0
11
-6.500000
21
-49.500000
31
0.0
0
LINE
8
0
6
CONTINUOUS
10
-6.500000
20
-49.500000
30
0.0
11
0.000000
21
-50.000000
31
0.0
0
LINE
8
0
6
CONTINUOUS
10
-30.400000
20
-39.600000
30
0.0
11
-35.300000
21
-35.300000
31
0.0
0
LINE
8
0
6
CONTINUOUS
10
-24.900000
20
-43.300000
30
0.0
11
-30.400000
21
-39.600000
31
0.0
0
LINE
8
0
6
CONTINUOUS
10
-19.100000
20
-46.100000
30
0.0
11
-24.900000
21
-43.300000
31
0.0
0
LINE
8
0
6
CONTINUOUS
10
-12.900000
20
-48.200000
30
0.0
11
-19.100000
21
-46.100000
31
0.0
0
LINE
8
0
6
CONTINUOUS
10
-6.500000
20
-49.500000
30
0.0
11
-12.900000
21
-48.200000
31
0.0
0
LINE
8
0
6
CONTINUOUS
10
0.000000
20
-50.000000
30
0.0
11
-6.500000
21
-49.500000
31
0.0
0
LINE
8
0
6
CONTINUOUS
10
-39.600000
20
-30.400000
30
0.0
11
-35.300000
21
-35.300000
31
0.0
0
LINE
8
0
6
CONTINUOUS
10
-43.300000
20
-24.900000
30
0.0
11
-39.600000
21
-30.400000
31
0.0
0
LINE
8
0
6
CONTINUOUS
10
-46.100000
20
-19.100000
30
0.0
11
-43.300000
21
-24.900000
31
0.0
0
LINE
8
0
6
CONTINUOUS
10
-48.200000
20
-12.900000
30
0.0
11
-46.100000
21
-19.100000
31
0.0
0
LINE
8
0
6
CONTINUOUS
10
-49.500000
20
-6.500000
30
0.0
11
-48.200000
21
-12.900000
31
0.0
0
LINE
8
0
6
CONTINUOUS
10
-50.000000
20
0.000000
30
0.0
11
-49.500000
21
-6.500000
31
0.0
0
LINE
8
0
6
CONTINUOUS
10
-35.300000
20
-35.300000
30
0.0
11
-39.600000
21
-30.400000
31
0.0
0
LINE
8
0
6
CONTINUOUS
10
-39.600000
20
-30.400000
30
0.0
11
-43.300000
21
-24.900000
31
0.0
0
LINE
8
0
6
CONTINUOUS
10
-43.300000
20
-24.900000
30
0.0
11
-46.100000
21
-19.100000
31
0.0
0
LINE
8
0
6
CONTINUOUS
10
-46.100000
20
-19.100000
30
0.0
11
-48.200000
21
-12.900000
31
0.0
0
LINE
8
0
6
CONTINUOUS
10
-48.200000
20
-12.900000
30
0.0
11
-49.500000
21
-6.500000
31
0.0
0
LINE
8
0
6
CONTINUOUS
10
-49.500000
20
-6.500000
30
0.0
11
-50.000000
21
0.000000
31
0.0
0
LINE
8
0
6
CONTINUOUS
10
27.238000
20
15.657000
30
0.0
11
22.235000
21
22.235000
31
0.0
0
LINE
8
0
6
CONTINUOUS
10
30.388000
20
8.060000
30
0.0
11
27.238000
21
15.657000
31
0.0
0
LINE
8
0
6
CONTINUOUS
10
31.500000
20
0.000000
30
0.0
11
30.388000
21
8.060000
31
0.0
0
LINE
8
0
6
CONTINUOUS
10
22.235000
20
22.235000
30
0.0
11
27.238000
21
15.657000
31
0.0
0
LINE
8
0
6
CONTINUOUS
10
27.238000
20
15.657000
30
0.0
11
30.388000
21
8.060000
31
0.0
0
LINE
8
0
6
CONTINUOUS
10
30.388000
20
8.060000
30
0.0
11
31.500000
21
0.000000
31
0.0
0
LINE
8
0
6
CONTINUOUS
10
-22.235000
20
22.235000
30
0.0
11
-27.238000
21
15.657000
31
0.0
0
LINE
8
0
6
CONTINUOUS
10
-27.238000
20
15.657000
30
0.0
11
-30.388000
21
8.060000
31
0.0
0
LINE
8
0
6
CONTINUOUS
10
-30.388000
20
8.060000
30
0.0
11
-31.500000
21
0.000000
31
0.0
0
LINE
8
0
6
CONTINUOUS
10
-27.238000
20
15.657000
30
0.0
11
-22.235000
21
22.235000
31
0.0
0
LINE
8
0
6
CONTINUOUS
10
-30.388000
20
8.060000
30
0.0
11
-27.238000
21
15.657000
31
0.0
0
LINE
8
0
6
CONTINUOUS
10
-31.500000
20
0.000000
30
0.0
11
-30.388000
21
8.060000
31
0.0
0
LINE
8
0
6
CONTINUOUS
10
-15.657000
20
27.238000
30
0.0
11
-22.235000
21
22.235000
31
0.0
0
LINE
8
0
6
CONTINUOUS
10
-8.060000
20
30.388000
30
0.0
11
-15.657000
21
27.238000
31
0.0
0
LINE
8
0
6
CONTINUOUS
10
0.000000
20
31.500000
30
0.0
11
-8.060000
21
30.388000
31
0.0
0
LINE
8
0
6
CONTINUOUS
10
-22.235000
20
22.235000
30
0.0
11
-15.657000
21
27.238000
31
0.0
0
LINE
8
0
6
CONTINUOUS
10
-15.657000
20
27.238000
30
0.0
11
-8.060000
21
30.388000
31
0.0
0
LINE
8
0
6
CONTINUOUS
10
-8.060000
20
30.388000
30
0.0
11
0.000000
21
31.500000
31
0.0
0
LINE
8
0
6
CONTINUOUS
10
22.235000
20
22.235000
30
0.0
11
15.657000
21
27.238000
31
0.0
0
LINE
8
0
6
CONTINUOUS
10
15.657000
20
27.238000
30
0.0
11
8.060000
21
30.388000
31
0.0
0
LINE
8
0
6
CONTINUOUS
10
8.060000
20
30.388000
30
0.0
11
0.000000
21
31.500000
31
0.0
0
LINE
8
0
6
CONTINUOUS
10
15.657000
20
27.238000
30
0.0
11
22.235000
21
22.235000
31
0.0
0
LINE
8
0
6
CONTINUOUS
10
8.060000
20
30.388000
30
0.0
11
15.657000
21
27.238000
31
0.0
0
LINE
8
0
6
CONTINUOUS
10
0.000000
20
31.500000
30
0.0
11
8.060000
21
30.388000
31
0.0
0
LINE
8
0
6
CONTINUOUS
10
22.235000
20
-22.235000
30
0.0
11
27.238000
21
-15.657000
31
0.0
0
LINE
8
0
6
CONTINUOUS
10
27.238000
20
-15.657000
30
0.0
11
30.388000
21
-8.060000
31
0.0
0
LINE
8
0
6
CONTINUOUS
10
30.388000
20
-8.060000
30
0.0
11
31.500000
21
0.000000
31
0.0
0
LINE
8
0
6
CONTINUOUS
10
27.238000
20
-15.657000
30
0.0
11
22.235000
21
-22.235000
31
0.0
0
LINE
8
0
6
CONTINUOUS
10
30.388000
20
-8.060000
30
0.0
11
27.238000
21
-15.657000
31
0.0
0
LINE
8
0
6
CONTINUOUS
10
31.500000
20
0.000000
30
0.0
11
30.388000
21
-8.060000
31
0.0
0
LINE
8
0
6
CONTINUOUS
10
15.657000
20
-27.238000
30
0.0
11
22.235000
21
-22.235000
31
0.0
0
LINE
8
0
6
CONTINUOUS
10
8.060000
20
-30.388000
30
0.0
11
15.657000
21
-27.238000
31
0.0
0
LINE
8
0
6
CONTINUOUS
10
0.000000
20
-31.500000
30
0.0
11
8.060000
21
-30.388000
31
0.0
0
LINE
8
0
6
CONTINUOUS
10
22.235000
20
-22.235000
30
0.0
11
15.657000
21
-27.238000
31
0.0
0
LINE
8
0
6
CONTINUOUS
10
15.657000
20
-27.238000
30
0.0
11
8.060000
21
-30.388000
31
0.0
0
LINE
8
0
6
CONTINUOUS
10
8.060000
20
-30.388000
30
0.0
11
0.000000
21
-31.500000
31
0.0
0
LINE
8
0
6
CONTINUOUS
10
-22.235000
20
-22.235000
30
0.0
11
-15.657000
21
-27.238000
31
0.0
0
LINE
8
0
6
CONTINUOUS
10
-15.657000
20
-27.238000
30
0.0
11
-8.060000
21
-30.388000
31
0.0
0
LINE
8
0
6
CONTINUOUS
10
-8.060000
20
-30.388000
30
0.0
11
0.000000
21
-31.500000
31
0.0
0
LINE
8
0
6
CONTINUOUS
10
-15.657000
20
-27.238000
30
0.0
11
-22.235000
21
-22.235000
31
0.0
0
LINE
8
0
6
CONTINUOUS
10
-8.060000
20
-30.388000
30
0.0
11
-15.657000
21
-27.238000
31
0.0
0
LINE
8
0
6
CONTINUOUS
10
0.000000
20
-31.500000
30
0.0
11
-8.060000
21
-30.388000
31
0.0
0
LINE
8
0
6
CONTINUOUS
10
-27.238000
20
-15.657000
30
0.0
11
-22.235000
21
-22.235000
31
0.0
0
LINE
8
0
6
CONTINUOUS
10
-30.388000
20
-8.060000
30
0.0
11
-27.238000
21
-15.657000
31
0.0
0
LINE
8
0
6
CONTINUOUS
10
-31.500000
20
0.000000
30
0.0
11
-30.388000
21
-8.060000
31
0.0
0
LINE
8
0
6
CONTINUOUS
10
-22.235000
20
-22.235000
30
0.0
11
-27.238000
21
-15.657000
31
0.0
0
LINE
8
0
6
CONTINUOUS
10
-27.238000
20
-15.657000
30
0.0
11
-30.388000
21
-8.060000
31
0.0
0
LINE
8
0
6
CONTINUOUS
10
-30.388000
20
-8.060000
30
0.0
11
-31.500000
21
0.000000
31
0.0
0
ENDSEC
0
EOF
