  0
SECTION
  2
HEADER
  9
$ACADVER
  1
AC1015
  9
$ACADMAINTVER
 70
    13
  9
$DWGCODEPAGE
  3
ANSI_1252
  9
$INSBASE
 10
0.0
 20
0.0
 30
0.0
  9
$EXTMIN
 10
-0.0491500000000316
 20
-0.0064000000000266
 30
0.0
  9
$EXTMAX
 10
181.0491499999999
 20
382.0063999999999
 30
0.0
  9
$LIMMIN
 10
0.0
 20
0.0
  9
$LIMMAX
 10
12.0
 20
9.0
  9
$ORTHOMODE
 70
     0
  9
$REGENMODE
 70
     1
  9
$FILLMODE
 70
     1
  9
$QTEXTMODE
 70
     0
  9
$MIRRTEXT
 70
     1
  9
$LTSCALE
 40
1.0
  9
$ATTMODE
 70
     1
  9
$TEXTSIZE
 40
0.2
  9
$TRACEWID
 40
0.05
  9
$TEXTSTYLE
  7
Standard
  9
$CLAYER
  8
0
  9
$CELTYPE
  6
Continuous
  9
$CECOLOR
 62
   256
  9
$CELTSCALE
 40
1.0
  9
$DISPSILH
 70
     0
  9
$DIMSCALE
 40
1.0
  9
$DIMASZ
 40
0.18
  9
$DIMEXO
 40
0.0625
  9
$DIMDLI
 40
0.38
  9
$DIMRND
 40
0.0
  9
$DIMDLE
 40
0.0
  9
$DIMEXE
 40
0.18
  9
$DIMTP
 40
0.0
  9
$DIMTM
 40
0.0
  9
$DIMTXT
 40
0.18
  9
$DIMCEN
 40
0.09
  9
$DIMTSZ
 40
0.0
  9
$DIMTOL
 70
     0
  9
$DIMLIM
 70
     0
  9
$DIMTIH
 70
     1
  9
$DIMTOH
 70
     1
  9
$DIMSE1
 70
     0
  9
$DIMSE2
 70
     0
  9
$DIMTAD
 70
     0
  9
$DIMZIN
 70
     0
  9
$DIMBLK
  1

  9
$DIMASO
 70
     1
  9
$DIMSHO
 70
     1
  9
$DIMPOST
  1

  9
$DIMAPOST
  1

  9
$DIMALT
 70
     0
  9
$DIMALTD
 70
     2
  9
$DIMALTF
 40
25.4
  9
$DIMLFAC
 40
1.0
  9
$DIMTOFL
 70
     0
  9
$DIMTVP
 40
0.0
  9
$DIMTIX
 70
     0
  9
$DIMSOXD
 70
     0
  9
$DIMSAH
 70
     0
  9
$DIMBLK1
  1

  9
$DIMBLK2
  1

  9
$DIMSTYLE
  2
Standard
  9
$DIMCLRD
 70
     0
  9
$DIMCLRE
 70
     0
  9
$DIMCLRT
 70
     0
  9
$DIMTFAC
 40
1.0
  9
$DIMGAP
 40
0.09
  9
$DIMJUST
 70
     0
  9
$DIMSD1
 70
     0
  9
$DIMSD2
 70
     0
  9
$DIMTOLJ
 70
     1
  9
$DIMTZIN
 70
     0
  9
$DIMALTZ
 70
     0
  9
$DIMALTTZ
 70
     0
  9
$DIMUPT
 70
     0
  9
$DIMDEC
 70
     4
  9
$DIMTDEC
 70
     4
  9
$DIMALTU
 70
     2
  9
$DIMALTTD
 70
     2
  9
$DIMTXSTY
  7
Standard
  9
$DIMAUNIT
 70
     0
  9
$DIMADEC
 70
     0
  9
$DIMALTRND
 40
0.0
  9
$DIMAZIN
 70
     0
  9
$DIMDSEP
 70
    46
  9
$DIMATFIT
 70
     3
  9
$DIMFRAC
 70
     0
  9
$DIMLDRBLK
  1

  9
$DIMLUNIT
 70
     2
  9
$DIMLWD
 70
    -2
  9
$DIMLWE
 70
    -2
  9
$DIMTMOVE
 70
     0
  9
$LUNITS
 70
     2
  9
$LUPREC
 70
     4
  9
$SKETCHINC
 40
0.1
  9
$FILLETRAD
 40
0.0
  9
$AUNITS
 70
     0
  9
$AUPREC
 70
     0
  9
$MENU
  1
.
  9
$ELEVATION
 40
0.0
  9
$PELEVATION
 40
0.0
  9
$THICKNESS
 40
0.0
  9
$LIMCHECK
 70
     0
  9
$CHAMFERA
 40
0.0
  9
$CHAMFERB
 40
0.0
  9
$CHAMFERC
 40
0.0
  9
$CHAMFERD
 40
0.0
  9
$SKPOLY
 70
     0
  9
$TDCREATE
 40
2455656.758125659
  9
$TDUCREATE
 40
2455656.674792326
  9
$TDUPDATE
 40
2455656.838467824
  9
$TDUUPDATE
 40
2455656.755134490
  9
$TDINDWG
 40
0.0803421644
  9
$TDUSRTIMER
 40
0.0803421644
  9
$USRTIMER
 70
     1
  9
$ANGBASE
 50
0.0
  9
$ANGDIR
 70
     0
  9
$PDMODE
 70
     0
  9
$PDSIZE
 40
0.0
  9
$PLINEWID
 40
0.0
  9
$SPLFRAME
 70
     0
  9
$SPLINETYPE
 70
     6
  9
$SPLINESEGS
 70
     8
  9
$HANDSEED
  5
4F0
  9
$SURFTAB1
 70
     6
  9
$SURFTAB2
 70
     6
  9
$SURFTYPE
 70
     6
  9
$SURFU
 70
     6
  9
$SURFV
 70
     6
  9
$UCSBASE
  2

  9
$UCSNAME
  2

  9
$UCSORG
 10
0.0
 20
0.0
 30
0.0
  9
$UCSXDIR
 10
1.0
 20
0.0
 30
0.0
  9
$UCSYDIR
 10
0.0
 20
1.0
 30
0.0
  9
$UCSORTHOREF
  2

  9
$UCSORTHOVIEW
 70
     1
  9
$UCSORGTOP
 10
0.0
 20
0.0
 30
0.0
  9
$UCSORGBOTTOM
 10
0.0
 20
0.0
 30
0.0
  9
$UCSORGLEFT
 10
0.0
 20
0.0
 30
0.0
  9
$UCSORGRIGHT
 10
0.0
 20
0.0
 30
0.0
  9
$UCSORGFRONT
 10
0.0
 20
0.0
 30
0.0
  9
$UCSORGBACK
 10
0.0
 20
0.0
 30
0.0
  9
$PUCSBASE
  2

  9
$PUCSNAME
  2

  9
$PUCSORG
 10
0.0
 20
0.0
 30
0.0
  9
$PUCSXDIR
 10
1.0
 20
0.0
 30
0.0
  9
$PUCSYDIR
 10
0.0
 20
1.0
 30
0.0
  9
$PUCSORTHOREF
  2

  9
$PUCSORTHOVIEW
 70
     0
  9
$PUCSORGTOP
 10
0.0
 20
0.0
 30
0.0
  9
$PUCSORGBOTTOM
 10
0.0
 20
0.0
 30
0.0
  9
$PUCSORGLEFT
 10
0.0
 20
0.0
 30
0.0
  9
$PUCSORGRIGHT
 10
0.0
 20
0.0
 30
0.0
  9
$PUCSORGFRONT
 10
0.0
 20
0.0
 30
0.0
  9
$PUCSORGBACK
 10
0.0
 20
0.0
 30
0.0
  9
$USERI1
 70
     0
  9
$USERI2
 70
     0
  9
$USERI3
 70
     0
  9
$USERI4
 70
     0
  9
$USERI5
 70
     0
  9
$USERR1
 40
0.0
  9
$USERR2
 40
0.0
  9
$USERR3
 40
0.0
  9
$USERR4
 40
0.0
  9
$USERR5
 40
0.0
  9
$WORLDVIEW
 70
     1
  9
$SHADEDGE
 70
     3
  9
$SHADEDIF
 70
    70
  9
$TILEMODE
 70
     1
  9
$MAXACTVP
 70
    64
  9
$PINSBASE
 10
0.0
 20
0.0
 30
0.0
  9
$PLIMCHECK
 70
     0
  9
$PEXTMIN
 10
1.000000000000000E+20
 20
1.000000000000000E+20
 30
1.000000000000000E+20
  9
$PEXTMAX
 10
-1.000000000000000E+20
 20
-1.000000000000000E+20
 30
-1.000000000000000E+20
  9
$PLIMMIN
 10
0.0
 20
0.0
  9
$PLIMMAX
 10
12.0
 20
9.0
  9
$UNITMODE
 70
     0
  9
$VISRETAIN
 70
     1
  9
$PLINEGEN
 70
     0
  9
$PSLTSCALE
 70
     1
  9
$TREEDEPTH
 70
  3020
  9
$CMLSTYLE
  2
Standard
  9
$CMLJUST
 70
     0
  9
$CMLSCALE
 40
1.0
  9
$PROXYGRAPHICS
 70
     1
  9
$MEASUREMENT
 70
     0
  9
$CELWEIGHT
370
    -1
  9
$ENDCAPS
280
     0
  9
$JOINSTYLE
280
     0
  9
$LWDISPLAY
290
     0
  9
$INSUNITS
 70
     0
  9
$HYPERLINKBASE
  1

  9
$STYLESHEET
  1

  9
$XEDIT
290
     1
  9
$CEPSNTYPE
380
     0
  9
$PSTYLEMODE
290
     1
  9
$FINGERPRINTGUID
  2
{5482D11B-3C58-4FC6-9F59-151B2DB0A46F}
  9
$VERSIONGUID
  2
{7CDA16C5-E6CB-42FA-B5E3-9AD89B6B2EF9}
  9
$EXTNAMES
290
     1
  9
$PSVPSCALE
 40
0.0
  9
$OLESTARTUP
290
     0
  0
ENDSEC
  0
SECTION
  2
CLASSES
  0
CLASS
  1
ACDBDICTIONARYWDFLT
  2
AcDbDictionaryWithDefault
  3
AutoCAD 2000
 90
        0
280
     0
281
     0
  0
CLASS
  1
ACDBPLACEHOLDER
  2
AcDbPlaceHolder
  3
AutoCAD 2000
 90
        0
280
     0
281
     0
  0
CLASS
  1
LAYOUT
  2
AcDbLayout
  3
AutoCAD 2000
 90
        0
280
     0
281
     0
  0
CLASS
  1
DICTIONARYVAR
  2
AcDbDictionaryVar
  3
AutoCAD 2000
 90
        0
280
     0
281
     0
  0
ENDSEC
  0
SECTION
  2
TABLES
  0
TABLE
  2
VPORT
  5
8
330
0
100
AcDbSymbolTable
 70
     3
  0
VPORT
  5
4EF
330
8
100
AcDbSymbolTableRecord
100
AcDbViewportTableRecord
  2
*Active
 70
     0
 10
0.0
 20
0.0
 11
1.0
 21
1.0
 12
90.49999999999998
 22
191.0
 13
0.0
 23
0.0
 14
1.0
 24
1.0
 15
0.0
 25
0.0
 16
0.0
 26
0.0
 36
1.0
 17
0.0
 27
0.0
 37
0.0
 40
384.5968775648252
 41
2.073363431151241
 42
50.0
 43
0.0
 44
0.0
 50
0.0
 51
0.0
 71
     0
 72
   100
 73
     1
 74
     3
 75
     0
 76
     0
 77
     0
 78
     0
281
     0
 65
     1
110
0.0
120
0.0
130
0.0
111
1.0
121
0.0
131
0.0
112
0.0
122
1.0
132
0.0
 79
     1
146
0.0
  0
ENDTAB
  0
TABLE
  2
LTYPE
  5
5
330
0
100
AcDbSymbolTable
 70
     1
  0
LTYPE
  5
13
330
5
100
AcDbSymbolTableRecord
100
AcDbLinetypeTableRecord
  2
ByBlock
 70
     0
  3

 72
    65
 73
     0
 40
0.0
  0
LTYPE
  5
14
330
5
100
AcDbSymbolTableRecord
100
AcDbLinetypeTableRecord
  2
ByLayer
 70
     0
  3

 72
    65
 73
     0
 40
0.0
  0
LTYPE
  5
15
330
5
100
AcDbSymbolTableRecord
100
AcDbLinetypeTableRecord
  2
Continuous
 70
     0
  3
Solid line
 72
    65
 73
     0
 40
0.0
  0
ENDTAB
  0
TABLE
  2
LAYER
  5
2
330
0
100
AcDbSymbolTable
 70
     1
  0
LAYER
  5
10
330
2
100
AcDbSymbolTableRecord
100
AcDbLayerTableRecord
  2
0
 70
     0
 62
     7
  6
Continuous
370
    -3
390
F
  0
ENDTAB
  0
TABLE
  2
STYLE
  5
3
330
0
100
AcDbSymbolTable
 70
     1
  0
STYLE
  5
11
330
3
100
AcDbSymbolTableRecord
100
AcDbTextStyleTableRecord
  2
Standard
 70
     0
 40
0.0
 41
1.0
 50
0.0
 71
     0
 42
0.2
  3
txt
  4

  0
ENDTAB
  0
TABLE
  2
VIEW
  5
6
330
0
100
AcDbSymbolTable
 70
     0
  0
ENDTAB
  0
TABLE
  2
UCS
  5
7
330
0
100
AcDbSymbolTable
 70
     0
  0
ENDTAB
  0
TABLE
  2
APPID
  5
9
330
0
100
AcDbSymbolTable
 70
     1
  0
APPID
  5
12
330
9
100
AcDbSymbolTableRecord
100
AcDbRegAppTableRecord
  2
ACAD
 70
     0
  0
ENDTAB
  0
TABLE
  2
DIMSTYLE
  5
A
330
0
100
AcDbSymbolTable
 70
     1
100
AcDbDimStyleTable
 71
     0
  0
DIMSTYLE
105
4E8
330
A
100
AcDbSymbolTableRecord
100
AcDbDimStyleTableRecord
  2
Standard
 70
     0
340
11
  0
ENDTAB
  0
TABLE
  2
BLOCK_RECORD
  5
1
330
0
100
AcDbSymbolTable
 70
     0
  0
BLOCK_RECORD
  5
1E
330
1
100
AcDbSymbolTableRecord
100
AcDbBlockTableRecord
  2
*Model_Space
340
21
  0
BLOCK_RECORD
  5
1A
330
1
100
AcDbSymbolTableRecord
100
AcDbBlockTableRecord
  2
*Paper_Space
340
1D
  0
ENDTAB
  0
ENDSEC
  0
SECTION
  2
BLOCKS
  0
BLOCK
  5
1F
330
1E
100
AcDbEntity
  8
0
100
AcDbBlockBegin
  2
*Model_Space
 70
     0
 10
0.0
 20
0.0
 30
0.0
  3
*Model_Space
  1

  0
ENDBLK
  5
20
330
1E
100
AcDbEntity
  8
0
100
AcDbBlockEnd
  0
BLOCK
  5
1B
330
1A
100
AcDbEntity
 67
     1
  8
0
100
AcDbBlockBegin
  2
*Paper_Space
 70
     0
 10
0.0
 20
0.0
 30
0.0
  3
*Paper_Space
  1

  0
ENDBLK
  5
1C
330
1A
100
AcDbEntity
 67
     1
  8
0
100
AcDbBlockEnd
  0
ENDSEC
  0
SECTION
  2
ENTITIES
  0
LINE
  5
22
330
1E
100
AcDbEntity
  8
0
100
AcDbLine
 10
24.26485
 20
335.8394
 30
0.0
 11
24.6640758088804
 21
336.22875730574
 31
0.0
  0
LINE
  5
23
330
1E
100
AcDbEntity
  8
0
100
AcDbLine
 10
24.06684999999999
 20
336.0424
 30
0.0
 11
24.26485
 21
335.8394
 31
0.0
  0
LINE
  5
24
330
1E
100
AcDbEntity
  8
0
100
AcDbLine
 10
24.06684999999999
 20
336.0424
 30
0.0
 11
24.5600906814028
 21
336.5227189569649
 31
0.0
  0
LINE
  5
25
330
1E
100
AcDbEntity
  8
0
100
AcDbLine
 10
24.6504333781588
 20
336.2154521036429
 30
0.0
 11
24.71085
 21
336.1533999999999
 31
0.0
  0
LINE
  5
26
330
1E
100
AcDbEntity
  8
0
100
AcDbLine
 10
25.87685
 20
334.9844
 30
0.0
 11
26.1123789049345
 21
335.2137632267949
 31
0.0
  0
LINE
  5
27
330
1E
100
AcDbEntity
  8
0
100
AcDbLine
 10
25.80185
 20
335.0614
 30
0.0
 11
25.87685
 21
334.9844
 31
0.0
  0
LINE
  5
28
330
1E
100
AcDbEntity
  8
0
100
AcDbLine
 10
25.54885
 20
335.3213999999999
 30
0.0
 11
25.87685
 21
334.9844
 31
0.0
  0
LINE
  5
29
330
1E
100
AcDbEntity
  8
0
100
AcDbLine
 10
25.54885
 20
335.3213999999999
 30
0.0
 11
25.784058269844
 21
335.5506224306409
 31
0.0
  0
LINE
  5
2A
330
1E
100
AcDbEntity
  8
0
100
AcDbLine
 10
25.54885
 20
335.3213999999999
 30
0.0
 11
25.784058269844
 21
335.5506224306409
 31
0.0
  0
LINE
  5
2B
330
1E
100
AcDbEntity
  8
0
100
AcDbLine
 10
27.21284999999999
 20
333.1444
 30
0.0
 11
27.65785
 21
332.6874
 31
0.0
  0
LINE
  5
2C
330
1E
100
AcDbEntity
  8
0
100
AcDbLine
 10
27.21284999999999
 20
333.1444
 30
0.0
 11
27.7672321992833
 21
333.685078369638
 31
0.0
  0
LINE
  5
2D
330
1E
100
AcDbEntity
  8
0
100
AcDbLine
 10
27.09084999999999
 20
333.2683999999999
 30
0.0
 11
27.66214300120919
 21
332.682990747307
 31
0.0
  0
LINE
  5
2E
330
1E
100
AcDbEntity
  8
0
100
AcDbLine
 10
27.09084999999999
 20
333.2683999999999
 30
0.0
 11
27.21284999999999
 21
333.1444
 31
0.0
  0
LINE
  5
2F
330
1E
100
AcDbEntity
  8
0
100
AcDbLine
 10
27.09084999999999
 20
333.2683999999999
 30
0.0
 11
27.2918188249387
 21
333.0633016786579
 31
0.0
  0
LINE
  5
30
330
1E
100
AcDbEntity
  8
0
100
AcDbLine
 10
27.09084999999999
 20
333.2683999999999
 30
0.0
 11
27.66214300120919
 21
332.682990747307
 31
0.0
  0
LINE
  5
31
330
1E
100
AcDbEntity
  8
0
100
AcDbLine
 10
27.09084999999999
 20
333.2683999999999
 30
0.0
 11
27.6460142310128
 21
333.809435799984
 31
0.0
  0
LINE
  5
32
330
1E
100
AcDbEntity
  8
0
100
AcDbLine
 10
27.09084999999999
 20
333.2683999999999
 30
0.0
 11
27.2918188249387
 21
333.0633016786579
 31
0.0
  0
LINE
  5
33
330
1E
100
AcDbEntity
  8
0
100
AcDbLine
 10
27.09084999999999
 20
333.2683999999999
 30
0.0
 11
27.3129240988913
 21
333.484822512542
 31
0.0
  0
LINE
  5
34
330
1E
100
AcDbEntity
  8
0
100
AcDbLine
 10
26.99285
 20
334.3104
 30
0.0
 11
27.74598733600889
 21
335.0443706672779
 31
0.0
  0
LINE
  5
35
330
1E
100
AcDbEntity
  8
0
100
AcDbLine
 10
26.42685
 20
334.8913999999999
 30
0.0
 11
26.6161593922782
 21
334.69741104971
 31
0.0
  0
LINE
  5
36
330
1E
100
AcDbEntity
  8
0
100
AcDbLine
 10
26.42685
 20
334.8913999999999
 30
0.0
 11
26.6161593922782
 21
334.69741104971
 31
0.0
  0
LINE
  5
37
330
1E
100
AcDbEntity
  8
0
100
AcDbLine
 10
26.70185
 20
334.6093999999999
 30
0.0
 11
26.99285
 21
334.3104
 31
0.0
  0
LINE
  5
38
330
1E
100
AcDbEntity
  8
0
100
AcDbLine
 10
26.70185
 20
334.6093999999999
 30
0.0
 11
27.45475912159539
 21
335.3431482607169
 31
0.0
  0
LINE
  5
39
330
1E
100
AcDbEntity
  8
0
100
AcDbLine
 10
26.18485
 20
335.1404
 30
0.0
 11
26.70185
 21
334.6093999999999
 31
0.0
  0
LINE
  5
3A
330
1E
100
AcDbEntity
  8
0
100
AcDbLine
 10
26.18485
 20
335.1404
 30
0.0
 11
26.93718563472449
 21
335.8741385740909
 31
0.0
  0
LINE
  5
3B
330
1E
100
AcDbEntity
  8
0
100
AcDbLine
 10
26.18485
 20
335.1404
 30
0.0
 11
26.93718563472449
 21
335.8741385740909
 31
0.0
  0
LINE
  5
3C
330
1E
100
AcDbEntity
  8
0
100
AcDbLine
 10
25.38384999999999
 20
335.4904
 30
0.0
 11
25.80185
 21
335.0614
 31
0.0
  0
LINE
  5
3D
330
1E
100
AcDbEntity
  8
0
100
AcDbLine
 10
24.8773972972916
 20
336.010332432438
 30
0.0
 11
25.38384999999999
 21
335.4904
 31
0.0
  0
LINE
  5
3E
330
1E
100
AcDbEntity
  8
0
100
AcDbLine
 10
24.8773972972916
 20
336.010332432438
 30
0.0
 11
25.38384999999999
 21
335.4904
 31
0.0
  0
LINE
  5
3F
330
1E
100
AcDbEntity
  8
0
100
AcDbLine
 10
25.02285
 20
335.8614
 30
0.0
 11
25.54885
 21
335.3213999999999
 31
0.0
  0
LINE
  5
40
330
1E
100
AcDbEntity
  8
0
100
AcDbLine
 10
25.02285
 20
335.8614
 30
0.0
 11
25.63360348228199
 21
336.4566103547389
 31
0.0
  0
LINE
  5
41
330
1E
100
AcDbEntity
  8
0
100
AcDbLine
 10
25.90885
 20
335.4223999999999
 30
0.0
 11
26.42685
 21
334.8913999999999
 31
0.0
  0
LINE
  5
42
330
1E
100
AcDbEntity
  8
0
100
AcDbLine
 10
25.73985
 20
335.5964
 30
0.0
 11
26.18485
 21
335.1404
 31
0.0
  0
LINE
  5
43
330
1E
100
AcDbEntity
  8
0
100
AcDbLine
 10
25.73985
 20
335.5964
 30
0.0
 11
26.49245324189489
 21
336.3303995662529
 31
0.0
  0
LINE
  5
44
330
1E
100
AcDbEntity
  8
0
100
AcDbLine
 10
25.61785
 20
335.7214
 30
0.0
 11
25.73985
 21
335.5964
 31
0.0
  0
LINE
  5
45
330
1E
100
AcDbEntity
  8
0
100
AcDbLine
 10
25.61785
 20
335.7214
 30
0.0
 11
25.90885
 21
335.4223999999999
 31
0.0
  0
LINE
  5
46
330
1E
100
AcDbEntity
  8
0
100
AcDbLine
 10
25.61785
 20
335.7214
 30
0.0
 11
26.37080913385779
 21
336.4551970002119
 31
0.0
  0
LINE
  5
47
330
1E
100
AcDbEntity
  8
0
100
AcDbLine
 10
25.5376798579514
 20
335.3325219878919
 30
0.0
 11
25.82785
 21
335.0074
 31
0.0
  0
LINE
  5
48
330
1E
100
AcDbEntity
  8
0
100
AcDbLine
 10
24.71085
 20
336.1533999999999
 30
0.0
 11
25.82785
 21
335.0074
 31
0.0
  0
LINE
  5
49
330
1E
100
AcDbEntity
  8
0
100
AcDbLine
 10
23.21485
 20
337.2454
 30
0.0
 11
23.7061481084406
 21
337.724195012867
 31
0.0
  0
LINE
  5
4A
330
1E
100
AcDbEntity
  8
0
100
AcDbLine
 10
23.57385
 20
336.5484
 30
0.0
 11
24.06684999999999
 21
336.0424
 31
0.0
  0
LINE
  5
4B
330
1E
100
AcDbEntity
  8
0
100
AcDbLine
 10
23.57385
 20
336.5484
 30
0.0
 11
24.0851670952439
 21
337.04707779626
 31
0.0
  0
LINE
  5
4C
330
1E
100
AcDbEntity
  8
0
100
AcDbLine
 10
23.07984999999999
 20
337.0543999999999
 30
0.0
 11
23.57385
 21
336.5484
 31
0.0
  0
LINE
  5
4D
330
1E
100
AcDbEntity
  8
0
100
AcDbLine
 10
23.07984999999999
 20
337.0543999999999
 30
0.0
 11
23.6103114211571
 21
337.5713616544509
 31
0.0
  0
LINE
  5
4E
330
1E
100
AcDbEntity
  8
0
100
AcDbLine
 10
23.10690504586
 20
337.3564000000119
 30
0.0
 11
23.21485
 21
337.2454
 31
0.0
  0
LINE
  5
4F
330
1E
100
AcDbEntity
  8
0
100
AcDbLine
 10
23.15185
 20
337.3104
 30
0.0
 11
23.21485
 21
337.2454
 31
0.0
  0
LINE
  5
50
330
1E
100
AcDbEntity
  8
0
100
AcDbLine
 10
23.15185
 20
337.3104
 30
0.0
 11
23.7067105184692
 21
337.8511398166519
 31
0.0
  0
LINE
  5
51
330
1E
100
AcDbEntity
  8
0
100
AcDbLine
 10
22.88285
 20
337.2574
 30
0.0
 11
23.07984999999999
 21
337.0543999999999
 31
0.0
  0
LINE
  5
52
330
1E
100
AcDbEntity
  8
0
100
AcDbLine
 10
22.88285
 20
337.2574
 30
0.0
 11
23.0471095222008
 21
337.4175991744609
 31
0.0
  0
LINE
  5
53
330
1E
100
AcDbEntity
  8
0
100
AcDbLine
 10
24.60485
 20
336.2894
 30
0.0
 11
25.02285
 21
335.8614
 31
0.0
  0
LINE
  5
54
330
1E
100
AcDbEntity
  8
0
100
AcDbLine
 10
24.60485
 20
336.2894
 30
0.0
 11
25.3088323610524
 21
336.975993575188
 31
0.0
  0
LINE
  5
55
330
1E
100
AcDbEntity
  8
0
100
AcDbLine
 10
24.52885
 20
336.3673999999999
 30
0.0
 11
24.60485
 21
336.2894
 31
0.0
  0
LINE
  5
56
330
1E
100
AcDbEntity
  8
0
100
AcDbLine
 10
24.52885
 20
336.3673999999999
 30
0.0
 11
25.2497447292142
 21
337.0704881977289
 31
0.0
  0
LINE
  5
57
330
1E
100
AcDbEntity
  8
0
100
AcDbLine
 10
24.6504333781588
 20
336.2154521036429
 30
0.0
 11
24.71085
 21
336.1533999999999
 31
0.0
  0
LINE
  5
58
330
1E
100
AcDbEntity
  8
0
100
AcDbLine
 10
30.54405
 20
330.6674
 30
0.0
 11
31.03265
 21
330.1664
 31
0.0
  0
LINE
  5
59
330
1E
100
AcDbEntity
  8
0
100
AcDbLine
 10
30.54405
 20
330.6674
 30
0.0
 11
31.296921964673
 21
331.401386745042
 31
0.0
  0
LINE
  5
5A
330
1E
100
AcDbEntity
  8
0
100
AcDbLine
 10
30.54405
 20
330.6674
 30
0.0
 11
31.296921964673
 21
331.401386745042
 31
0.0
  0
LINE
  5
5B
330
1E
100
AcDbEntity
  8
0
100
AcDbLine
 10
28.83784999999999
 20
331.1474
 30
0.0
 11
29.2375021660324
 21
331.536611369121
 31
0.0
  0
LINE
  5
5C
330
1E
100
AcDbEntity
  8
0
100
AcDbLine
 10
28.6064236434116
 20
331.3847100775189
 30
0.0
 11
28.83784999999999
 21
331.1474
 31
0.0
  0
LINE
  5
5D
330
1E
100
AcDbEntity
  8
0
100
AcDbLine
 10
28.6064236434117
 20
331.3847100775179
 30
0.0
 11
28.83784999999999
 21
331.1474
 31
0.0
  0
LINE
  5
5E
330
1E
100
AcDbEntity
  8
0
100
AcDbLine
 10
28.82185
 20
331.1644
 30
0.0
 11
29.2209471371494
 21
331.5536026609009
 31
0.0
  0
LINE
  5
5F
330
1E
100
AcDbEntity
  8
0
100
AcDbLine
 10
29.60865
 20
331.1564
 30
0.0
 11
30.0348140925057
 21
331.5716564349969
 31
0.0
  0
LINE
  5
60
330
1E
100
AcDbEntity
  8
0
100
AcDbLine
 10
29.35755
 20
331.4134
 30
0.0
 11
29.60865
 21
331.1564
 31
0.0
  0
LINE
  5
61
330
1E
100
AcDbEntity
  8
0
100
AcDbLine
 10
29.35755
 20
331.4134
 30
0.0
 11
29.8063164237456
 21
331.851016112963
 31
0.0
  0
LINE
  5
62
330
1E
100
AcDbEntity
  8
0
100
AcDbLine
 10
30.33465
 20
330.8824
 30
0.0
 11
30.54405
 21
330.6674
 31
0.0
  0
LINE
  5
63
330
1E
100
AcDbEntity
  8
0
100
AcDbLine
 10
30.33465
 20
330.8824
 30
0.0
 11
31.0874360920388
 21
331.616303026458
 31
0.0
  0
LINE
  5
64
330
1E
100
AcDbEntity
  8
0
100
AcDbLine
 10
32.15144999999999
 20
328.5473999999999
 30
0.0
 11
32.61995
 21
328.0663999999999
 31
0.0
  0
LINE
  5
65
330
1E
100
AcDbEntity
  8
0
100
AcDbLine
 10
32.15144999999999
 20
328.5473999999999
 30
0.0
 11
32.4278365342155
 21
328.2639132450339
 31
0.0
  0
LINE
  5
66
330
1E
100
AcDbEntity
  8
0
100
AcDbLine
 10
32.15144999999999
 20
328.5473999999999
 30
0.0
 11
32.42783653421539
 21
328.2639132450339
 31
0.0
  0
LINE
  5
67
330
1E
100
AcDbEntity
  8
0
100
AcDbLine
 10
32.74974999999999
 20
327.1344
 30
0.0
 11
32.87410629197089
 21
327.006837080512
 31
0.0
  0
LINE
  5
68
330
1E
100
AcDbEntity
  8
0
100
AcDbLine
 10
32.74974999999999
 20
327.1344
 30
0.0
 11
32.87410629197089
 21
327.006837080512
 31
0.0
  0
LINE
  5
69
330
1E
100
AcDbEntity
  8
0
100
AcDbLine
 10
32.39535
 20
327.4974
 30
0.0
 11
32.74974999999999
 21
327.1344
 31
0.0
  0
LINE
  5
6A
330
1E
100
AcDbEntity
  8
0
100
AcDbLine
 10
32.39535
 20
327.4974
 30
0.0
 11
32.79485764371989
 21
327.886886298857
 31
0.0
  0
LINE
  5
6B
330
1E
100
AcDbEntity
  8
0
100
AcDbLine
 10
32.39535
 20
327.4974
 30
0.0
 11
32.78130224088289
 21
327.873670922972
 31
0.0
  0
LINE
  5
6C
330
1E
100
AcDbEntity
  8
0
100
AcDbLine
 10
32.41214999999999
 20
327.4803999999999
 30
0.0
 11
32.80834999999999
 21
327.0744
 31
0.0
  0
LINE
  5
6D
330
1E
100
AcDbEntity
  8
0
100
AcDbLine
 10
32.41214999999999
 20
327.4803999999999
 30
0.0
 11
32.8115514251891
 21
327.8697827447369
 31
0.0
  0
LINE
  5
6E
330
1E
100
AcDbEntity
  8
0
100
AcDbLine
 10
32.87410629197089
 20
327.006837080512
 30
0.0
 11
33.33975
 21
326.5283999999999
 31
0.0
  0
LINE
  5
6F
330
1E
100
AcDbEntity
  8
0
100
AcDbLine
 10
32.874106291971
 20
327.006837080512
 30
0.0
 11
33.33975
 21
326.5283999999999
 31
0.0
  0
LINE
  5
70
330
1E
100
AcDbEntity
  8
0
100
AcDbLine
 10
32.80834999999999
 20
327.0744
 30
0.0
 11
33.33975
 21
326.5283999999999
 31
0.0
  0
LINE
  5
71
330
1E
100
AcDbEntity
  8
0
100
AcDbLine
 10
32.80834999999999
 20
327.0744
 30
0.0
 11
32.9726742593642
 21
327.234467281696
 31
0.0
  0
LINE
  5
72
330
1E
100
AcDbEntity
  8
0
100
AcDbLine
 10
32.80834999999999
 20
327.0744
 30
0.0
 11
32.9726742593642
 21
327.234467281696
 31
0.0
  0
LINE
  5
73
330
1E
100
AcDbEntity
  8
0
100
AcDbLine
 10
32.77965
 20
327.4324
 30
0.0
 11
32.9355755520138
 21
327.272548265022
 31
0.0
  0
LINE
  5
74
330
1E
100
AcDbEntity
  8
0
100
AcDbLine
 10
32.77965
 20
327.4324
 30
0.0
 11
32.9355755520138
 21
327.272548265022
 31
0.0
  0
LINE
  5
75
330
1E
100
AcDbEntity
  8
0
100
AcDbLine
 10
32.65825
 20
327.5573999999999
 30
0.0
 11
32.94935
 21
327.2584
 31
0.0
  0
LINE
  5
76
330
1E
100
AcDbEntity
  8
0
100
AcDbLine
 10
32.65825
 20
327.5573999999999
 30
0.0
 11
32.77965
 21
327.4324
 31
0.0
  0
LINE
  5
77
330
1E
100
AcDbEntity
  8
0
100
AcDbLine
 10
32.65825
 20
327.5573999999999
 30
0.0
 11
32.8930383140248
 21
327.7862816897729
 31
0.0
  0
LINE
  5
78
330
1E
100
AcDbEntity
  8
0
100
AcDbLine
 10
32.94935
 20
327.2584
 30
0.0
 11
33.46685
 21
326.7274
 31
0.0
  0
LINE
  5
79
330
1E
100
AcDbEntity
  8
0
100
AcDbLine
 10
32.94935
 20
327.2584
 30
0.0
 11
33.1842934732127
 21
327.4874500951879
 31
0.0
  0
LINE
  5
7A
330
1E
100
AcDbEntity
  8
0
100
AcDbLine
 10
32.9821466666491
 20
327.695000000018
 30
0.0
 11
33.37615
 21
327.2904
 31
0.0
  0
LINE
  5
7B
330
1E
100
AcDbEntity
  8
0
100
AcDbLine
 10
32.9954208333059
 20
327.681400000028
 30
0.0
 11
33.12495
 21
327.5484
 31
0.0
  0
LINE
  5
7C
330
1E
100
AcDbEntity
  8
0
100
AcDbLine
 10
33.12495
 20
327.5484
 30
0.0
 11
33.37615
 21
327.2904
 31
0.0
  0
LINE
  5
7D
330
1E
100
AcDbEntity
  8
0
100
AcDbLine
 10
32.8813722614631
 20
327.7982480565589
 30
0.0
 11
33.12495
 21
327.5484
 31
0.0
  0
LINE
  5
7E
330
1E
100
AcDbEntity
  8
0
100
AcDbLine
 10
32.9821466666491
 20
327.695000000018
 30
0.0
 11
33.37615
 21
327.2904
 31
0.0
  0
LINE
  5
7F
330
1E
100
AcDbEntity
  8
0
100
AcDbLine
 10
36.04805
 20
323.7504
 30
0.0
 11
36.24555
 21
323.5473999999999
 31
0.0
  0
LINE
  5
80
330
1E
100
AcDbEntity
  8
0
100
AcDbLine
 10
36.04805
 20
323.7504
 30
0.0
 11
36.4475145922625
 21
324.139815168558
 31
0.0
  0
LINE
  5
81
330
1E
100
AcDbEntity
  8
0
100
AcDbLine
 10
36.04805
 20
323.7504
 30
0.0
 11
36.4339222428923
 21
324.126564765084
 31
0.0
  0
LINE
  5
82
330
1E
100
AcDbEntity
  8
0
100
AcDbLine
 10
36.24555
 20
323.5473999999999
 30
0.0
 11
36.73915
 21
323.0414
 31
0.0
  0
LINE
  5
83
330
1E
100
AcDbEntity
  8
0
100
AcDbLine
 10
36.24555
 20
323.5473999999999
 30
0.0
 11
36.6451266904905
 21
323.936953613642
 31
0.0
  0
LINE
  5
84
330
1E
100
AcDbEntity
  8
0
100
AcDbLine
 10
36.73915
 20
323.0414
 30
0.0
 11
37.23265
 21
322.5353999999999
 31
0.0
  0
LINE
  5
85
330
1E
100
AcDbEntity
  8
0
100
AcDbLine
 10
36.73915
 20
323.0414
 30
0.0
 11
37.3093480034581
 21
323.597295020968
 31
0.0
  0
LINE
  5
86
330
1E
100
AcDbEntity
  8
0
100
AcDbLine
 10
35.73925
 20
324.8394
 30
0.0
 11
36.054362384175
 21
324.543298275666
 31
0.0
  0
LINE
  5
87
330
1E
100
AcDbEntity
  8
0
100
AcDbLine
 10
35.79265
 20
324.8114
 30
0.0
 11
36.0825153218622
 21
324.5144580235589
 31
0.0
  0
LINE
  5
88
330
1E
100
AcDbEntity
  8
0
100
AcDbLine
 10
33.6323159091011
 20
326.22864999999
 30
0.0
 11
33.67734999999999
 21
326.1823999999999
 31
0.0
  0
LINE
  5
89
330
1E
100
AcDbEntity
  8
0
100
AcDbLine
 10
33.6323159091011
 20
326.22864999999
 30
0.0
 11
33.67734999999999
 21
326.1823999999999
 31
0.0
  0
LINE
  5
8A
330
1E
100
AcDbEntity
  8
0
100
AcDbLine
 10
33.33975
 20
326.5283999999999
 30
0.0
 11
33.69404999999999
 21
326.1654
 31
0.0
  0
LINE
  5
8B
330
1E
100
AcDbEntity
  8
0
100
AcDbLine
 10
33.33975
 20
326.5283999999999
 30
0.0
 11
33.5043923084718
 21
326.688912381603
 31
0.0
  0
LINE
  5
8C
330
1E
100
AcDbEntity
  8
0
100
AcDbLine
 10
33.33975
 20
326.5283999999999
 30
0.0
 11
33.6323159091011
 21
326.22864999999
 31
0.0
  0
LINE
  5
8D
330
1E
100
AcDbEntity
  8
0
100
AcDbLine
 10
33.33975
 20
326.5283999999999
 30
0.0
 11
33.6323159091011
 21
326.22864999999
 31
0.0
  0
LINE
  5
8E
330
1E
100
AcDbEntity
  8
0
100
AcDbLine
 10
33.85858170224899
 20
326.3258045498529
 30
0.0
 11
33.91165
 21
326.2714
 31
0.0
  0
LINE
  5
8F
330
1E
100
AcDbEntity
  8
0
100
AcDbLine
 10
33.69404999999999
 20
326.1654
 30
0.0
 11
33.85858170224899
 21
326.3258045498529
 31
0.0
  0
LINE
  5
90
330
1E
100
AcDbEntity
  8
0
100
AcDbLine
 10
33.46685
 20
326.7274
 30
0.0
 11
33.91165
 21
326.2714
 31
0.0
  0
LINE
  5
91
330
1E
100
AcDbEntity
  8
0
100
AcDbLine
 10
33.46685
 20
326.7274
 30
0.0
 11
34.021812671356
 21
327.2684418555639
 31
0.0
  0
LINE
  5
92
330
1E
100
AcDbEntity
  8
0
100
AcDbLine
 10
35.19375
 20
325.8974
 30
0.0
 11
35.3813979767892
 21
325.704983815121
 31
0.0
  0
LINE
  5
93
330
1E
100
AcDbEntity
  8
0
100
AcDbLine
 10
35.19375
 20
325.8974
 30
0.0
 11
35.3813979767891
 21
325.704983815121
 31
0.0
  0
LINE
  5
94
330
1E
100
AcDbEntity
  8
0
100
AcDbLine
 10
35.07235
 20
326.0224
 30
0.0
 11
35.36345
 21
325.7234
 31
0.0
  0
LINE
  5
95
330
1E
100
AcDbEntity
  8
0
100
AcDbLine
 10
35.07235
 20
326.0224
 30
0.0
 11
35.19375
 21
325.8974
 31
0.0
  0
LINE
  5
96
330
1E
100
AcDbEntity
  8
0
100
AcDbLine
 10
35.07235
 20
326.0224
 30
0.0
 11
35.8249463418611
 21
326.7555545045009
 31
0.0
  0
LINE
  5
97
330
1E
100
AcDbEntity
  8
0
100
AcDbLine
 10
35.36345
 20
325.7234
 30
0.0
 11
35.88095
 21
325.1924
 31
0.0
  0
LINE
  5
98
330
1E
100
AcDbEntity
  8
0
100
AcDbLine
 10
35.36345
 20
325.7234
 30
0.0
 11
36.1159261156345
 21
326.4570008255749
 31
0.0
  0
LINE
  5
99
330
1E
100
AcDbEntity
  8
0
100
AcDbLine
 10
35.88095
 20
325.1924
 30
0.0
 11
36.32575
 21
324.7364
 31
0.0
  0
LINE
  5
9A
330
1E
100
AcDbEntity
  8
0
100
AcDbLine
 10
35.88095
 20
325.1924
 30
0.0
 11
36.6334411113627
 21
325.926015445147
 31
0.0
  0
LINE
  5
9B
330
1E
100
AcDbEntity
  8
0
100
AcDbLine
 10
34.03305
 20
326.1474
 30
0.0
 11
34.5877818581429
 21
326.687801458213
 31
0.0
  0
LINE
  5
9C
330
1E
100
AcDbEntity
  8
0
100
AcDbLine
 10
33.91165
 20
326.2714
 30
0.0
 11
34.03305
 21
326.1474
 31
0.0
  0
LINE
  5
9D
330
1E
100
AcDbEntity
  8
0
100
AcDbLine
 10
33.91165
 20
326.2714
 30
0.0
 11
34.4664678667706
 21
326.812260184588
 31
0.0
  0
LINE
  5
9E
330
1E
100
AcDbEntity
  8
0
100
AcDbLine
 10
35.71674999999999
 20
324.8894
 30
0.0
 11
36.04554999999999
 21
324.5523999999999
 31
0.0
  0
LINE
  5
9F
330
1E
100
AcDbEntity
  8
0
100
AcDbLine
 10
35.71674999999999
 20
324.8894
 30
0.0
 11
35.79265
 21
324.8114
 31
0.0
  0
LINE
  5
A0
330
1E
100
AcDbEntity
  8
0
100
AcDbLine
 10
35.71674999999999
 20
324.8894
 30
0.0
 11
35.95238659783371
 21
325.119164638911
 31
0.0
  0
LINE
  5
A1
330
1E
100
AcDbEntity
  8
0
100
AcDbLine
 10
36.44715
 20
324.6113999999999
 30
0.0
 11
37.19967229391229
 21
325.3450458455059
 31
0.0
  0
LINE
  5
A2
330
1E
100
AcDbEntity
  8
0
100
AcDbLine
 10
36.1698244479731
 20
324.8962517349919
 30
0.0
 11
36.44715
 21
324.6113999999999
 31
0.0
  0
LINE
  5
A3
330
1E
100
AcDbEntity
  8
0
100
AcDbLine
 10
36.1698244479731
 20
324.8962517349919
 30
0.0
 11
36.44715
 21
324.6113999999999
 31
0.0
  0
LINE
  5
A4
330
1E
100
AcDbEntity
  8
0
100
AcDbLine
 10
36.32575
 20
324.7364
 30
0.0
 11
36.44715
 21
324.6113999999999
 31
0.0
  0
LINE
  5
A5
330
1E
100
AcDbEntity
  8
0
100
AcDbLine
 10
36.32575
 20
324.7364
 30
0.0
 11
37.0783339846646
 21
325.469542466528
 31
0.0
  0
LINE
  5
A6
330
1E
100
AcDbEntity
  8
0
100
AcDbLine
 10
36.04554999999999
 20
324.5523999999999
 30
0.0
 11
36.57164999999999
 21
324.0124
 31
0.0
  0
LINE
  5
A7
330
1E
100
AcDbEntity
  8
0
100
AcDbLine
 10
36.04554999999999
 20
324.5523999999999
 30
0.0
 11
36.2811176031166
 21
324.78193825719
 31
0.0
  0
LINE
  5
A8
330
1E
100
AcDbEntity
  8
0
100
AcDbLine
 10
36.57164999999999
 20
324.0124
 30
0.0
 11
36.98945
 21
323.5834
 31
0.0
  0
LINE
  5
A9
330
1E
100
AcDbEntity
  8
0
100
AcDbLine
 10
36.57164999999999
 20
324.0124
 30
0.0
 11
37.1824531732797
 21
324.607982230624
 31
0.0
  0
LINE
  5
AA
330
1E
100
AcDbEntity
  8
0
100
AcDbLine
 10
38.75545
 20
320.9724
 30
0.0
 11
39.10975
 21
320.6094
 31
0.0
  0
LINE
  5
AB
330
1E
100
AcDbEntity
  8
0
100
AcDbLine
 10
38.75545
 20
320.9724
 30
0.0
 11
38.92015704267439
 21
321.132975491997
 31
0.0
  0
LINE
  5
AC
330
1E
100
AcDbEntity
  8
0
100
AcDbLine
 10
38.75574999999999
 20
321.3014
 30
0.0
 11
39.065432568816
 21
320.984149999991
 31
0.0
  0
LINE
  5
AD
330
1E
100
AcDbEntity
  8
0
100
AcDbLine
 10
38.75574999999999
 20
321.3014
 30
0.0
 11
39.0654325688161
 21
320.984149999991
 31
0.0
  0
LINE
  5
AE
330
1E
100
AcDbEntity
  8
0
100
AcDbLine
 10
38.75574999999999
 20
321.3014
 30
0.0
 11
38.92015704267439
 21
321.132975491997
 31
0.0
  0
LINE
  5
AF
330
1E
100
AcDbEntity
  8
0
100
AcDbLine
 10
38.5529732302201
 20
321.5096323024259
 30
0.0
 11
38.75574999999999
 21
321.3014
 31
0.0
  0
LINE
  5
B0
330
1E
100
AcDbEntity
  8
0
100
AcDbLine
 10
37.909634408335
 20
322.799954398841
 30
0.0
 11
38.2385018555321
 21
322.490927451368
 31
0.0
  0
LINE
  5
B1
330
1E
100
AcDbEntity
  8
0
100
AcDbLine
 10
37.8175817514267
 20
322.7102108126969
 30
0.0
 11
38.14226262450679
 21
322.3971813899989
 31
0.0
  0
LINE
  5
B2
330
1E
100
AcDbEntity
  8
0
100
AcDbLine
 10
37.43005
 20
322.3324
 30
0.0
 11
37.9493432582652
 21
322.8386671825239
 31
0.0
  0
LINE
  5
B3
330
1E
100
AcDbEntity
  8
0
100
AcDbLine
 10
37.23265
 20
322.5353999999999
 30
0.0
 11
37.43005
 21
322.3324
 31
0.0
  0
LINE
  5
B4
330
1E
100
AcDbEntity
  8
0
100
AcDbLine
 10
37.23265
 20
322.5353999999999
 30
0.0
 11
37.744471449526
 21
323.0339995550979
 31
0.0
  0
LINE
  5
B5
330
1E
100
AcDbEntity
  8
0
100
AcDbLine
 10
37.90945
 20
322.1703999999999
 30
0.0
 11
37.97245
 21
322.1053999999999
 31
0.0
  0
LINE
  5
B6
330
1E
100
AcDbEntity
  8
0
100
AcDbLine
 10
37.90945
 20
322.1703999999999
 30
0.0
 11
38.4006744773496
 21
322.6488988357529
 31
0.0
  0
LINE
  5
B7
330
1E
100
AcDbEntity
  8
0
100
AcDbLine
 10
37.90945
 20
322.1703999999999
 30
0.0
 11
38.14226262450679
 21
322.3971813899989
 31
0.0
  0
LINE
  5
B8
330
1E
100
AcDbEntity
  8
0
100
AcDbLine
 10
37.97245
 20
322.1053999999999
 30
0.0
 11
38.39805
 21
321.6684
 31
0.0
  0
LINE
  5
B9
330
1E
100
AcDbEntity
  8
0
100
AcDbLine
 10
37.97245
 20
322.1053999999999
 30
0.0
 11
38.52741260843079
 21
322.6464417942169
 31
0.0
  0
LINE
  5
BA
330
1E
100
AcDbEntity
  8
0
100
AcDbLine
 10
38.39805
 20
321.6684
 30
0.0
 11
38.92595
 21
321.1274
 31
0.0
  0
LINE
  5
BB
330
1E
100
AcDbEntity
  8
0
100
AcDbLine
 10
38.39805
 20
321.6684
 30
0.0
 11
38.9532451106587
 21
322.209627938064
 31
0.0
  0
LINE
  5
BC
330
1E
100
AcDbEntity
  8
0
100
AcDbLine
 10
38.39805
 20
321.6684
 30
0.0
 11
38.5529732302201
 21
321.5096323024259
 31
0.0
  0
LINE
  5
BD
330
1E
100
AcDbEntity
  8
0
100
AcDbLine
 10
38.39805
 20
321.6684
 30
0.0
 11
38.5529732302201
 21
321.5096323024259
 31
0.0
  0
LINE
  5
BE
330
1E
100
AcDbEntity
  8
0
100
AcDbLine
 10
39.87235
 20
319.8263999999999
 30
0.0
 11
40.1526842560305
 21
319.5391820069459
 31
0.0
  0
LINE
  5
BF
330
1E
100
AcDbEntity
  8
0
100
AcDbLine
 10
39.87235
 20
319.8263999999999
 30
0.0
 11
40.1526842560305
 21
319.5391820069459
 31
0.0
  0
LINE
  5
C0
330
1E
100
AcDbEntity
  8
0
100
AcDbLine
 10
39.64115
 20
320.0644
 30
0.0
 11
40.03735
 21
319.6574
 31
0.0
  0
LINE
  5
C1
330
1E
100
AcDbEntity
  8
0
100
AcDbLine
 10
39.64115
 20
320.0644
 30
0.0
 11
40.0406975459681
 21
320.453626025687
 31
0.0
  0
LINE
  5
C2
330
1E
100
AcDbEntity
  8
0
100
AcDbLine
 10
40.03735
 20
319.6574
 30
0.0
 11
40.4368763852566
 21
320.046904570276
 31
0.0
  0
LINE
  5
C3
330
1E
100
AcDbEntity
  8
0
100
AcDbLine
 10
40.05404999999999
 20
319.6404
 30
0.0
 11
40.4535010095551
 21
320.029831085317
 31
0.0
  0
LINE
  5
C4
330
1E
100
AcDbEntity
  8
0
100
AcDbLine
 10
40.09504999999999
 20
319.5984
 30
0.0
 11
40.26105
 21
319.4284
 31
0.0
  0
LINE
  5
C5
330
1E
100
AcDbEntity
  8
0
100
AcDbLine
 10
40.09504999999999
 20
319.5984
 30
0.0
 11
40.34615
 21
319.3404
 31
0.0
  0
LINE
  5
C6
330
1E
100
AcDbEntity
  8
0
100
AcDbLine
 10
40.09504999999999
 20
319.5984
 30
0.0
 11
40.49444756591389
 21
319.9877789822689
 31
0.0
  0
LINE
  5
C7
330
1E
100
AcDbEntity
  8
0
100
AcDbLine
 10
40.34615
 20
319.3404
 30
0.0
 11
40.85115
 21
318.8224
 31
0.0
  0
LINE
  5
C8
330
1E
100
AcDbEntity
  8
0
100
AcDbLine
 10
40.26105
 20
319.4284
 30
0.0
 11
40.72955
 21
318.9474
 31
0.0
  0
LINE
  5
C9
330
1E
100
AcDbEntity
  8
0
100
AcDbLine
 10
40.26105
 20
319.4284
 30
0.0
 11
40.75130993267549
 21
319.905995037372
 31
0.0
  0
LINE
  5
CA
330
1E
100
AcDbEntity
  8
0
100
AcDbLine
 10
39.34105
 20
320.3714
 30
0.0
 11
39.87235
 21
319.8263999999999
 31
0.0
  0
LINE
  5
CB
330
1E
100
AcDbEntity
  8
0
100
AcDbLine
 10
38.94474999999999
 20
320.7783999999999
 30
0.0
 11
39.34105
 21
320.3714
 31
0.0
  0
LINE
  5
CC
330
1E
100
AcDbEntity
  8
0
100
AcDbLine
 10
38.92805
 20
320.7953999999999
 30
0.0
 11
38.9897840908947
 21
320.732150000015
 31
0.0
  0
LINE
  5
CD
330
1E
100
AcDbEntity
  8
0
100
AcDbLine
 10
38.92805
 20
320.7953999999999
 30
0.0
 11
38.9897840908947
 21
320.732150000015
 31
0.0
  0
LINE
  5
CE
330
1E
100
AcDbEntity
  8
0
100
AcDbLine
 10
39.10975
 20
320.6094
 30
0.0
 11
39.64115
 21
320.0644
 31
0.0
  0
LINE
  5
CF
330
1E
100
AcDbEntity
  8
0
100
AcDbLine
 10
39.10975
 20
320.6094
 30
0.0
 11
39.5091717838288
 21
320.998773437066
 31
0.0
  0
LINE
  5
D0
330
1E
100
AcDbEntity
  8
0
100
AcDbLine
 10
40.16765
 20
320.3234
 30
0.0
 11
40.56395
 21
319.9164
 31
0.0
  0
LINE
  5
D1
330
1E
100
AcDbEntity
  8
0
100
AcDbLine
 10
40.22625
 20
320.2633999999999
 30
0.0
 11
40.58065
 21
319.8994
 31
0.0
  0
LINE
  5
D2
330
1E
100
AcDbEntity
  8
0
100
AcDbLine
 10
40.22625
 20
320.2633999999999
 30
0.0
 11
40.4616905118207
 21
320.4927972509099
 31
0.0
  0
LINE
  5
D3
330
1E
100
AcDbEntity
  8
0
100
AcDbLine
 10
40.72955
 20
318.9474
 30
0.0
 11
41.23454999999999
 21
318.4293999999999
 31
0.0
  0
LINE
  5
D4
330
1E
100
AcDbEntity
  8
0
100
AcDbLine
 10
40.72955
 20
318.9474
 30
0.0
 11
41.23522765675
 21
319.4403931179999
 31
0.0
  0
LINE
  5
D5
330
1E
100
AcDbEntity
  8
0
100
AcDbLine
 10
40.85115
 20
318.8224
 30
0.0
 11
41.0766259718251
 21
318.591389399197
 31
0.0
  0
LINE
  5
D6
330
1E
100
AcDbEntity
  8
0
100
AcDbLine
 10
40.85115
 20
318.8224
 30
0.0
 11
41.0766259718252
 21
318.591389399197
 31
0.0
  0
LINE
  5
D7
330
1E
100
AcDbEntity
  8
0
100
AcDbLine
 10
40.78467953731029
 20
320.098360101119
 30
0.0
 11
42.8046542240417
 21
318.200250036613
 31
0.0
  0
LINE
  5
D8
330
1E
100
AcDbEntity
  8
0
100
AcDbLine
 10
40.8188538216421
 20
320.126648407658
 30
0.0
 11
40.99904999999999
 21
319.9413999999999
 31
0.0
  0
LINE
  5
D9
330
1E
100
AcDbEntity
  8
0
100
AcDbLine
 10
40.8188538216421
 20
320.126648407658
 30
0.0
 11
40.99904999999999
 21
319.9413999999999
 31
0.0
  0
LINE
  5
DA
330
1E
100
AcDbEntity
  8
0
100
AcDbLine
 10
40.58185
 20
320.3694
 30
0.0
 11
40.96945
 21
319.9723999999999
 31
0.0
  0
LINE
  5
DB
330
1E
100
AcDbEntity
  8
0
100
AcDbLine
 10
40.58185
 20
320.3694
 30
0.0
 11
41.334414575008
 21
321.1030321328689
 31
0.0
  0
LINE
  5
DC
330
1E
100
AcDbEntity
  8
0
100
AcDbLine
 10
40.99904999999999
 20
319.9413999999999
 30
0.0
 11
41.7515927317151
 21
320.675065770643
 31
0.0
  0
LINE
  5
DD
330
1E
100
AcDbEntity
  8
0
100
AcDbLine
 10
40.96945
 20
319.9723999999999
 30
0.0
 11
41.7219572051144
 21
320.705467670426
 31
0.0
  0
LINE
  5
DE
330
1E
100
AcDbEntity
  8
0
100
AcDbLine
 10
40.58065
 20
319.8994
 30
0.0
 11
40.8163346406162
 21
320.129228683373
 31
0.0
  0
LINE
  5
DF
330
1E
100
AcDbEntity
  8
0
100
AcDbLine
 10
39.63635
 20
320.8684
 30
0.0
 11
40.16765
 21
320.3234
 31
0.0
  0
LINE
  5
E0
330
1E
100
AcDbEntity
  8
0
100
AcDbLine
 10
39.68725
 20
321.2873999999999
 30
0.0
 11
40.05114999999999
 21
320.9144
 31
0.0
  0
LINE
  5
E1
330
1E
100
AcDbEntity
  8
0
100
AcDbLine
 10
39.68725
 20
321.2873999999999
 30
0.0
 11
40.4396543254167
 21
322.020930836161
 31
0.0
  0
LINE
  5
E2
330
1E
100
AcDbEntity
  8
0
100
AcDbLine
 10
39.28195
 20
321.2323999999999
 30
0.0
 11
39.8726210268493
 21
321.807909748528
 31
0.0
  0
LINE
  5
E3
330
1E
100
AcDbEntity
  8
0
100
AcDbLine
 10
39.29875
 20
321.2144
 30
0.0
 11
39.69495
 21
320.8083999999999
 31
0.0
  0
LINE
  5
E4
330
1E
100
AcDbEntity
  8
0
100
AcDbLine
 10
39.29875
 20
321.2144
 30
0.0
 11
39.8907025828954
 21
321.7916445857749
 31
0.0
  0
LINE
  5
E5
330
1E
100
AcDbEntity
  8
0
100
AcDbLine
 10
40.10444999999999
 20
320.8594
 30
0.0
 11
40.23143564594529
 21
320.729256459318
 31
0.0
  0
LINE
  5
E6
330
1E
100
AcDbEntity
  8
0
100
AcDbLine
 10
40.10444999999999
 20
320.8594
 30
0.0
 11
40.23143564594529
 21
320.729256459318
 31
0.0
  0
LINE
  5
E7
330
1E
100
AcDbEntity
  8
0
100
AcDbLine
 10
39.9287798269349
 20
321.039830268077
 30
0.0
 11
40.10444999999999
 21
320.8594
 31
0.0
  0
LINE
  5
E8
330
1E
100
AcDbEntity
  8
0
100
AcDbLine
 10
39.9287798269349
 20
321.039830268077
 30
0.0
 11
40.10444999999999
 21
320.8594
 31
0.0
  0
LINE
  5
E9
330
1E
100
AcDbEntity
  8
0
100
AcDbLine
 10
40.05114999999999
 20
320.9144
 30
0.0
 11
40.58185
 21
320.3694
 31
0.0
  0
LINE
  5
EA
330
1E
100
AcDbEntity
  8
0
100
AcDbLine
 10
40.05114999999999
 20
320.9144
 30
0.0
 11
40.8033991680215
 21
321.6477795707709
 31
0.0
  0
LINE
  5
EB
330
1E
100
AcDbEntity
  8
0
100
AcDbLine
 10
39.69495
 20
320.8083999999999
 30
0.0
 11
40.22625
 21
320.2633999999999
 31
0.0
  0
LINE
  5
EC
330
1E
100
AcDbEntity
  8
0
100
AcDbLine
 10
39.69495
 20
320.8083999999999
 30
0.0
 11
39.93057972060039
 21
321.0379816030989
 31
0.0
  0
LINE
  5
ED
330
1E
100
AcDbEntity
  8
0
100
AcDbLine
 10
39.24434999999999
 20
320.8004
 30
0.0
 11
39.4792638140232
 21
321.029421179976
 31
0.0
  0
LINE
  5
EE
330
1E
100
AcDbEntity
  8
0
100
AcDbLine
 10
38.92595
 20
321.1274
 30
0.0
 11
39.24434999999999
 21
320.8004
 31
0.0
  0
LINE
  5
EF
330
1E
100
AcDbEntity
  8
0
100
AcDbLine
 10
38.92595
 20
321.1274
 30
0.0
 11
39.4808682114451
 21
321.6683985108959
 31
0.0
  0
LINE
  5
F0
330
1E
100
AcDbEntity
  8
0
100
AcDbLine
 10
37.06525
 20
323.5063999999999
 30
0.0
 11
37.7859576173239
 21
324.208661126894
 31
0.0
  0
LINE
  5
F1
330
1E
100
AcDbEntity
  8
0
100
AcDbLine
 10
36.98945
 20
323.5834
 30
0.0
 11
37.06525
 21
323.5063999999999
 31
0.0
  0
LINE
  5
F2
330
1E
100
AcDbEntity
  8
0
100
AcDbLine
 10
36.98945
 20
323.5834
 30
0.0
 11
37.69342720160829
 21
324.269885775854
 31
0.0
  0
LINE
  5
F3
330
1E
100
AcDbEntity
  8
0
100
AcDbLine
 10
33.37615
 20
327.2904
 30
0.0
 11
33.9268722656199
 21
327.827398512387
 31
0.0
  0
LINE
  5
F4
330
1E
100
AcDbEntity
  8
0
100
AcDbLine
 10
33.21015
 20
327.4614
 30
0.0
 11
33.37615
 21
327.2904
 31
0.0
  0
LINE
  5
F5
330
1E
100
AcDbEntity
  8
0
100
AcDbLine
 10
33.21015
 20
327.4614
 30
0.0
 11
33.74584338271709
 21
327.983382326222
 31
0.0
  0
LINE
  5
F6
330
1E
100
AcDbEntity
  8
0
100
AcDbLine
 10
32.59825
 20
328.0613999999999
 30
0.0
 11
32.78130224088289
 21
327.873670922972
 31
0.0
  0
LINE
  5
F7
330
1E
100
AcDbEntity
  8
0
100
AcDbLine
 10
32.61995
 20
328.0663999999999
 30
0.0
 11
32.65724999998799
 21
328.028139801993
 31
0.0
  0
LINE
  5
F8
330
1E
100
AcDbEntity
  8
0
100
AcDbLine
 10
32.61995
 20
328.0663999999999
 30
0.0
 11
32.65724999998799
 21
328.028139801993
 31
0.0
  0
LINE
  5
F9
330
1E
100
AcDbEntity
  8
0
100
AcDbLine
 10
32.74164999999999
 20
327.9414
 30
0.0
 11
33.21015
 21
327.4614
 31
0.0
  0
LINE
  5
FA
330
1E
100
AcDbEntity
  8
0
100
AcDbLine
 10
32.74164999999999
 20
327.9414
 30
0.0
 11
33.2355767452014
 21
328.4230543548849
 31
0.0
  0
LINE
  5
FB
330
1E
100
AcDbEntity
  8
0
100
AcDbLine
 10
32.23665
 20
328.4603999999999
 30
0.0
 11
32.74164999999999
 21
327.9414
 31
0.0
  0
LINE
  5
FC
330
1E
100
AcDbEntity
  8
0
100
AcDbLine
 10
32.23665
 20
328.4603999999999
 30
0.0
 11
32.68510084365449
 21
328.8973727574
 31
0.0
  0
LINE
  5
FD
330
1E
100
AcDbEntity
  8
0
100
AcDbLine
 10
31.98545
 20
328.7174
 30
0.0
 11
32.4677012034022
 21
328.222943416701
 31
0.0
  0
LINE
  5
FE
330
1E
100
AcDbEntity
  8
0
100
AcDbLine
 10
31.98545
 20
328.7174
 30
0.0
 11
32.23665
 21
328.4603999999999
 31
0.0
  0
LINE
  5
FF
330
1E
100
AcDbEntity
  8
0
100
AcDbLine
 10
31.98545
 20
328.7174
 30
0.0
 11
32.15144999999999
 21
328.5473999999999
 31
0.0
  0
LINE
  5
100
330
1E
100
AcDbEntity
  8
0
100
AcDbLine
 10
31.98545
 20
328.7174
 30
0.0
 11
32.4677012034022
 21
328.222943416701
 31
0.0
  0
LINE
  5
101
330
1E
100
AcDbEntity
  8
0
100
AcDbLine
 10
31.98545
 20
328.7174
 30
0.0
 11
32.4116569737921
 21
329.1329860860969
 31
0.0
  0
LINE
  5
102
330
1E
100
AcDbEntity
  8
0
100
AcDbLine
 10
31.73065
 20
329.4503999999999
 30
0.0
 11
32.48330506064339
 21
330.184175281885
 31
0.0
  0
LINE
  5
103
330
1E
100
AcDbEntity
  8
0
100
AcDbLine
 10
31.52124999999999
 20
329.6653999999999
 30
0.0
 11
31.73065
 21
329.4503999999999
 31
0.0
  0
LINE
  5
104
330
1E
100
AcDbEntity
  8
0
100
AcDbLine
 10
31.52124999999999
 20
329.6653999999999
 30
0.0
 11
32.27383032958889
 21
330.399102425402
 31
0.0
  0
LINE
  5
105
330
1E
100
AcDbEntity
  8
0
100
AcDbLine
 10
31.03265
 20
330.1664
 30
0.0
 11
31.52124999999999
 21
329.6653999999999
 31
0.0
  0
LINE
  5
106
330
1E
100
AcDbEntity
  8
0
100
AcDbLine
 10
31.03265
 20
330.1664
 30
0.0
 11
31.73065
 21
329.4503999999999
 31
0.0
  0
LINE
  5
107
330
1E
100
AcDbEntity
  8
0
100
AcDbLine
 10
31.03265
 20
330.1664
 30
0.0
 11
31.78538913307979
 21
330.9002572454289
 31
0.0
  0
LINE
  5
10A
330
1E
100
AcDbEntity
  8
0
100
AcDbLine
 10
30.78345
 20
329.9234
 30
0.0
 11
31.03279853810999
 21
330.166247692196
 31
0.0
  0
LINE
  5
10B
330
1E
100
AcDbEntity
  8
0
100
AcDbLine
 10
28.42484999999999
 20
331.5704
 30
0.0
 11
28.82185
 21
331.1644
 31
0.0
  0
LINE
  5
10C
330
1E
100
AcDbEntity
  8
0
100
AcDbLine
 10
28.42484999999999
 20
331.5704
 30
0.0
 11
28.824783446132
 21
331.9601846746489
 31
0.0
  0
LINE
  5
10D
330
1E
100
AcDbEntity
  8
0
100
AcDbLine
 10
28.42484999999999
 20
331.5704
 30
0.0
 11
28.6064236434117
 21
331.3847100775179
 31
0.0
  0
LINE
  5
10E
330
1E
100
AcDbEntity
  8
0
100
AcDbLine
 10
28.42484999999999
 20
331.5704
 30
0.0
 11
28.6064236434117
 21
331.3847100775179
 31
0.0
  0
LINE
  5
10F
330
1E
100
AcDbEntity
  8
0
100
AcDbLine
 10
27.7349616278985
 20
332.2787767441949
 30
0.0
 11
27.89385
 21
332.1154
 31
0.0
  0
LINE
  5
110
330
1E
100
AcDbEntity
  8
0
100
AcDbLine
 10
27.7349616278985
 20
332.2787767441949
 30
0.0
 11
27.89385
 21
332.1154
 31
0.0
  0
LINE
  5
111
330
1E
100
AcDbEntity
  8
0
100
AcDbLine
 10
27.55584999999999
 20
332.4624
 30
0.0
 11
27.7349616278985
 21
332.2787767441949
 31
0.0
  0
LINE
  5
112
330
1E
100
AcDbEntity
  8
0
100
AcDbLine
 10
27.55584999999999
 20
332.4624
 30
0.0
 11
27.7349616278985
 21
332.2787767441949
 31
0.0
  0
LINE
  5
113
330
1E
100
AcDbEntity
  8
0
100
AcDbLine
 10
27.89385
 20
332.1154
 30
0.0
 11
28.42484999999999
 21
331.5704
 31
0.0
  0
LINE
  5
114
330
1E
100
AcDbEntity
  8
0
100
AcDbLine
 10
27.89385
 20
332.1154
 30
0.0
 11
28.0584964111227
 21
332.275904363044
 31
0.0
  0
LINE
  5
115
330
1E
100
AcDbEntity
  8
0
100
AcDbLine
 10
27.66214300120919
 20
332.682990747307
 30
0.0
 11
27.7042536659409
 21
332.639739755097
 31
0.0
  0
LINE
  5
116
330
1E
100
AcDbEntity
  8
0
100
AcDbLine
 10
27.53985
 20
332.4794
 30
0.0
 11
27.89385
 21
332.1154
 31
0.0
  0
LINE
  5
117
330
1E
100
AcDbEntity
  8
0
100
AcDbLine
 10
27.53985
 20
332.4794
 30
0.0
 11
27.7042536659409
 21
332.639739755097
 31
0.0
  0
LINE
  5
118
330
1E
100
AcDbEntity
  8
0
100
AcDbLine
 10
28.17484999999999
 20
332.1564
 30
0.0
 11
28.46585
 21
331.8584
 31
0.0
  0
LINE
  5
119
330
1E
100
AcDbEntity
  8
0
100
AcDbLine
 10
28.17484999999999
 20
332.1564
 30
0.0
 11
28.4099819043336
 21
332.385599475513
 31
0.0
  0
LINE
  5
11A
330
1E
100
AcDbEntity
  8
0
100
AcDbLine
 10
27.65785
 20
332.6874
 30
0.0
 11
28.17484999999999
 21
332.1564
 31
0.0
  0
LINE
  5
11B
330
1E
100
AcDbEntity
  8
0
100
AcDbLine
 10
27.65785
 20
332.6874
 30
0.0
 11
28.21250995275899
 21
333.228268228349
 31
0.0
  0
LINE
  5
11C
330
1E
100
AcDbEntity
  8
0
100
AcDbLine
 10
28.46585
 20
331.8584
 30
0.0
 11
28.70076769927139
 21
332.087373532304
 31
0.0
  0
LINE
  5
11D
330
1E
100
AcDbEntity
  8
0
100
AcDbLine
 10
28.5902099999871
 20
332.200760000013
 30
0.0
 11
28.91284999999999
 21
331.8693999999999
 31
0.0
  0
LINE
  5
11E
330
1E
100
AcDbEntity
  8
0
100
AcDbLine
 10
28.59020999998719
 20
332.200760000013
 30
0.0
 11
28.91284999999999
 21
331.8693999999999
 31
0.0
  0
LINE
  5
11F
330
1E
100
AcDbEntity
  8
0
100
AcDbLine
 10
28.91284999999999
 20
331.8693999999999
 30
0.0
 11
29.35755
 21
331.4134
 31
0.0
  0
LINE
  5
120
330
1E
100
AcDbEntity
  8
0
100
AcDbLine
 10
28.91284999999999
 20
331.8693999999999
 30
0.0
 11
29.1694209401432
 21
331.6064866911149
 31
0.0
  0
LINE
  5
121
330
1E
100
AcDbEntity
  8
0
100
AcDbLine
 10
28.91284999999999
 20
331.8693999999999
 30
0.0
 11
29.2042882513738
 21
331.5707005464399
 31
0.0
  0
LINE
  5
122
330
1E
100
AcDbEntity
  8
0
100
AcDbLine
 10
28.91284999999999
 20
331.8693999999999
 30
0.0
 11
29.1694209401432
 21
331.6064866911149
 31
0.0
  0
LINE
  5
123
330
1E
100
AcDbEntity
  8
0
100
AcDbLine
 10
28.91284999999999
 20
331.8693999999999
 30
0.0
 11
29.2042882513738
 21
331.5707005464399
 31
0.0
  0
LINE
  5
124
330
1E
100
AcDbEntity
  8
0
100
AcDbLine
 10
28.85285
 20
331.9313999999999
 30
0.0
 11
28.91284999999999
 21
331.8693999999999
 31
0.0
  0
LINE
  5
125
330
1E
100
AcDbEntity
  8
0
100
AcDbLine
 10
28.85285
 20
331.9313999999999
 30
0.0
 11
29.35755
 21
331.4134
 31
0.0
  0
LINE
  5
126
330
1E
100
AcDbEntity
  8
0
100
AcDbLine
 10
28.85285
 20
331.9313999999999
 30
0.0
 11
29.3466328138396
 21
332.41302213222
 31
0.0
  0
LINE
  5
127
330
1E
100
AcDbEntity
  8
0
100
AcDbLine
 10
28.38385
 20
332.4123999999999
 30
0.0
 11
28.91284999999999
 21
331.8693999999999
 31
0.0
  0
LINE
  5
128
330
1E
100
AcDbEntity
  8
0
100
AcDbLine
 10
28.38385
 20
332.4123999999999
 30
0.0
 11
28.85285
 21
331.9313999999999
 31
0.0
  0
LINE
  5
129
330
1E
100
AcDbEntity
  8
0
100
AcDbLine
 10
28.38385
 20
332.4123999999999
 30
0.0
 11
28.919941463263
 21
332.934692042179
 31
0.0
  0
LINE
  5
12A
330
1E
100
AcDbEntity
  8
0
100
AcDbLine
 10
28.21785
 20
332.5824
 30
0.0
 11
28.91284999999999
 21
331.8693999999999
 31
0.0
  0
LINE
  5
12B
330
1E
100
AcDbEntity
  8
0
100
AcDbLine
 10
28.21785
 20
332.5824
 30
0.0
 11
28.38385
 21
332.4123999999999
 31
0.0
  0
LINE
  5
12C
330
1E
100
AcDbEntity
  8
0
100
AcDbLine
 10
28.21785
 20
332.5824
 30
0.0
 11
28.7687344687564
 21
333.1195566734939
 31
0.0
  0
LINE
  5
12D
330
1E
100
AcDbEntity
  8
0
100
AcDbLine
 10
28.21785
 20
332.5824
 30
0.0
 11
28.7687344687564
 21
333.1195566734939
 31
0.0
  0
LINE
  5
12F
330
1E
100
AcDbEntity
  8
0
100
AcDbLine
 10
38.46354999999999
 20
337.4093999999999
 30
0.0
 11
55.84385000000001
 21
319.5783999999999
 31
0.0
  0
LINE
  5
134
330
1E
100
AcDbEntity
  8
0
100
AcDbLine
 10
29.2239734074715
 20
331.5234360454529
 30
0.0
 11
30.78345
 21
329.9234
 31
0.0
  0
LINE
  5
135
330
1E
100
AcDbEntity
  8
0
100
AcDbLine
 10
17.59485
 20
343.0113999999999
 30
0.0
 11
17.83385
 21
342.7653999999999
 31
0.0
  0
LINE
  5
136
330
1E
100
AcDbEntity
  8
0
100
AcDbLine
 10
17.59485
 20
343.0113999999999
 30
0.0
 11
17.74785
 21
342.8544
 31
0.0
  0
LINE
  5
137
330
1E
100
AcDbEntity
  8
0
100
AcDbLine
 10
17.59485
 20
343.0113999999999
 30
0.0
 11
17.8292300394328
 21
343.239986375537
 31
0.0
  0
LINE
  5
138
330
1E
100
AcDbEntity
  8
0
100
AcDbLine
 10
17.59485
 20
343.0113999999999
 30
0.0
 11
17.8292299433419
 21
343.2399862818209
 31
0.0
  0
LINE
  5
139
330
1E
100
AcDbEntity
  8
0
100
AcDbLine
 10
17.24285
 20
344.3134
 30
0.0
 11
17.50285000000219
 21
344.0469984848459
 31
0.0
  0
LINE
  5
13A
330
1E
100
AcDbEntity
  8
0
100
AcDbLine
 10
17.83385
 20
342.7653999999999
 30
0.0
 11
18.34284999999999
 21
342.2433999999999
 31
0.0
  0
LINE
  5
13B
330
1E
100
AcDbEntity
  8
0
100
AcDbLine
 10
17.82785
 20
343.2414
 30
0.0
 11
18.2798499999833
 21
342.778400000017
 31
0.0
  0
LINE
  5
13C
330
1E
100
AcDbEntity
  8
0
100
AcDbLine
 10
17.99984999999999
 20
343.0654
 30
0.0
 11
18.51985
 21
342.5323999999999
 31
0.0
  0
LINE
  5
13D
330
1E
100
AcDbEntity
  8
0
100
AcDbLine
 10
17.99984999999999
 20
343.0654
 30
0.0
 11
18.5544919102517
 21
343.6063419229479
 31
0.0
  0
LINE
  5
13E
330
1E
100
AcDbEntity
  8
0
100
AcDbLine
 10
17.71985
 20
343.3534
 30
0.0
 11
17.82785
 21
343.2414
 31
0.0
  0
LINE
  5
13F
330
1E
100
AcDbEntity
  8
0
100
AcDbLine
 10
17.71985
 20
343.3534
 30
0.0
 11
17.99984999999999
 21
343.0654
 31
0.0
  0
LINE
  5
140
330
1E
100
AcDbEntity
  8
0
100
AcDbLine
 10
17.71985
 20
343.3534
 30
0.0
 11
17.9552359453666
 21
343.582795584482
 31
0.0
  0
LINE
  5
141
330
1E
100
AcDbEntity
  8
0
100
AcDbLine
 10
17.71985
 20
343.3534
 30
0.0
 11
17.90044634033669
 21
343.529400325687
 31
0.0
  0
LINE
  5
142
330
1E
100
AcDbEntity
  8
0
100
AcDbLine
 10
17.74785
 20
342.8544
 30
0.0
 11
18.22285
 21
342.3673999999999
 31
0.0
  0
LINE
  5
143
330
1E
100
AcDbEntity
  8
0
100
AcDbLine
 10
17.74785
 20
342.8544
 30
0.0
 11
17.9825418698513
 21
343.0829435049969
 31
0.0
  0
LINE
  5
144
330
1E
100
AcDbEntity
  8
0
100
AcDbLine
 10
18.34284999999999
 20
342.2433999999999
 30
0.0
 11
18.81784999999999
 21
341.7564
 31
0.0
  0
LINE
  5
145
330
1E
100
AcDbEntity
  8
0
100
AcDbLine
 10
19.30884999999999
 20
340.9234
 30
0.0
 11
19.47485
 21
340.7524
 31
0.0
  0
LINE
  5
146
330
1E
100
AcDbEntity
  8
0
100
AcDbLine
 10
19.30884999999999
 20
340.9234
 30
0.0
 11
19.83971542034869
 21
341.440358017869
 31
0.0
  0
LINE
  5
147
330
1E
100
AcDbEntity
  8
0
100
AcDbLine
 10
18.97084999999999
 20
341.5993999999999
 30
0.0
 11
19.49158689353799
 21
342.1068846073249
 31
0.0
  0
LINE
  5
148
330
1E
100
AcDbEntity
  8
0
100
AcDbLine
 10
19.08085
 20
341.9574
 30
0.0
 11
19.573979860362
 21
342.437980148347
 31
0.0
  0
LINE
  5
149
330
1E
100
AcDbEntity
  8
0
100
AcDbLine
 10
18.97185
 20
342.0684
 30
0.0
 11
19.08085
 21
341.9574
 31
0.0
  0
LINE
  5
14A
330
1E
100
AcDbEntity
  8
0
100
AcDbLine
 10
18.97185
 20
342.0684
 30
0.0
 11
19.4713664024165
 21
342.555578048165
 31
0.0
  0
LINE
  5
14B
330
1E
100
AcDbEntity
  8
0
100
AcDbLine
 10
18.81784999999999
 20
341.7564
 30
0.0
 11
18.97084999999999
 21
341.5993999999999
 31
0.0
  0
LINE
  5
14C
330
1E
100
AcDbEntity
  8
0
100
AcDbLine
 10
18.73185
 20
341.8454
 30
0.0
 11
18.97084999999999
 21
341.5993999999999
 31
0.0
  0
LINE
  5
14D
330
1E
100
AcDbEntity
  8
0
100
AcDbLine
 10
18.73185
 20
341.8454
 30
0.0
 11
18.96632134966519
 21
342.074075428662
 31
0.0
  0
LINE
  5
14E
330
1E
100
AcDbEntity
  8
0
100
AcDbLine
 10
18.51985
 20
342.5323999999999
 30
0.0
 11
18.97185
 21
342.0684
 31
0.0
  0
LINE
  5
14F
330
1E
100
AcDbEntity
  8
0
100
AcDbLine
 10
18.51985
 20
342.5323999999999
 30
0.0
 11
19.04500966497439
 21
343.0441948232009
 31
0.0
  0
LINE
  5
150
330
1E
100
AcDbEntity
  8
0
100
AcDbLine
 10
18.22285
 20
342.3673999999999
 30
0.0
 11
18.73185
 21
341.8454
 31
0.0
  0
LINE
  5
151
330
1E
100
AcDbEntity
  8
0
100
AcDbLine
 10
18.22285
 20
342.3673999999999
 30
0.0
 11
18.45752953939049
 21
342.5962784721249
 31
0.0
  0
LINE
  5
152
330
1E
100
AcDbEntity
  8
0
100
AcDbLine
 10
18.08885
 20
343.4454
 30
0.0
 11
18.74504156398669
 21
344.084892078077
 31
0.0
  0
LINE
  5
153
330
1E
100
AcDbEntity
  8
0
100
AcDbLine
 10
17.9361711009268
 20
343.6023999999899
 30
0.0
 11
18.08885
 21
343.4454
 31
0.0
  0
LINE
  5
154
330
1E
100
AcDbEntity
  8
0
100
AcDbLine
 10
18.02584999999999
 20
343.5103999999999
 30
0.0
 11
18.08885
 21
343.4454
 31
0.0
  0
LINE
  5
155
330
1E
100
AcDbEntity
  8
0
100
AcDbLine
 10
18.02584999999999
 20
343.5103999999999
 30
0.0
 11
18.68611993406469
 21
344.1538666573
 31
0.0
  0
LINE
  5
156
330
1E
100
AcDbEntity
  8
0
100
AcDbLine
 10
17.60085
 20
343.9464
 30
0.0
 11
18.02584999999999
 21
343.5103999999999
 31
0.0
  0
LINE
  5
157
330
1E
100
AcDbEntity
  8
0
100
AcDbLine
 10
17.60085
 20
343.9464
 30
0.0
 11
18.28956009086189
 21
344.618085796481
 31
0.0
  0
LINE
  5
158
330
1E
100
AcDbEntity
  8
0
100
AcDbLine
 10
17.07284999999999
 20
344.4884
 30
0.0
 11
17.60085
 21
343.9464
 31
0.0
  0
LINE
  5
159
330
1E
100
AcDbEntity
  8
0
100
AcDbLine
 10
17.07284999999999
 20
344.4884
 30
0.0
 11
17.7970161519208
 21
345.1946654155809
 31
0.0
  0
LINE
  5
15A
330
1E
100
AcDbEntity
  8
0
100
AcDbLine
 10
16.15585
 20
344.4884
 30
0.0
 11
16.6833872382586
 21
345.00289699192
 31
0.0
  0
LINE
  5
15B
330
1E
100
AcDbEntity
  8
0
100
AcDbLine
 10
16.81684999999999
 20
344.7504
 30
0.0
 11
17.24285
 21
344.3134
 31
0.0
  0
LINE
  5
15C
330
1E
100
AcDbEntity
  8
0
100
AcDbLine
 10
16.75385
 20
344.8154
 30
0.0
 11
16.81684999999999
 21
344.7504
 31
0.0
  0
LINE
  5
15D
330
1E
100
AcDbEntity
  8
0
100
AcDbLine
 10
16.75385
 20
344.8154
 30
0.0
 11
17.07284999999999
 21
344.4884
 31
0.0
  0
LINE
  5
15E
330
1E
100
AcDbEntity
  8
0
100
AcDbLine
 10
16.75385
 20
344.8154
 30
0.0
 11
17.495228382965
 21
345.5373560450879
 31
0.0
  0
LINE
  5
15F
330
1E
100
AcDbEntity
  8
0
100
AcDbLine
 10
16.20485
 20
344.9073999999999
 30
0.0
 11
16.70957027277069
 21
345.3992755951699
 31
0.0
  0
LINE
  5
160
330
1E
100
AcDbEntity
  8
0
100
AcDbLine
 10
16.12585
 20
344.5183999999999
 30
0.0
 11
16.6548658475683
 21
345.0343390513359
 31
0.0
  0
LINE
  5
161
330
1E
100
AcDbEntity
  8
0
100
AcDbLine
 10
15.73784999999999
 20
344.9164
 30
0.0
 11
16.12585
 21
344.5183999999999
 31
0.0
  0
LINE
  5
162
330
1E
100
AcDbEntity
  8
0
100
AcDbLine
 10
15.73784999999999
 20
344.9164
 30
0.0
 11
15.97280081709
 21
345.145371529829
 31
0.0
  0
LINE
  5
163
330
1E
100
AcDbEntity
  8
0
100
AcDbLine
 10
20.7169616279022
 20
339.478776744191
 30
0.0
 11
20.87585
 21
339.3154
 31
0.0
  0
LINE
  5
164
330
1E
100
AcDbEntity
  8
0
100
AcDbLine
 10
20.87585
 20
339.3154
 30
0.0
 11
21.40684999999999
 21
338.7703999999999
 31
0.0
  0
LINE
  5
165
330
1E
100
AcDbEntity
  8
0
100
AcDbLine
 10
20.93485
 20
339.2554
 30
0.0
 11
21.46584999999999
 21
338.7103999999999
 31
0.0
  0
LINE
  5
166
330
1E
100
AcDbEntity
  8
0
100
AcDbLine
 10
20.93485
 20
339.2554
 30
0.0
 11
21.3342609614214
 21
339.644937881476
 31
0.0
  0
LINE
  5
167
330
1E
100
AcDbEntity
  8
0
100
AcDbLine
 10
20.13493108111249
 20
340.0763999999679
 30
0.0
 11
20.53385
 21
339.6664
 31
0.0
  0
LINE
  5
168
330
1E
100
AcDbEntity
  8
0
100
AcDbLine
 10
20.44885
 20
339.7543999999999
 30
0.0
 11
20.5228859712246
 21
339.6782992805739
 31
0.0
  0
LINE
  5
169
330
1E
100
AcDbEntity
  8
0
100
AcDbLine
 10
20.44885
 20
339.7543999999999
 30
0.0
 11
20.94174688312349
 21
340.2347437040779
 31
0.0
  0
LINE
  5
16A
330
1E
100
AcDbEntity
  8
0
100
AcDbLine
 10
19.94385
 20
340.2724
 30
0.0
 11
20.44885
 21
339.7543999999999
 31
0.0
  0
LINE
  5
16B
330
1E
100
AcDbEntity
  8
0
100
AcDbLine
 10
19.94385
 20
340.2724
 30
0.0
 11
20.4534091395256
 21
340.7689816033879
 31
0.0
  0
LINE
  5
16C
330
1E
100
AcDbEntity
  8
0
100
AcDbLine
 10
20.13493108111249
 20
340.0763999999679
 30
0.0
 11
20.53385
 21
339.6664
 31
0.0
  0
LINE
  5
16D
330
1E
100
AcDbEntity
  8
0
100
AcDbLine
 10
20.6260722222241
 20
339.5719555555539
 30
0.0
 11
20.7169616279022
 21
339.478776744191
 31
0.0
  0
LINE
  5
16E
330
1E
100
AcDbEntity
  8
0
100
AcDbLine
 10
20.62607222222399
 20
339.5719555555539
 30
0.0
 11
20.7169616279022
 21
339.478776744191
 31
0.0
  0
LINE
  5
16F
330
1E
100
AcDbEntity
  8
0
100
AcDbLine
 10
20.53385
 20
339.6664
 30
0.0
 11
20.62607222222399
 21
339.5719555555539
 31
0.0
  0
LINE
  5
170
330
1E
100
AcDbEntity
  8
0
100
AcDbLine
 10
21.01385
 20
339.9744
 30
0.0
 11
21.36785
 21
339.6104
 31
0.0
  0
LINE
  5
171
330
1E
100
AcDbEntity
  8
0
100
AcDbLine
 10
21.01385
 20
339.9744
 30
0.0
 11
21.2490660283052
 21
340.203629991657
 31
0.0
  0
LINE
  5
172
330
1E
100
AcDbEntity
  8
0
100
AcDbLine
 10
21.02984999999999
 20
339.9563999999999
 30
0.0
 11
21.66284999999999
 21
339.3073999999999
 31
0.0
  0
LINE
  5
173
330
1E
100
AcDbEntity
  8
0
100
AcDbLine
 10
21.02984999999999
 20
339.9563999999999
 30
0.0
 11
21.3073448979525
 21
339.672614285721
 31
0.0
  0
LINE
  5
174
330
1E
100
AcDbEntity
  8
0
100
AcDbLine
 10
20.53784999999999
 20
339.6624
 30
0.0
 11
20.93485
 21
339.2554
 31
0.0
  0
LINE
  5
175
330
1E
100
AcDbEntity
  8
0
100
AcDbLine
 10
20.53784999999999
 20
339.6624
 30
0.0
 11
21.0634852743667
 21
340.174264889185
 31
0.0
  0
LINE
  5
176
330
1E
100
AcDbEntity
  8
0
100
AcDbLine
 10
20.52185
 20
339.6793999999999
 30
0.0
 11
21.0474185126414
 21
340.1919769314299
 31
0.0
  0
LINE
  5
177
330
1E
100
AcDbEntity
  8
0
100
AcDbLine
 10
20.7169616279022
 20
339.478776744191
 30
0.0
 11
20.87585
 21
339.3154
 31
0.0
  0
LINE
  5
178
330
1E
100
AcDbEntity
  8
0
100
AcDbLine
 10
21.5884236433956
 20
338.584710077535
 30
0.0
 11
21.81985
 21
338.3474
 31
0.0
  0
LINE
  5
179
330
1E
100
AcDbEntity
  8
0
100
AcDbLine
 10
21.5884236433956
 20
338.584710077535
 30
0.0
 11
21.81985
 21
338.3474
 31
0.0
  0
LINE
  5
17A
330
1E
100
AcDbEntity
  8
0
100
AcDbLine
 10
21.98446897724009
 20
338.507706354333
 30
0.0
 11
22.36885
 21
338.1134
 31
0.0
  0
LINE
  5
17B
330
1E
100
AcDbEntity
  8
0
100
AcDbLine
 10
21.94285
 20
338.5504
 30
0.0
 11
22.36885
 21
338.1134
 31
0.0
  0
LINE
  5
17C
330
1E
100
AcDbEntity
  8
0
100
AcDbLine
 10
21.87985
 20
338.6154
 30
0.0
 11
21.94285
 21
338.5504
 31
0.0
  0
LINE
  5
17D
330
1E
100
AcDbEntity
  8
0
100
AcDbLine
 10
21.87985
 20
338.6154
 30
0.0
 11
22.19885
 21
338.2884
 31
0.0
  0
LINE
  5
17E
330
1E
100
AcDbEntity
  8
0
100
AcDbLine
 10
21.87985
 20
338.6154
 30
0.0
 11
22.1147077437941
 21
338.84410503344
 31
0.0
  0
LINE
  5
17F
330
1E
100
AcDbEntity
  8
0
100
AcDbLine
 10
21.81985
 20
338.3474
 30
0.0
 11
21.98446897724009
 21
338.507706354333
 31
0.0
  0
LINE
  5
180
330
1E
100
AcDbEntity
  8
0
100
AcDbLine
 10
21.36785
 20
339.6104
 30
0.0
 11
21.89884999999999
 21
339.0654
 31
0.0
  0
LINE
  5
181
330
1E
100
AcDbEntity
  8
0
100
AcDbLine
 10
21.36785
 20
339.6104
 30
0.0
 11
21.60347120065089
 21
339.840201215904
 31
0.0
  0
LINE
  5
182
330
1E
100
AcDbEntity
  8
0
100
AcDbLine
 10
21.89884999999999
 20
339.0654
 30
0.0
 11
22.29585
 21
338.6583999999999
 31
0.0
  0
LINE
  5
183
330
1E
100
AcDbEntity
  8
0
100
AcDbLine
 10
21.89884999999999
 20
339.0654
 30
0.0
 11
22.13444283035969
 21
339.2948254787799
 31
0.0
  0
LINE
  5
184
330
1E
100
AcDbEntity
  8
0
100
AcDbLine
 10
21.40684999999999
 20
338.7703999999999
 30
0.0
 11
21.5884236433956
 21
338.584710077535
 31
0.0
  0
LINE
  5
185
330
1E
100
AcDbEntity
  8
0
100
AcDbLine
 10
21.40684999999999
 20
338.7703999999999
 30
0.0
 11
21.5884236433956
 21
338.584710077535
 31
0.0
  0
LINE
  5
186
330
1E
100
AcDbEntity
  8
0
100
AcDbLine
 10
21.46584999999999
 20
338.7103999999999
 30
0.0
 11
21.81985
 21
338.3474
 31
0.0
  0
LINE
  5
187
330
1E
100
AcDbEntity
  8
0
100
AcDbLine
 10
21.46584999999999
 20
338.7103999999999
 30
0.0
 11
21.8653750661861
 21
339.099757512107
 31
0.0
  0
LINE
  5
188
330
1E
100
AcDbEntity
  8
0
100
AcDbLine
 10
22.4108331618156
 20
338.070383161852
 30
0.0
 11
22.72585
 21
337.7463999999999
 31
0.0
  0
LINE
  5
189
330
1E
100
AcDbEntity
  8
0
100
AcDbLine
 10
22.4108331618156
 20
338.070383161852
 30
0.0
 11
22.72585
 21
337.7463999999999
 31
0.0
  0
LINE
  5
18A
330
1E
100
AcDbEntity
  8
0
100
AcDbLine
 10
22.36885
 20
338.1134
 30
0.0
 11
22.4108331618156
 21
338.070383161852
 31
0.0
  0
LINE
  5
18B
330
1E
100
AcDbEntity
  8
0
100
AcDbLine
 10
22.36885
 20
338.1134
 30
0.0
 11
22.4108331618156
 21
338.070383161852
 31
0.0
  0
LINE
  5
18C
330
1E
100
AcDbEntity
  8
0
100
AcDbLine
 10
22.72585
 20
337.7463999999999
 30
0.0
 11
23.15185
 21
337.3104
 31
0.0
  0
LINE
  5
18D
330
1E
100
AcDbEntity
  8
0
100
AcDbLine
 10
22.72585
 20
337.7463999999999
 30
0.0
 11
23.2812540577589
 21
338.2876695233549
 31
0.0
  0
LINE
  5
18E
330
1E
100
AcDbEntity
  8
0
100
AcDbLine
 10
22.72585
 20
337.7463999999999
 30
0.0
 11
23.0471095222008
 21
337.4175991744609
 31
0.0
  0
LINE
  5
18F
330
1E
100
AcDbEntity
  8
0
100
AcDbLine
 10
22.11673837208179
 20
338.8420232558249
 30
0.0
 11
22.31184999999999
 21
338.6413999999999
 31
0.0
  0
LINE
  5
190
330
1E
100
AcDbEntity
  8
0
100
AcDbLine
 10
22.1167383720819
 20
338.8420232558249
 30
0.0
 11
22.31184999999999
 21
338.6413999999999
 31
0.0
  0
LINE
  5
191
330
1E
100
AcDbEntity
  8
0
100
AcDbLine
 10
22.31184999999999
 20
338.6413999999999
 30
0.0
 11
22.90300188742769
 21
339.217518855137
 31
0.0
  0
LINE
  5
192
330
1E
100
AcDbEntity
  8
0
100
AcDbLine
 10
22.29585
 20
338.6583999999999
 30
0.0
 11
22.8876070478961
 21
339.235540294468
 31
0.0
  0
LINE
  5
193
330
1E
100
AcDbEntity
  8
0
100
AcDbLine
 10
22.19885
 20
338.2884
 30
0.0
 11
22.72585
 21
337.7463999999999
 31
0.0
  0
LINE
  5
194
330
1E
100
AcDbEntity
  8
0
100
AcDbLine
 10
22.19885
 20
338.2884
 30
0.0
 11
22.7534099337973
 21
338.8292517107149
 31
0.0
  0
LINE
  5
195
330
1E
100
AcDbEntity
  8
0
100
AcDbLine
 10
22.37785
 20
339.0453999999999
 30
0.0
 11
23.13079296016119
 21
339.779181238121
 31
0.0
  0
LINE
  5
196
330
1E
100
AcDbEntity
  8
0
100
AcDbLine
 10
22.01385
 20
339.4184
 30
0.0
 11
22.37785
 21
339.0453999999999
 31
0.0
  0
LINE
  5
197
330
1E
100
AcDbEntity
  8
0
100
AcDbLine
 10
22.01385
 20
339.4184
 30
0.0
 11
22.7670075278036
 21
340.1523903452099
 31
0.0
  0
LINE
  5
198
330
1E
100
AcDbEntity
  8
0
100
AcDbLine
 10
21.2647018518382
 20
340.187631481495
 30
0.0
 11
21.42984999999999
 21
340.0183999999999
 31
0.0
  0
LINE
  5
199
330
1E
100
AcDbEntity
  8
0
100
AcDbLine
 10
21.2647018518382
 20
340.187631481495
 30
0.0
 11
21.42984999999999
 21
340.0183999999999
 31
0.0
  0
LINE
  5
19A
330
1E
100
AcDbEntity
  8
0
100
AcDbLine
 10
21.42984999999999
 20
340.0183999999999
 30
0.0
 11
21.7026573394707
 21
339.738399999978
 31
0.0
  0
LINE
  5
19B
330
1E
100
AcDbEntity
  8
0
100
AcDbLine
 10
21.42984999999999
 20
340.0183999999999
 30
0.0
 11
21.7026573394707
 21
339.738399999978
 31
0.0
  0
LINE
  5
19C
330
1E
100
AcDbEntity
  8
0
100
AcDbLine
 10
21.48385
 20
339.9633999999999
 30
0.0
 11
22.01385
 21
339.4184
 31
0.0
  0
LINE
  5
19D
330
1E
100
AcDbEntity
  8
0
100
AcDbLine
 10
21.48385
 20
339.9633999999999
 30
0.0
 11
22.2360978530668
 21
340.697052962317
 31
0.0
  0
LINE
  5
19E
330
1E
100
AcDbEntity
  8
0
100
AcDbLine
 10
21.09585
 20
340.3604
 30
0.0
 11
21.48385
 21
339.9633999999999
 31
0.0
  0
LINE
  5
19F
330
1E
100
AcDbEntity
  8
0
100
AcDbLine
 10
21.09585
 20
340.3604
 30
0.0
 11
21.8488977119974
 21
341.0942833241169
 31
0.0
  0
LINE
  5
1A0
330
1E
100
AcDbEntity
  8
0
100
AcDbLine
 10
19.47485
 20
340.7524
 30
0.0
 11
19.94385
 21
340.2724
 31
0.0
  0
LINE
  5
1A1
330
1E
100
AcDbEntity
  8
0
100
AcDbLine
 10
19.47485
 20
340.7524
 30
0.0
 11
20.0003976046756
 21
341.264572890185
 31
0.0
  0
LINE
  5
1A2
330
1E
100
AcDbEntity
  8
0
100
AcDbLine
 10
21.06585
 20
340.3913999999999
 30
0.0
 11
21.8187863046578
 21
341.125174751994
 31
0.0
  0
LINE
  5
1A3
330
1E
100
AcDbEntity
  8
0
100
AcDbLine
 10
19.371873794697
 20
342.241017500521
 30
0.0
 11
21.2176016264205
 21
340.172966330539
 31
0.0
  0
LINE
  5
1A4
330
1E
100
AcDbEntity
  8
0
100
AcDbLine
 10
19.33933313404359
 20
341.958505569255
 30
0.0
 11
19.92515542782579
 21
341.3189381109059
 31
0.0
  0
LINE
  5
1A5
330
1E
100
AcDbEntity
  8
0
100
AcDbLine
 10
11.85784999999999
 20
349.3673999999999
 30
0.0
 11
12.4336999583711
 21
349.9285950941609
 31
0.0
  0
LINE
  5
1A6
330
1E
100
AcDbEntity
  8
0
100
AcDbLine
 10
11.50384999999999
 20
349.7303999999999
 30
0.0
 11
11.85784999999999
 21
349.3673999999999
 31
0.0
  0
LINE
  5
1A7
330
1E
100
AcDbEntity
  8
0
100
AcDbLine
 10
11.50384999999999
 20
349.7303999999999
 30
0.0
 11
12.1036403497643
 21
350.314926224097
 31
0.0
  0
LINE
  5
1A8
330
1E
100
AcDbEntity
  8
0
100
AcDbLine
 10
12.8968915512504
 20
348.300519113569
 30
0.0
 11
12.97185
 21
348.2234
 31
0.0
  0
LINE
  5
1A9
330
1E
100
AcDbEntity
  8
0
100
AcDbLine
 10
12.8968915512504
 20
348.300519113569
 30
0.0
 11
12.97185
 21
348.2234
 31
0.0
  0
LINE
  5
1AA
330
1E
100
AcDbEntity
  8
0
100
AcDbLine
 10
12.69185
 20
348.5113999999999
 30
0.0
 11
12.7291594170213
 21
348.473086098674
 31
0.0
  0
LINE
  5
1AB
330
1E
100
AcDbEntity
  8
0
100
AcDbLine
 10
12.69185
 20
348.5113999999999
 30
0.0
 11
12.7291594170213
 21
348.473086098674
 31
0.0
  0
LINE
  5
1AC
330
1E
100
AcDbEntity
  8
0
100
AcDbLine
 10
13.83485
 20
346.8693999999999
 30
0.0
 11
14.04385
 21
346.6544
 31
0.0
  0
LINE
  5
1AD
330
1E
100
AcDbEntity
  8
0
100
AcDbLine
 10
13.83485
 20
346.8693999999999
 30
0.0
 11
14.38608186972039
 21
347.406593005623
 31
0.0
  0
LINE
  5
1AE
330
1E
100
AcDbEntity
  8
0
100
AcDbLine
 10
14.04385
 20
346.6544
 30
0.0
 11
14.53285
 21
346.1524
 31
0.0
  0
LINE
  5
1AF
330
1E
100
AcDbEntity
  8
0
100
AcDbLine
 10
14.04385
 20
346.6544
 30
0.0
 11
14.5886777669042
 21
347.184954584388
 31
0.0
  0
LINE
  5
1B0
330
1E
100
AcDbEntity
  8
0
100
AcDbLine
 10
14.0080278093883
 20
347.6315927453769
 30
0.0
 11
14.22285
 21
347.4114
 31
0.0
  0
LINE
  5
1B1
330
1E
100
AcDbEntity
  8
0
100
AcDbLine
 10
13.98285
 20
347.6573999999999
 30
0.0
 11
14.22285
 21
347.4114
 31
0.0
  0
LINE
  5
1B2
330
1E
100
AcDbEntity
  8
0
100
AcDbLine
 10
14.22285
 20
347.4114
 30
0.0
 11
14.9758548527676
 21
348.145241555616
 31
0.0
  0
LINE
  5
1B3
330
1E
100
AcDbEntity
  8
0
100
AcDbLine
 10
14.06884999999999
 20
347.5693999999999
 30
0.0
 11
14.22285
 21
347.4114
 31
0.0
  0
LINE
  5
1B4
330
1E
100
AcDbEntity
  8
0
100
AcDbLine
 10
14.06884999999999
 20
347.5693999999999
 30
0.0
 11
14.8218454688525
 21
348.3032324105129
 31
0.0
  0
LINE
  5
1B5
330
1E
100
AcDbEntity
  8
0
100
AcDbLine
 10
13.77285
 20
347.4024
 30
0.0
 11
14.0080278093883
 21
347.6315927453769
 31
0.0
  0
LINE
  5
1B6
330
1E
100
AcDbEntity
  8
0
100
AcDbLine
 10
13.66385
 20
347.5134
 30
0.0
 11
13.77285
 21
347.4024
 31
0.0
  0
LINE
  5
1B7
330
1E
100
AcDbEntity
  8
0
100
AcDbLine
 10
12.99985
 20
348.6664
 30
0.0
 11
13.47485
 21
348.1793999999999
 31
0.0
  0
LINE
  5
1B8
330
1E
100
AcDbEntity
  8
0
100
AcDbLine
 10
13.08997376779809
 20
348.102328806134
 30
0.0
 11
13.2060073034125
 21
347.9833999999569
 31
0.0
  0
LINE
  5
1B9
330
1E
100
AcDbEntity
  8
0
100
AcDbLine
 10
13.08997376779809
 20
348.102328806134
 30
0.0
 11
13.20600730341239
 21
347.9833999999569
 31
0.0
  0
LINE
  5
1BA
330
1E
100
AcDbEntity
  8
0
100
AcDbLine
 10
13.08585
 20
348.5783999999999
 30
0.0
 11
13.59485
 21
348.0564
 31
0.0
  0
LINE
  5
1BB
330
1E
100
AcDbEntity
  8
0
100
AcDbLine
 10
13.08585
 20
348.5783999999999
 30
0.0
 11
13.8385518510904
 21
349.31194626506
 31
0.0
  0
LINE
  5
1BC
330
1E
100
AcDbEntity
  8
0
100
AcDbLine
 10
13.47485
 20
348.1793999999999
 30
0.0
 11
13.98285
 21
347.6573999999999
 31
0.0
  0
LINE
  5
1BD
330
1E
100
AcDbEntity
  8
0
100
AcDbLine
 10
13.59485
 20
348.0564
 30
0.0
 11
14.06884999999999
 21
347.5693999999999
 31
0.0
  0
LINE
  5
1BE
330
1E
100
AcDbEntity
  8
0
100
AcDbLine
 10
13.59485
 20
348.0564
 30
0.0
 11
14.3474724993878
 21
348.789868932787
 31
0.0
  0
LINE
  5
1BF
330
1E
100
AcDbEntity
  8
0
100
AcDbLine
 10
13.21185
 20
347.9773999999999
 30
0.0
 11
13.66385
 21
347.5134
 31
0.0
  0
LINE
  5
1C0
330
1E
100
AcDbEntity
  8
0
100
AcDbLine
 10
13.49285
 20
347.6893999999999
 30
0.0
 11
13.77285
 21
347.4024
 31
0.0
  0
LINE
  5
1C1
330
1E
100
AcDbEntity
  8
0
100
AcDbLine
 10
13.49285
 20
347.6893999999999
 30
0.0
 11
13.7282655060339
 21
347.919000602068
 31
0.0
  0
LINE
  5
1C2
330
1E
100
AcDbEntity
  8
0
100
AcDbLine
 10
12.97185
 20
348.2234
 30
0.0
 11
13.49285
 21
347.6893999999999
 31
0.0
  0
LINE
  5
1C3
330
1E
100
AcDbEntity
  8
0
100
AcDbLine
 10
12.97185
 20
348.2234
 30
0.0
 11
13.20772336895419
 21
348.4532750933039
 31
0.0
  0
LINE
  5
1C4
330
1E
100
AcDbEntity
  8
0
100
AcDbLine
 10
12.97185
 20
348.2234
 30
0.0
 11
13.0880581784378
 21
348.1042921933089
 31
0.0
  0
LINE
  5
1C5
330
1E
100
AcDbEntity
  8
0
100
AcDbLine
 10
12.97185
 20
348.2234
 30
0.0
 11
13.0880581784379
 21
348.1042921933089
 31
0.0
  0
LINE
  5
1C6
330
1E
100
AcDbEntity
  8
0
100
AcDbLine
 10
12.84585
 20
348.8244
 30
0.0
 11
12.99985
 21
348.6664
 31
0.0
  0
LINE
  5
1C7
330
1E
100
AcDbEntity
  8
0
100
AcDbLine
 10
12.84585
 20
348.8244
 30
0.0
 11
13.08585
 21
348.5783999999999
 31
0.0
  0
LINE
  5
1C8
330
1E
100
AcDbEntity
  8
0
100
AcDbLine
 10
12.84585
 20
348.8244
 30
0.0
 11
13.5986540863751
 21
349.5580458985479
 31
0.0
  0
LINE
  5
1C9
330
1E
100
AcDbEntity
  8
0
100
AcDbLine
 10
12.52085
 20
348.6874
 30
0.0
 11
12.97185
 21
348.2234
 31
0.0
  0
LINE
  5
1CA
330
1E
100
AcDbEntity
  8
0
100
AcDbLine
 10
12.52085
 20
348.6874
 30
0.0
 11
13.15222748636149
 21
349.3027094964389
 31
0.0
  0
LINE
  5
1CB
330
1E
100
AcDbEntity
  8
0
100
AcDbLine
 10
12.41184999999999
 20
348.7984
 30
0.0
 11
12.69185
 21
348.5113999999999
 31
0.0
  0
LINE
  5
1CC
330
1E
100
AcDbEntity
  8
0
100
AcDbLine
 10
12.41184999999999
 20
348.7984
 30
0.0
 11
12.52085
 21
348.6874
 31
0.0
  0
LINE
  5
1CD
330
1E
100
AcDbEntity
  8
0
100
AcDbLine
 10
12.41184999999999
 20
348.7984
 30
0.0
 11
13.04912674218869
 21
349.419935625054
 31
0.0
  0
LINE
  5
1CE
330
1E
100
AcDbEntity
  8
0
100
AcDbLine
 10
12.41184999999999
 20
348.7984
 30
0.0
 11
12.7861459612543
 21
349.163450626882
 31
0.0
  0
LINE
  5
1CF
330
1E
100
AcDbEntity
  8
0
100
AcDbLine
 10
10.7535274193561
 20
350.4997870967729
 30
0.0
 11
10.97185
 21
350.2753999999999
 31
0.0
  0
LINE
  5
1D0
330
1E
100
AcDbEntity
  8
0
100
AcDbLine
 10
10.7535274193561
 20
350.4997870967729
 30
0.0
 11
10.97185
 21
350.2753999999999
 31
0.0
  0
LINE
  5
1D1
330
1E
100
AcDbEntity
  8
0
100
AcDbLine
 10
11.2158866972281
 20
350.02540000002
 30
0.0
 11
11.44485
 21
349.7903999999999
 31
0.0
  0
LINE
  5
1D2
330
1E
100
AcDbEntity
  8
0
100
AcDbLine
 10
11.2158866972281
 20
350.02540000002
 30
0.0
 11
11.44485
 21
349.7903999999999
 31
0.0
  0
LINE
  5
1D3
330
1E
100
AcDbEntity
  8
0
100
AcDbLine
 10
11.44485
 20
349.7903999999999
 30
0.0
 11
11.84085
 21
349.3844
 31
0.0
  0
LINE
  5
1D4
330
1E
100
AcDbEntity
  8
0
100
AcDbLine
 10
10.97185
 20
350.2753999999999
 30
0.0
 11
11.50384999999999
 21
349.7303999999999
 31
0.0
  0
LINE
  5
1D5
330
1E
100
AcDbEntity
  8
0
100
AcDbLine
 10
10.97185
 20
350.2753999999999
 30
0.0
 11
11.6078578695583
 21
350.895234146623
 31
0.0
  0
LINE
  5
1D6
330
1E
100
AcDbEntity
  8
0
100
AcDbLine
 10
10.97185
 20
350.2753999999999
 30
0.0
 11
11.6078578695583
 21
350.895234146623
 31
0.0
  0
LINE
  5
1D7
330
1E
100
AcDbEntity
  8
0
100
AcDbLine
 10
10.97185
 20
350.2753999999999
 30
0.0
 11
11.2158866972281
 21
350.02540000002
 31
0.0
  0
LINE
  5
1D8
330
1E
100
AcDbEntity
  8
0
100
AcDbLine
 10
10.97185
 20
350.2753999999999
 30
0.0
 11
11.2158866972281
 21
350.02540000002
 31
0.0
  0
LINE
  5
1D9
330
1E
100
AcDbEntity
  8
0
100
AcDbLine
 10
10.5939063613025
 20
350.663454885876
 30
0.0
 11
10.7535274193561
 21
350.4997870967729
 31
0.0
  0
LINE
  5
1DA
330
1E
100
AcDbEntity
  8
0
100
AcDbLine
 10
10.5939063613025
 20
350.663454885876
 30
0.0
 11
10.7535274193561
 21
350.4997870967729
 31
0.0
  0
LINE
  5
1DB
330
1E
100
AcDbEntity
  8
0
100
AcDbLine
 10
10.86785
 20
350.8544
 30
0.0
 11
11.59634147894949
 21
351.5648838244139
 31
0.0
  0
LINE
  5
1DC
330
1E
100
AcDbEntity
  8
0
100
AcDbLine
 10
10.57585
 20
350.6823999999999
 30
0.0
 11
10.97185
 21
350.2753999999999
 31
0.0
  0
LINE
  5
1DD
330
1E
100
AcDbEntity
  8
0
100
AcDbLine
 10
10.57585
 20
350.6823999999999
 30
0.0
 11
10.8113970969629
 21
350.911952634914
 31
0.0
  0
LINE
  5
1DE
330
1E
100
AcDbEntity
  8
0
100
AcDbLine
 10
10.55884999999999
 20
350.6994
 30
0.0
 11
10.7535274193561
 21
350.4997870967729
 31
0.0
  0
LINE
  5
1DF
330
1E
100
AcDbEntity
  8
0
100
AcDbLine
 10
10.55884999999999
 20
350.6994
 30
0.0
 11
10.7535274193561
 21
350.4997870967729
 31
0.0
  0
LINE
  5
1E0
330
1E
100
AcDbEntity
  8
0
100
AcDbLine
 10
10.55884999999999
 20
350.6994
 30
0.0
 11
10.7946493723457
 21
350.929026613907
 31
0.0
  0
LINE
  5
1E1
330
1E
100
AcDbEntity
  8
0
100
AcDbLine
 10
10.51885
 20
350.7414
 30
0.0
 11
10.5590486272878
 21
350.699593427621
 31
0.0
  0
LINE
  5
1E2
330
1E
100
AcDbEntity
  8
0
100
AcDbLine
 10
10.51885
 20
350.7414
 30
0.0
 11
10.7539509603666
 21
350.9705178520939
 31
0.0
  0
LINE
  5
1E3
330
1E
100
AcDbEntity
  8
0
100
AcDbLine
 10
12.2641199015734
 20
349.7633306974909
 30
0.0
 11
12.7861459612543
 21
349.163450626882
 31
0.0
  0
LINE
  5
1E4
330
1E
100
AcDbEntity
  8
0
100
AcDbLine
 10
16.00785
 20
345.1093999999999
 30
0.0
 11
16.20485
 21
344.9073999999999
 31
0.0
  0
LINE
  5
1E5
330
1E
100
AcDbEntity
  8
0
100
AcDbLine
 10
16.00785
 20
345.1093999999999
 30
0.0
 11
16.5286940392417
 21
345.6173788795899
 31
0.0
  0
LINE
  5
1E6
330
1E
100
AcDbEntity
  8
0
100
AcDbLine
 10
14.53285
 20
346.1524
 30
0.0
 11
15.02085
 21
345.6514
 31
0.0
  0
LINE
  5
1E7
330
1E
100
AcDbEntity
  8
0
100
AcDbLine
 10
14.53285
 20
346.1524
 30
0.0
 11
15.0613590289061
 21
346.667844760776
 31
0.0
  0
LINE
  5
1E8
330
1E
100
AcDbEntity
  8
0
100
AcDbLine
 10
14.82285
 20
346.3254
 30
0.0
 11
15.02085
 21
346.1224
 31
0.0
  0
LINE
  5
1E9
330
1E
100
AcDbEntity
  8
0
100
AcDbLine
 10
14.82285
 20
346.3254
 30
0.0
 11
15.4415127961364
 21
346.92831838366
 31
0.0
  0
LINE
  5
1EA
330
1E
100
AcDbEntity
  8
0
100
AcDbLine
 10
14.84385
 20
345.8344
 30
0.0
 11
15.20785
 21
345.4603999999999
 31
0.0
  0
LINE
  5
1EB
330
1E
100
AcDbEntity
  8
0
100
AcDbLine
 10
14.84385
 20
345.8344
 30
0.0
 11
15.0785779260507
 21
346.063149836548
 31
0.0
  0
LINE
  5
1EC
330
1E
100
AcDbEntity
  8
0
100
AcDbLine
 10
15.23104606015669
 20
345.436591213726
 30
0.0
 11
15.73784999999999
 21
344.9164
 31
0.0
  0
LINE
  5
1ED
330
1E
100
AcDbEntity
  8
0
100
AcDbLine
 10
15.02085
 20
345.6514
 30
0.0
 11
15.23085
 21
345.4363999999999
 31
0.0
  0
LINE
  5
1EE
330
1E
100
AcDbEntity
  8
0
100
AcDbLine
 10
15.51384999999999
 20
345.6164
 30
0.0
 11
16.00785
 21
345.1093999999999
 31
0.0
  0
LINE
  5
1EF
330
1E
100
AcDbEntity
  8
0
100
AcDbLine
 10
15.51384999999999
 20
345.6164
 30
0.0
 11
16.07554153445359
 21
346.1637969894149
 31
0.0
  0
LINE
  5
1F0
330
1E
100
AcDbEntity
  8
0
100
AcDbLine
 10
15.02085
 20
346.1224
 30
0.0
 11
15.51384999999999
 21
345.6164
 31
0.0
  0
LINE
  5
1F1
330
1E
100
AcDbEntity
  8
0
100
AcDbLine
 10
15.02085
 20
346.1224
 30
0.0
 11
15.6231158331533
 21
346.709338708657
 31
0.0
  0
LINE
  5
1F2
330
1E
100
AcDbEntity
  8
0
100
AcDbLine
 10
15.20785
 20
345.4603999999999
 30
0.0
 11
15.73784999999999
 21
344.9164
 31
0.0
  0
LINE
  5
1F3
330
1E
100
AcDbEntity
  8
0
100
AcDbLine
 10
15.20785
 20
345.4603999999999
 30
0.0
 11
15.4426907312607
 21
345.689435679477
 31
0.0
  0
LINE
  5
1F4
330
1E
100
AcDbEntity
  8
0
100
AcDbLine
 10
14.87284999999999
 20
345.8034
 30
0.0
 11
15.1542142384232
 21
345.51550927151
 31
0.0
  0
LINE
  5
1F5
330
1E
100
AcDbEntity
  8
0
100
AcDbLine
 10
14.87284999999999
 20
345.8034
 30
0.0
 11
15.1542142384232
 21
345.51550927151
 31
0.0
  0
LINE
  5
1F6
330
1E
100
AcDbEntity
  8
0
100
AcDbLine
 10
14.6752512697335
 20
347.8522880637669
 30
0.0
 11
15.6231158331533
 21
346.709338708657
 31
0.0
  0
LINE
  5
1F7
330
1E
100
AcDbEntity
  8
0
100
AcDbLine
 10
16.70957027277069
 20
345.3992755951699
 30
0.0
 11
16.997233275851
 21
345.052407216978
 31
0.0
  0
LINE
  5
1F8
330
1E
100
AcDbEntity
  8
0
100
AcDbLine
 10
14.2872120049052
 20
347.474124049691
 30
0.0
 11
14.3665252030438
 21
347.3875344113559
 31
0.0
  0
LINE
  5
1F9
330
1E
100
AcDbEntity
  8
0
100
AcDbLine
 10
16.6133441402938
 20
344.934585296376
 30
0.0
 11
17.90044634033669
 21
343.529400325687
 31
0.0
  0
LINE
  5
1FE
330
1E
100
AcDbEntity
  8
0
100
AcDbLine
 10
35.35884999999999
 20
340.9304
 30
0.0
 11
38.75524999999999
 21
337.4474
 31
0.0
  0
LINE
  5
1FF
330
1E
100
AcDbEntity
  8
0
100
AcDbLine
 10
29.52915
 20
346.5754
 30
0.0
 11
38.46354999999999
 21
337.4093999999999
 31
0.0
  0
LINE
  5
200
330
1E
100
AcDbEntity
  8
0
100
AcDbLine
 10
31.99524999999999
 20
344.3804
 30
0.0
 11
35.35884999999999
 21
340.9304
 31
0.0
  0
LINE
  5
201
330
1E
100
AcDbEntity
  8
0
100
AcDbLine
 10
28.69685
 20
347.7644
 30
0.0
 11
31.99524999999999
 21
344.3804
 31
0.0
  0
LINE
  5
202
330
1E
100
AcDbEntity
  8
0
100
AcDbLine
 10
38.75524999999999
 20
337.4474
 30
0.0
 11
41.11215
 21
335.0274
 31
0.0
  0
LINE
  5
203
330
1E
100
AcDbEntity
  8
0
100
AcDbLine
 10
42.30675
 20
317.6583999999999
 30
0.0
 11
42.448734598452
 21
317.5129742574339
 31
0.0
  0
LINE
  5
204
330
1E
100
AcDbEntity
  8
0
100
AcDbLine
 10
41.48575
 20
318.1713999999999
 30
0.0
 11
42.0164249460607
 21
318.688763369353
 31
0.0
  0
LINE
  5
205
330
1E
100
AcDbEntity
  8
0
100
AcDbLine
 10
41.9028738749002
 20
318.7715228855889
 30
0.0
 11
42.52128673168299
 21
318.175302302247
 31
0.0
  0
LINE
  5
206
330
1E
100
AcDbEntity
  8
0
100
AcDbLine
 10
41.23454999999999
 20
318.4293999999999
 30
0.0
 11
41.48575
 21
318.1713999999999
 31
0.0
  0
LINE
  5
207
330
1E
100
AcDbEntity
  8
0
100
AcDbLine
 10
41.23454999999999
 20
318.4293999999999
 30
0.0
 11
41.7568062014911
 21
318.938555802577
 31
0.0
  0
LINE
  5
208
330
1E
100
AcDbEntity
  8
0
100
AcDbLine
 10
42.15314999999999
 20
317.8163999999999
 30
0.0
 11
42.39275
 21
317.5704
 31
0.0
  0
LINE
  5
209
330
1E
100
AcDbEntity
  8
0
100
AcDbLine
 10
42.15314999999999
 20
317.8163999999999
 30
0.0
 11
42.30675
 21
317.6583999999999
 31
0.0
  0
LINE
  5
20A
330
1E
100
AcDbEntity
  8
0
100
AcDbLine
 10
42.15314999999999
 20
317.8163999999999
 30
0.0
 11
42.6733925819355
 21
318.3235926931339
 31
0.0
  0
LINE
  5
20B
330
1E
100
AcDbEntity
  8
0
100
AcDbLine
 10
42.15314999999999
 20
317.8163999999999
 30
0.0
 11
42.52128673168299
 21
318.175302302247
 31
0.0
  0
LINE
  5
20C
330
1E
100
AcDbEntity
  8
0
100
AcDbLine
 10
42.448734598452
 20
317.5129742574339
 30
0.0
 11
42.90165
 21
317.0484
 31
0.0
  0
LINE
  5
20D
330
1E
100
AcDbEntity
  8
0
100
AcDbLine
 10
42.448734598452
 20
317.5129742574339
 30
0.0
 11
42.90165
 21
317.0484
 31
0.0
  0
LINE
  5
20E
330
1E
100
AcDbEntity
  8
0
100
AcDbLine
 10
42.51355
 20
317.9164
 30
0.0
 11
42.62224999999999
 21
317.8054
 31
0.0
  0
LINE
  5
20F
330
1E
100
AcDbEntity
  8
0
100
AcDbLine
 10
42.51355
 20
317.9164
 30
0.0
 11
42.7816910940397
 21
317.641653502358
 31
0.0
  0
LINE
  5
210
330
1E
100
AcDbEntity
  8
0
100
AcDbLine
 10
42.51355
 20
317.9164
 30
0.0
 11
43.00709773594189
 21
318.397648746488
 31
0.0
  0
LINE
  5
211
330
1E
100
AcDbEntity
  8
0
100
AcDbLine
 10
42.62224999999999
 20
317.8054
 30
0.0
 11
43.07405
 21
317.3414
 31
0.0
  0
LINE
  5
212
330
1E
100
AcDbEntity
  8
0
100
AcDbLine
 10
42.62224999999999
 20
317.8054
 30
0.0
 11
43.1218571293461
 21
318.292219699453
 31
0.0
  0
LINE
  5
213
330
1E
100
AcDbEntity
  8
0
100
AcDbLine
 10
43.07405
 20
317.3414
 30
0.0
 11
43.59435
 21
316.8073999999999
 31
0.0
  0
LINE
  5
214
330
1E
100
AcDbEntity
  8
0
100
AcDbLine
 10
43.07405
 20
317.3414
 30
0.0
 11
43.59931775607339
 21
317.8535783178659
 31
0.0
  0
LINE
  5
215
330
1E
100
AcDbEntity
  8
0
100
AcDbLine
 10
43.07405
 20
317.3414
 30
0.0
 11
43.59931775607339
 21
317.8535783178659
 31
0.0
  0
LINE
  5
216
330
1E
100
AcDbEntity
  8
0
100
AcDbLine
 10
42.39275
 20
317.5704
 30
0.0
 11
42.90165
 21
317.0484
 31
0.0
  0
LINE
  5
217
330
1E
100
AcDbEntity
  8
0
100
AcDbLine
 10
42.39275
 20
317.5704
 30
0.0
 11
42.6276907798644
 21
317.7994474693999
 31
0.0
  0
LINE
  5
218
330
1E
100
AcDbEntity
  8
0
100
AcDbLine
 10
42.90165
 20
317.0484
 30
0.0
 11
43.37615
 21
316.5614
 31
0.0
  0
LINE
  5
219
330
1E
100
AcDbEntity
  8
0
100
AcDbLine
 10
42.90165
 20
317.0484
 30
0.0
 11
43.136473348957
 21
317.2773329841569
 31
0.0
  0
LINE
  5
21A
330
1E
100
AcDbEntity
  8
0
100
AcDbLine
 10
41.11215
 20
335.0274
 30
0.0
 11
43.45934999999999
 21
332.6194
 31
0.0
  0
LINE
  5
21B
330
1E
100
AcDbEntity
  8
0
100
AcDbLine
 10
0.57384999999997
 20
369.6014
 30
0.0
 11
1.893849999999969
 21
371.5864
 31
0.0
  0
LINE
  5
21C
330
1E
100
AcDbEntity
  8
0
100
AcDbLine
 10
-0.0491500000000316
 20
366.8994
 30
0.0
 11
0.6938499999999929
 21
364.1334
 31
0.0
  0
LINE
  5
21D
330
1E
100
AcDbEntity
  8
0
100
AcDbLine
 10
-0.0491500000000316
 20
366.8994
 30
0.0
 11
0.57384999999997
 21
369.6014
 31
0.0
  0
LINE
  5
21E
330
1E
100
AcDbEntity
  8
0
100
AcDbLine
 10
1.893849999999969
 20
371.5864
 30
0.0
 11
3.56384999999999
 21
373.2144
 31
0.0
  0
LINE
  5
21F
330
1E
100
AcDbEntity
  8
0
100
AcDbLine
 10
0.6938499999999929
 20
364.1334
 30
0.0
 11
2.104849999999979
 21
362.0174
 31
0.0
  0
LINE
  5
220
330
1E
100
AcDbEntity
  8
0
100
AcDbLine
 10
2.104849999999979
 20
362.0174
 30
0.0
 11
2.817849999999979
 21
360.6184
 31
0.0
  0
LINE
  5
221
330
1E
100
AcDbEntity
  8
0
100
AcDbLine
 10
3.91354060772304
 20
357.988388950288
 30
0.0
 11
4.344849999999979
 21
357.5453999999999
 31
0.0
  0
LINE
  5
222
330
1E
100
AcDbEntity
  8
0
100
AcDbLine
 10
3.913540607723069
 20
357.988388950288
 30
0.0
 11
4.344849999999979
 21
357.5453999999999
 31
0.0
  0
LINE
  5
223
330
1E
100
AcDbEntity
  8
0
100
AcDbLine
 10
4.344849999999979
 20
357.5453999999999
 30
0.0
 11
4.789849999999979
 21
357.0894
 31
0.0
  0
LINE
  5
224
330
1E
100
AcDbEntity
  8
0
100
AcDbLine
 10
4.344849999999979
 20
357.5453999999999
 30
0.0
 11
5.02324269037907
 21
358.206528205744
 31
0.0
  0
LINE
  5
225
330
1E
100
AcDbEntity
  8
0
100
AcDbLine
 10
4.344849999999979
 20
357.5453999999999
 30
0.0
 11
5.02324269037907
 21
358.206528205744
 31
0.0
  0
LINE
  5
226
330
1E
100
AcDbEntity
  8
0
100
AcDbLine
 10
3.82784999999999
 20
358.0763999999999
 30
0.0
 11
4.344849999999979
 21
357.5453999999999
 31
0.0
  0
LINE
  5
227
330
1E
100
AcDbEntity
  8
0
100
AcDbLine
 10
3.82784999999999
 20
358.0763999999999
 30
0.0
 11
4.5370873165673
 21
358.7675878639
 31
0.0
  0
LINE
  5
228
330
1E
100
AcDbEntity
  8
0
100
AcDbLine
 10
3.112849999999979
 20
358.8104
 30
0.0
 11
3.32184999999997
 21
358.5954
 31
0.0
  0
LINE
  5
229
330
1E
100
AcDbEntity
  8
0
100
AcDbLine
 10
3.112849999999979
 20
358.8104
 30
0.0
 11
3.80744651929597
 21
359.4878267176949
 31
0.0
  0
LINE
  5
22A
330
1E
100
AcDbEntity
  8
0
100
AcDbLine
 10
3.32184999999997
 20
358.5954
 30
0.0
 11
3.569260714286859
 21
358.341917857142
 31
0.0
  0
LINE
  5
22B
330
1E
100
AcDbEntity
  8
0
100
AcDbLine
 10
3.32184999999997
 20
358.5954
 30
0.0
 11
4.005456092859509
 21
359.2616089318139
 31
0.0
  0
LINE
  5
22C
330
1E
100
AcDbEntity
  8
0
100
AcDbLine
 10
3.569260714286859
 20
358.341917857142
 30
0.0
 11
3.65784999999997
 21
358.2504
 31
0.0
  0
LINE
  5
22D
330
1E
100
AcDbEntity
  8
0
100
AcDbLine
 10
3.53684999999997
 20
358.3754
 30
0.0
 11
3.65784999999997
 21
358.2504
 31
0.0
  0
LINE
  5
22E
330
1E
100
AcDbEntity
  8
0
100
AcDbLine
 10
3.53684999999997
 20
358.3754
 30
0.0
 11
3.82784999999999
 21
358.0763999999999
 31
0.0
  0
LINE
  5
22F
330
1E
100
AcDbEntity
  8
0
100
AcDbLine
 10
3.53684999999997
 20
358.3754
 30
0.0
 11
4.26314318881702
 21
359.083739874037
 31
0.0
  0
LINE
  5
230
330
1E
100
AcDbEntity
  8
0
100
AcDbLine
 10
3.65784999999997
 20
358.2504
 30
0.0
 11
3.913540607723049
 21
357.988388950288
 31
0.0
  0
LINE
  5
231
330
1E
100
AcDbEntity
  8
0
100
AcDbLine
 10
3.65784999999997
 20
358.2504
 30
0.0
 11
3.913540607723089
 21
357.988388950288
 31
0.0
  0
LINE
  5
232
330
1E
100
AcDbEntity
  8
0
100
AcDbLine
 10
2.817849999999979
 20
360.6184
 30
0.0
 11
3.804335150904069
 21
359.484792259533
 31
0.0
  0
LINE
  5
233
330
1E
100
AcDbEntity
  8
0
100
AcDbLine
 10
4.28284999999999
 20
372.8114
 30
0.0
 11
4.78084999999998
 21
372.3004
 31
0.0
  0
LINE
  5
234
330
1E
100
AcDbEntity
  8
0
100
AcDbLine
 10
4.939145999972289
 20
356.9361840000279
 30
0.0
 11
5.159849999999969
 21
356.7094
 31
0.0
  0
LINE
  5
235
330
1E
100
AcDbEntity
  8
0
100
AcDbLine
 10
4.939145999972279
 20
356.9361840000279
 30
0.0
 11
5.159849999999969
 21
356.7094
 31
0.0
  0
LINE
  5
236
330
1E
100
AcDbEntity
  8
0
100
AcDbLine
 10
5.965554000008929
 20
355.8836159999909
 30
0.0
 11
6.107849999999981
 21
355.7373999999999
 31
0.0
  0
LINE
  5
237
330
1E
100
AcDbEntity
  8
0
100
AcDbLine
 10
5.965554000008889
 20
355.8836159999909
 30
0.0
 11
6.107849999999981
 21
355.7373999999999
 31
0.0
  0
LINE
  5
238
330
1E
100
AcDbEntity
  8
0
100
AcDbLine
 10
6.107849999999981
 20
355.7373999999999
 30
0.0
 11
6.703804405049459
 21
356.317741827073
 31
0.0
  0
LINE
  5
239
330
1E
100
AcDbEntity
  8
0
100
AcDbLine
 10
6.07884999999999
 20
355.7674
 30
0.0
 11
6.67578431258201
 21
356.349578632945
 31
0.0
  0
LINE
  5
23A
330
1E
100
AcDbEntity
  8
0
100
AcDbLine
 10
6.07884999999999
 20
355.7674
 30
0.0
 11
6.67578431258201
 21
356.349578632945
 31
0.0
  0
LINE
  5
23B
330
1E
100
AcDbEntity
  8
0
100
AcDbLine
 10
5.690849999999969
 20
356.1653999999999
 30
0.0
 11
6.07884999999999
 21
355.7674
 31
0.0
  0
LINE
  5
23C
330
1E
100
AcDbEntity
  8
0
100
AcDbLine
 10
5.690849999999969
 20
356.1653999999999
 30
0.0
 11
6.44382257810779
 21
356.898646500089
 31
0.0
  0
LINE
  5
23D
330
1E
100
AcDbEntity
  8
0
100
AcDbLine
 10
5.690849999999969
 20
356.1653999999999
 30
0.0
 11
5.965554000008919
 21
355.8836159999909
 31
0.0
  0
LINE
  5
23E
330
1E
100
AcDbEntity
  8
0
100
AcDbLine
 10
5.690849999999969
 20
356.1653999999999
 30
0.0
 11
5.96555400000888
 21
355.8836159999909
 31
0.0
  0
LINE
  5
23F
330
1E
100
AcDbEntity
  8
0
100
AcDbLine
 10
5.159849999999969
 20
356.7094
 30
0.0
 11
5.690849999999969
 21
356.1653999999999
 31
0.0
  0
LINE
  5
240
330
1E
100
AcDbEntity
  8
0
100
AcDbLine
 10
5.159849999999969
 20
356.7094
 30
0.0
 11
5.912812789853481
 21
357.4432005631659
 31
0.0
  0
LINE
  5
241
330
1E
100
AcDbEntity
  8
0
100
AcDbLine
 10
5.159849999999969
 20
356.7094
 30
0.0
 11
5.912812789853481
 21
357.4432005631659
 31
0.0
  0
LINE
  5
242
330
1E
100
AcDbEntity
  8
0
100
AcDbLine
 10
4.789849999999979
 20
357.0894
 30
0.0
 11
5.44120022843911
 21
357.7241739501699
 31
0.0
  0
LINE
  5
243
330
1E
100
AcDbEntity
  8
0
100
AcDbLine
 10
4.79684999999998
 20
357.0823999999999
 30
0.0
 11
5.159849999999969
 21
356.7094
 31
0.0
  0
LINE
  5
244
330
1E
100
AcDbEntity
  8
0
100
AcDbLine
 10
4.79684999999998
 20
357.0823999999999
 30
0.0
 11
5.549167667137679
 21
357.8161210506469
 31
0.0
  0
LINE
  5
245
330
1E
100
AcDbEntity
  8
0
100
AcDbLine
 10
4.82584999999999
 20
357.0523999999999
 30
0.0
 11
4.939145999972269
 21
356.936184000029
 31
0.0
  0
LINE
  5
246
330
1E
100
AcDbEntity
  8
0
100
AcDbLine
 10
4.82584999999999
 20
357.0523999999999
 30
0.0
 11
4.939145999972289
 21
356.9361840000279
 31
0.0
  0
LINE
  5
247
330
1E
100
AcDbEntity
  8
0
100
AcDbLine
 10
9.204849999999989
 20
352.0883999999999
 30
0.0
 11
9.709849999999981
 21
351.5703999999999
 31
0.0
  0
LINE
  5
248
330
1E
100
AcDbEntity
  8
0
100
AcDbLine
 10
8.82184999999999
 20
352.4814
 30
0.0
 11
9.24589255208831
 21
352.0464415010259
 31
0.0
  0
LINE
  5
249
330
1E
100
AcDbEntity
  8
0
100
AcDbLine
 10
8.82184999999999
 20
352.4814
 30
0.0
 11
9.451730508316961
 21
353.0957220825879
 31
0.0
  0
LINE
  5
24A
330
1E
100
AcDbEntity
  8
0
100
AcDbLine
 10
8.82184999999999
 20
352.4814
 30
0.0
 11
9.13576891889364
 21
352.159400000026
 31
0.0
  0
LINE
  5
24B
330
1E
100
AcDbEntity
  8
0
100
AcDbLine
 10
8.82184999999999
 20
352.4814
 30
0.0
 11
9.135768918893679
 21
352.159400000026
 31
0.0
  0
LINE
  5
24C
330
1E
100
AcDbEntity
  8
0
100
AcDbLine
 10
8.57084999999998
 20
352.7394
 30
0.0
 11
8.82184999999999
 21
352.4814
 31
0.0
  0
LINE
  5
24D
330
1E
100
AcDbEntity
  8
0
100
AcDbLine
 10
8.57084999999998
 20
352.7394
 30
0.0
 11
9.2156047239759
 21
353.3682288962129
 31
0.0
  0
LINE
  5
24E
330
1E
100
AcDbEntity
  8
0
100
AcDbLine
 10
8.57084999999998
 20
352.7394
 30
0.0
 11
9.1677176740075
 21
353.321524685054
 31
0.0
  0
LINE
  5
24F
330
1E
100
AcDbEntity
  8
0
100
AcDbLine
 10
8.57084999999998
 20
352.7394
 30
0.0
 11
9.1677176740075
 21
353.321524685054
 31
0.0
  0
LINE
  5
250
330
1E
100
AcDbEntity
  8
0
100
AcDbLine
 10
9.13576891889364
 20
352.159400000026
 30
0.0
 11
9.204849999999989
 21
352.0883999999999
 31
0.0
  0
LINE
  5
251
330
1E
100
AcDbEntity
  8
0
100
AcDbLine
 10
9.961212902687131
 20
351.312753674047
 30
0.0
 11
10.10084999999999
 21
351.1693999999999
 31
0.0
  0
LINE
  5
252
330
1E
100
AcDbEntity
  8
0
100
AcDbLine
 10
9.709849999999981
 20
351.5703999999999
 30
0.0
 11
9.96084999999997
 21
351.3124
 31
0.0
  0
LINE
  5
253
330
1E
100
AcDbEntity
  8
0
100
AcDbLine
 10
9.794849999999989
 20
351.4834
 30
0.0
 11
9.96084999999997
 21
351.3124
 31
0.0
  0
LINE
  5
254
330
1E
100
AcDbEntity
  8
0
100
AcDbLine
 10
10.11885
 20
351.6224
 30
0.0
 11
10.62785
 21
351.1003999999999
 31
0.0
  0
LINE
  5
255
330
1E
100
AcDbEntity
  8
0
100
AcDbLine
 10
10.11885
 20
351.6224
 30
0.0
 11
10.871730319968
 21
352.355556658891
 31
0.0
  0
LINE
  5
256
330
1E
100
AcDbEntity
  8
0
100
AcDbLine
 10
10.71385
 20
351.0113999999999
 30
0.0
 11
10.86785
 21
350.8544
 31
0.0
  0
LINE
  5
257
330
1E
100
AcDbEntity
  8
0
100
AcDbLine
 10
10.28777087910339
 20
351.449164835183
 30
0.0
 11
10.71385
 21
351.0113999999999
 31
0.0
  0
LINE
  5
258
330
1E
100
AcDbEntity
  8
0
100
AcDbLine
 10
10.28777087910339
 20
351.449164835183
 30
0.0
 11
10.71385
 21
351.0113999999999
 31
0.0
  0
LINE
  5
259
330
1E
100
AcDbEntity
  8
0
100
AcDbLine
 10
10.62785
 20
351.1003999999999
 30
0.0
 11
10.86785
 21
350.8544
 31
0.0
  0
LINE
  5
25A
330
1E
100
AcDbEntity
  8
0
100
AcDbLine
 10
10.62785
 20
351.1003999999999
 30
0.0
 11
11.37674537561959
 21
351.8296761105399
 31
0.0
  0
LINE
  5
25B
330
1E
100
AcDbEntity
  8
0
100
AcDbLine
 10
10.26585
 20
351.0004
 30
0.0
 11
10.59385
 21
350.6634
 31
0.0
  0
LINE
  5
25C
330
1E
100
AcDbEntity
  8
0
100
AcDbLine
 10
10.10084999999999
 20
351.1693999999999
 30
0.0
 11
10.51885
 21
350.7414
 31
0.0
  0
LINE
  5
25D
330
1E
100
AcDbEntity
  8
0
100
AcDbLine
 10
10.10084999999999
 20
351.1693999999999
 30
0.0
 11
10.3364350673445
 21
351.399165975112
 31
0.0
  0
LINE
  5
25E
330
1E
100
AcDbEntity
  8
0
100
AcDbLine
 10
10.10084999999999
 20
351.1693999999999
 30
0.0
 11
10.2463027027061
 21
351.020467567564
 31
0.0
  0
LINE
  5
25F
330
1E
100
AcDbEntity
  8
0
100
AcDbLine
 10
10.10084999999999
 20
351.1693999999999
 30
0.0
 11
10.2463027027061
 21
351.020467567564
 31
0.0
  0
LINE
  5
260
330
1E
100
AcDbEntity
  8
0
100
AcDbLine
 10
9.32684999999998
 20
351.9633999999999
 30
0.0
 11
9.794849999999989
 21
351.4834
 31
0.0
  0
LINE
  5
261
330
1E
100
AcDbEntity
  8
0
100
AcDbLine
 10
9.73084999999998
 20
352.0204
 30
0.0
 11
10.0709291209115
 21
351.671635164802
 31
0.0
  0
LINE
  5
262
330
1E
100
AcDbEntity
  8
0
100
AcDbLine
 10
9.73084999999998
 20
352.0204
 30
0.0
 11
10.0709291209115
 21
351.671635164802
 31
0.0
  0
LINE
  5
263
330
1E
100
AcDbEntity
  8
0
100
AcDbLine
 10
9.64484999999998
 20
352.1094
 30
0.0
 11
10.11885
 21
351.6224
 31
0.0
  0
LINE
  5
264
330
1E
100
AcDbEntity
  8
0
100
AcDbLine
 10
9.64484999999998
 20
352.1094
 30
0.0
 11
10.39712911822679
 21
352.8425199496729
 31
0.0
  0
LINE
  5
265
330
1E
100
AcDbEntity
  8
0
100
AcDbLine
 10
9.49084999999998
 20
352.2663999999999
 30
0.0
 11
9.73084999999998
 21
352.0204
 31
0.0
  0
LINE
  5
266
330
1E
100
AcDbEntity
  8
0
100
AcDbLine
 10
9.49084999999998
 20
352.2663999999999
 30
0.0
 11
9.64484999999998
 21
352.1094
 31
0.0
  0
LINE
  5
267
330
1E
100
AcDbEntity
  8
0
100
AcDbLine
 10
9.49084999999998
 20
352.2663999999999
 30
0.0
 11
10.24362744241199
 21
353.0000199326499
 31
0.0
  0
LINE
  5
268
330
1E
100
AcDbEntity
  8
0
100
AcDbLine
 10
9.57484999999998
 20
351.7094
 30
0.0
 11
10.10084999999999
 21
351.1693999999999
 31
0.0
  0
LINE
  5
269
330
1E
100
AcDbEntity
  8
0
100
AcDbLine
 10
9.57484999999998
 20
351.7094
 30
0.0
 11
9.810243314366449
 21
351.9389789585469
 31
0.0
  0
LINE
  5
26A
330
1E
100
AcDbEntity
  8
0
100
AcDbLine
 10
9.24584999999999
 20
352.0464
 30
0.0
 11
9.57484999999998
 21
351.7094
 31
0.0
  0
LINE
  5
26B
330
1E
100
AcDbEntity
  8
0
100
AcDbLine
 10
9.24584999999999
 20
352.0464
 30
0.0
 11
9.850217045768349
 21
352.635838817841
 31
0.0
  0
LINE
  5
26C
330
1E
100
AcDbEntity
  8
0
100
AcDbLine
 10
9.24584999999999
 20
352.0464
 30
0.0
 11
9.850217045768339
 21
352.635838817841
 31
0.0
  0
LINE
  5
26D
330
1E
100
AcDbEntity
  8
0
100
AcDbLine
 10
8.124849999999989
 20
353.6674
 30
0.0
 11
8.76488310876304
 21
354.291144841025
 31
0.0
  0
LINE
  5
26E
330
1E
100
AcDbEntity
  8
0
100
AcDbLine
 10
7.806849999999981
 20
353.9943999999999
 30
0.0
 11
8.124849999999989
 21
353.6674
 31
0.0
  0
LINE
  5
26F
330
1E
100
AcDbEntity
  8
0
100
AcDbLine
 10
7.806849999999981
 20
353.9943999999999
 30
0.0
 11
8.463027022586119
 21
354.63435691641
 31
0.0
  0
LINE
  5
272
330
1E
100
AcDbEntity
  8
0
100
AcDbLine
 10
6.78984999999997
 20
355.0374
 30
0.0
 11
6.85284999999998
 21
354.9723999999999
 31
0.0
  0
LINE
  5
273
330
1E
100
AcDbEntity
  8
0
100
AcDbLine
 10
6.78984999999997
 20
355.0374
 30
0.0
 11
7.48785996255058
 21
355.717646235959
 31
0.0
  0
LINE
  5
274
330
1E
100
AcDbEntity
  8
0
100
AcDbLine
 10
6.78984999999997
 20
355.0374
 30
0.0
 11
7.268556231801008
 21
355.503923588177
 31
0.0
  0
LINE
  5
275
330
1E
100
AcDbEntity
  8
0
100
AcDbLine
 10
6.78984999999997
 20
355.0374
 30
0.0
 11
7.268556231801008
 21
355.503923588177
 31
0.0
  0
LINE
  5
276
330
1E
100
AcDbEntity
  8
0
100
AcDbLine
 10
7.376850000012149
 20
354.435801515139
 30
0.0
 11
7.806849999999981
 21
353.9943999999999
 31
0.0
  0
LINE
  5
277
330
1E
100
AcDbEntity
  8
0
100
AcDbLine
 10
7.376850000012179
 20
354.435801515139
 30
0.0
 11
7.806849999999981
 21
353.9943999999999
 31
0.0
  0
LINE
  5
278
330
1E
100
AcDbEntity
  8
0
100
AcDbLine
 10
7.117036046469729
 20
354.702012403144
 30
0.0
 11
7.37685000001224
 21
354.435801515139
 31
0.0
  0
LINE
  5
279
330
1E
100
AcDbEntity
  8
0
100
AcDbLine
 10
7.117036046469789
 20
354.702012403144
 30
0.0
 11
7.37685000001216
 21
354.435801515139
 31
0.0
  0
LINE
  5
27A
330
1E
100
AcDbEntity
  8
0
100
AcDbLine
 10
7.27884999999999
 20
354.5364
 30
0.0
 11
7.806849999999981
 21
353.9943999999999
 31
0.0
  0
LINE
  5
27B
330
1E
100
AcDbEntity
  8
0
100
AcDbLine
 10
7.27884999999999
 20
354.5364
 30
0.0
 11
7.96312486091271
 21
355.2027484985379
 31
0.0
  0
LINE
  5
27C
330
1E
100
AcDbEntity
  8
0
100
AcDbLine
 10
6.85284999999998
 20
354.9723999999999
 30
0.0
 11
7.27884999999999
 21
354.5364
 31
0.0
  0
LINE
  5
27D
330
1E
100
AcDbEntity
  8
0
100
AcDbLine
 10
6.85284999999998
 20
354.9723999999999
 30
0.0
 11
7.559786922719499
 21
355.66134601301
 31
0.0
  0
LINE
  5
27E
330
1E
100
AcDbEntity
  8
0
100
AcDbLine
 10
6.85284999999998
 20
354.9723999999999
 30
0.0
 11
7.117036046469709
 21
354.702012403144
 31
0.0
  0
LINE
  5
27F
330
1E
100
AcDbEntity
  8
0
100
AcDbLine
 10
6.85284999999998
 20
354.9723999999999
 30
0.0
 11
7.11703604646975
 21
354.702012403144
 31
0.0
  0
LINE
  5
284
330
1E
100
AcDbEntity
  8
0
100
AcDbLine
 10
8.526285289141339
 20
354.0586191216029
 30
0.0
 11
9.1677176740075
 21
353.321524685054
 31
0.0
  0
LINE
  5
285
330
1E
100
AcDbEntity
  8
0
100
AcDbLine
 10
6.62615722016155
 20
356.2421288124479
 30
0.0
 11
7.268556231801008
 21
355.503923588177
 31
0.0
  0
LINE
  5
286
330
1E
100
AcDbEntity
  8
0
100
AcDbLine
 10
4.819849999999969
 20
371.9254
 30
0.0
 11
8.23984999999997
 21
368.4163999999999
 31
0.0
  0
LINE
  5
287
330
1E
100
AcDbEntity
  8
0
100
AcDbLine
 10
5.606849999999981
 20
371.4534
 30
0.0
 11
6.75084999999999
 21
370.2794
 31
0.0
  0
LINE
  5
288
330
1E
100
AcDbEntity
  8
0
100
AcDbLine
 10
6.75084999999999
 20
370.2794
 30
0.0
 11
8.20484999999997
 21
368.7884
 31
0.0
  0
LINE
  5
289
330
1E
100
AcDbEntity
  8
0
100
AcDbLine
 10
8.23984999999997
 20
368.4163999999999
 30
0.0
 11
13.82385
 21
362.6874
 31
0.0
  0
LINE
  5
28A
330
1E
100
AcDbEntity
  8
0
100
AcDbLine
 10
8.20484999999997
 20
368.7884
 30
0.0
 11
9.95284999999998
 21
366.9954
 31
0.0
  0
LINE
  5
28B
330
1E
100
AcDbEntity
  8
0
100
AcDbLine
 10
9.95284999999998
 20
366.9954
 30
0.0
 11
11.97785
 21
364.9173999999999
 31
0.0
  0
LINE
  5
28C
330
1E
100
AcDbEntity
  8
0
100
AcDbLine
 10
4.78084999999998
 20
372.3004
 30
0.0
 11
5.606849999999981
 21
371.4534
 31
0.0
  0
LINE
  5
28D
330
1E
100
AcDbEntity
  8
0
100
AcDbLine
 10
3.56384999999999
 20
373.2144
 30
0.0
 11
4.11065043579621
 21
373.0070295146499
 31
0.0
  0
LINE
  5
28E
330
1E
100
AcDbEntity
  8
0
100
AcDbLine
 10
3.56384999999999
 20
373.2144
 30
0.0
 11
4.819849999999969
 21
371.9254
 31
0.0
  0
LINE
  5
291
330
1E
100
AcDbEntity
  8
0
100
AcDbLine
 10
4.10784999999999
 20
373.3423999999999
 30
0.0
 11
4.204849999999979
 21
373.5043999999999
 31
0.0
  0
LINE
  5
293
330
1E
100
AcDbEntity
  8
0
100
AcDbLine
 10
4.205849999999979
 20
373.5054
 30
0.0
 11
11.57285
 21
381.7194
 31
0.0
  0
LINE
  5
294
330
1E
100
AcDbEntity
  8
0
100
AcDbLine
 10
4.204849999999979
 20
373.5043999999999
 30
0.0
 11
11.57485
 21
381.7214
 31
0.0
  0
LINE
  5
295
330
1E
100
AcDbEntity
  8
0
100
AcDbLine
 10
4.204849999999979
 20
373.5043999999999
 30
0.0
 11
11.57285
 21
381.7194
 31
0.0
  0
LINE
  5
296
330
1E
100
AcDbEntity
  8
0
100
AcDbLine
 10
4.077849999999979
 20
373.1624
 30
0.0
 11
4.11584999999999
 21
372.9823999999999
 31
0.0
  0
LINE
  5
297
330
1E
100
AcDbEntity
  8
0
100
AcDbLine
 10
4.077849999999979
 20
373.1624
 30
0.0
 11
4.10784999999999
 21
373.3423999999999
 31
0.0
  0
LINE
  5
298
330
1E
100
AcDbEntity
  8
0
100
AcDbLine
 10
4.11584999999999
 20
372.9823999999999
 30
0.0
 11
4.28284999999999
 21
372.8114
 31
0.0
  0
LINE
  5
299
330
1E
100
AcDbEntity
  8
0
100
AcDbLine
 10
21.08385
 20
355.2404
 30
0.0
 11
29.52915
 21
346.5754
 31
0.0
  0
LINE
  5
29A
330
1E
100
AcDbEntity
  8
0
100
AcDbLine
 10
19.50785
 20
357.1924
 30
0.0
 11
22.42385
 21
354.2003999999999
 31
0.0
  0
LINE
  5
29C
330
1E
100
AcDbEntity
  8
0
100
AcDbLine
 10
16.77884999999999
 20
359.9923999999999
 30
0.0
 11
19.50785
 21
357.1924
 31
0.0
  0
LINE
  5
2A9
330
1E
100
AcDbEntity
  8
0
100
AcDbLine
 10
25.49585
 20
351.0484
 30
0.0
 11
28.69685
 21
347.7644
 31
0.0
  0
LINE
  5
2AA
330
1E
100
AcDbEntity
  8
0
100
AcDbLine
 10
22.42385
 20
354.2003999999999
 30
0.0
 11
25.49585
 21
351.0484
 31
0.0
  0
LINE
  5
2AC
330
1E
100
AcDbEntity
  8
0
100
AcDbLine
 10
13.82385
 20
362.6874
 30
0.0
 11
21.08385
 21
355.2404
 31
0.0
  0
LINE
  5
2AE
330
1E
100
AcDbEntity
  8
0
100
AcDbLine
 10
11.97785
 20
364.9173999999999
 30
0.0
 11
14.25985
 21
362.5763999999999
 31
0.0
  0
LINE
  5
2B5
330
1E
100
AcDbEntity
  8
0
100
AcDbLine
 10
11.63685
 20
381.6583999999999
 30
0.0
 11
11.85185
 21
381.4343999999999
 31
0.0
  0
LINE
  5
2B6
330
1E
100
AcDbEntity
  8
0
100
AcDbLine
 10
11.57485
 20
381.7214
 30
0.0
 11
11.65085
 21
381.6544
 31
0.0
  0
LINE
  5
2B7
330
1E
100
AcDbEntity
  8
0
100
AcDbLine
 10
11.57485
 20
381.7214
 30
0.0
 11
11.63685
 21
381.6583999999999
 31
0.0
  0
LINE
  5
2B8
330
1E
100
AcDbEntity
  8
0
100
AcDbLine
 10
11.65085
 20
381.6544
 30
0.0
 11
11.71085
 21
381.5903999999999
 31
0.0
  0
LINE
  5
2B9
330
1E
100
AcDbEntity
  8
0
100
AcDbLine
 10
11.65085
 20
381.6544
 30
0.0
 11
11.97685
 21
381.8974
 31
0.0
  0
LINE
  5
2C3
330
1E
100
AcDbEntity
  8
0
100
AcDbLine
 10
11.97685
 20
381.8974
 30
0.0
 11
12.36585
 21
382.0063999999999
 31
0.0
  0
LINE
  5
2C4
330
1E
100
AcDbEntity
  8
0
100
AcDbLine
 10
12.36585
 20
382.0063999999999
 30
0.0
 11
12.75085
 21
381.9164
 31
0.0
  0
LINE
  5
2C5
330
1E
100
AcDbEntity
  8
0
100
AcDbLine
 10
12.75085
 20
381.9164
 30
0.0
 11
18.06185
 21
379.7004
 31
0.0
  0
LINE
  5
2D2
330
1E
100
AcDbEntity
  8
0
100
AcDbLine
 10
23.23185
 20
377.2373999999999
 30
0.0
 11
28.31685
 21
374.5174
 31
0.0
  0
LINE
  5
2D3
330
1E
100
AcDbEntity
  8
0
100
AcDbLine
 10
18.06185
 20
379.7004
 30
0.0
 11
23.23185
 21
377.2373999999999
 31
0.0
  0
LINE
  5
2D8
330
1E
100
AcDbEntity
  8
0
100
AcDbLine
 10
28.31685
 20
374.5174
 30
0.0
 11
33.28625
 21
371.5774
 31
0.0
  0
LINE
  5
2D9
330
1E
100
AcDbEntity
  8
0
100
AcDbLine
 10
33.28625
 20
371.5774
 30
0.0
 11
35.85765
 21
369.9143999999999
 31
0.0
  0
LINE
  5
2DA
330
1E
100
AcDbEntity
  8
0
100
AcDbLine
 10
38.13905
 20
368.4463999999999
 30
0.0
 11
42.90655
 21
365.1263999999999
 31
0.0
  0
LINE
  5
2DE
330
1E
100
AcDbEntity
  8
0
100
AcDbLine
 10
42.90655
 20
365.1263999999999
 30
0.0
 11
49.71015
 21
359.9714
 31
0.0
  0
LINE
  5
2DF
330
1E
100
AcDbEntity
  8
0
100
AcDbLine
 10
35.85765
 20
369.9143999999999
 30
0.0
 11
38.13905
 21
368.4463999999999
 31
0.0
  0
LINE
  5
2E3
330
1E
100
AcDbEntity
  8
0
100
AcDbLine
 10
14.25985
 20
362.5763999999999
 30
0.0
 11
16.77884999999999
 21
359.9923999999999
 31
0.0
  0
LINE
  5
2E4
330
1E
100
AcDbEntity
  8
0
100
AcDbLine
 10
58.14902016392459
 20
302.347029508207
 30
0.0
 11
58.25475
 21
302.2384
 31
0.0
  0
LINE
  5
2E5
330
1E
100
AcDbEntity
  8
0
100
AcDbLine
 10
58.1490201639247
 20
302.347029508207
 30
0.0
 11
58.25475
 21
302.2384
 31
0.0
  0
LINE
  5
2E6
330
1E
100
AcDbEntity
  8
0
100
AcDbLine
 10
64.21174999999999
 20
298.9684
 30
0.0
 11
66.95855
 21
298.1543999999999
 31
0.0
  0
LINE
  5
2E7
330
1E
100
AcDbEntity
  8
0
100
AcDbLine
 10
62.13305
 20
300.4334
 30
0.0
 11
64.21174999999999
 21
298.9684
 31
0.0
  0
LINE
  5
2E8
330
1E
100
AcDbEntity
  8
0
100
AcDbLine
 10
60.75235
 20
301.1823999999999
 30
0.0
 11
62.13305
 21
300.4334
 31
0.0
  0
LINE
  5
2E9
330
1E
100
AcDbEntity
  8
0
100
AcDbLine
 10
58.95275
 20
301.5223999999999
 30
0.0
 11
59.647940567675
 21
302.2001522419419
 31
0.0
  0
LINE
  5
2EA
330
1E
100
AcDbEntity
  8
0
100
AcDbLine
 10
58.74335
 20
301.7373999999999
 30
0.0
 11
58.95275
 21
301.5223999999999
 31
0.0
  0
LINE
  5
2EB
330
1E
100
AcDbEntity
  8
0
100
AcDbLine
 10
58.74335
 20
301.7373999999999
 30
0.0
 11
59.4269238612138
 21
302.403826931711
 31
0.0
  0
LINE
  5
2EC
330
1E
100
AcDbEntity
  8
0
100
AcDbLine
 10
59.6448209209115
 20
302.1971108491399
 30
0.0
 11
60.75235
 21
301.1823999999999
 31
0.0
  0
LINE
  5
2ED
330
1E
100
AcDbEntity
  8
0
100
AcDbLine
 10
58.5286756466708
 20
301.95752249492
 30
0.0
 11
58.74335
 21
301.7373999999999
 31
0.0
  0
LINE
  5
2EE
330
1E
100
AcDbEntity
  8
0
100
AcDbLine
 10
58.25475
 20
302.2384
 30
0.0
 11
58.3857330603789
 21
302.1040927686249
 31
0.0
  0
LINE
  5
2EF
330
1E
100
AcDbEntity
  8
0
100
AcDbLine
 10
58.52855
 20
301.9573999999999
 30
0.0
 11
59.2558521316009
 21
302.666458311752
 31
0.0
  0
LINE
  5
2F0
330
1E
100
AcDbEntity
  8
0
100
AcDbLine
 10
58.23745
 20
302.2564
 30
0.0
 11
58.52855
 21
301.9573999999999
 31
0.0
  0
LINE
  5
2F1
330
1E
100
AcDbEntity
  8
0
100
AcDbLine
 10
58.23745
 20
302.2564
 30
0.0
 11
58.94703171769439
 21
302.948182400927
 31
0.0
  0
LINE
  5
2F2
330
1E
100
AcDbEntity
  8
0
100
AcDbLine
 10
57.6006564515975
 20
302.9095290322739
 30
0.0
 11
57.96235
 21
302.5384
 31
0.0
  0
LINE
  5
2F3
330
1E
100
AcDbEntity
  8
0
100
AcDbLine
 10
57.6006564515975
 20
302.9095290322739
 30
0.0
 11
57.96235
 21
302.5384
 31
0.0
  0
LINE
  5
2F4
330
1E
100
AcDbEntity
  8
0
100
AcDbLine
 10
57.55675
 20
302.9544
 30
0.0
 11
57.6006564515975
 21
302.9095290322739
 31
0.0
  0
LINE
  5
2F5
330
1E
100
AcDbEntity
  8
0
100
AcDbLine
 10
57.55675
 20
302.9544
 30
0.0
 11
57.6006564515975
 21
302.9095290322739
 31
0.0
  0
LINE
  5
2F6
330
1E
100
AcDbEntity
  8
0
100
AcDbLine
 10
57.44485
 20
303.0693999999999
 30
0.0
 11
57.96235
 21
302.5384
 31
0.0
  0
LINE
  5
2F7
330
1E
100
AcDbEntity
  8
0
100
AcDbLine
 10
57.44485
 20
303.0693999999999
 30
0.0
 11
57.55684038946499
 21
302.954488122114
 31
0.0
  0
LINE
  5
2F8
330
1E
100
AcDbEntity
  8
0
100
AcDbLine
 10
55.069654875485
 20
305.506342857149
 30
0.0
 11
55.27505
 21
305.2953999999999
 31
0.0
  0
LINE
  5
2F9
330
1E
100
AcDbEntity
  8
0
100
AcDbLine
 10
54.00314999999999
 20
306.6003999999999
 30
0.0
 11
54.42885
 21
306.1634
 31
0.0
  0
LINE
  5
2FA
330
1E
100
AcDbEntity
  8
0
100
AcDbLine
 10
53.94025
 20
306.6653999999999
 30
0.0
 11
54.25865
 21
306.3383999999999
 31
0.0
  0
LINE
  5
2FB
330
1E
100
AcDbEntity
  8
0
100
AcDbLine
 10
53.94025
 20
306.6653999999999
 30
0.0
 11
54.00314999999999
 21
306.6003999999999
 31
0.0
  0
LINE
  5
2FC
330
1E
100
AcDbEntity
  8
0
100
AcDbLine
 10
53.94025
 20
306.6653999999999
 30
0.0
 11
54.57979271751929
 21
307.28842139685
 31
0.0
  0
LINE
  5
2FD
330
1E
100
AcDbEntity
  8
0
100
AcDbLine
 10
53.94025
 20
306.6653999999999
 30
0.0
 11
54.34133815473679
 21
307.056126835876
 31
0.0
  0
LINE
  5
2FE
330
1E
100
AcDbEntity
  8
0
100
AcDbLine
 10
54.42885
 20
306.1634
 30
0.0
 11
54.5454499999897
 21
306.043883895425
 31
0.0
  0
LINE
  5
2FF
330
1E
100
AcDbEntity
  8
0
100
AcDbLine
 10
54.42885
 20
306.1634
 30
0.0
 11
54.5454499999897
 21
306.043883895425
 31
0.0
  0
LINE
  5
300
330
1E
100
AcDbEntity
  8
0
100
AcDbLine
 10
54.25865
 20
306.3383999999999
 30
0.0
 11
54.78645
 21
305.7964
 31
0.0
  0
LINE
  5
301
330
1E
100
AcDbEntity
  8
0
100
AcDbLine
 10
54.25865
 20
306.3383999999999
 30
0.0
 11
54.9148767640761
 21
306.97816581567
 31
0.0
  0
LINE
  5
302
330
1E
100
AcDbEntity
  8
0
100
AcDbLine
 10
54.78645
 20
305.7964
 30
0.0
 11
55.21215
 21
305.3604
 31
0.0
  0
LINE
  5
303
330
1E
100
AcDbEntity
  8
0
100
AcDbLine
 10
54.78645
 20
305.7964
 30
0.0
 11
55.47074778326179
 21
306.4634827446889
 31
0.0
  0
LINE
  5
304
330
1E
100
AcDbEntity
  8
0
100
AcDbLine
 10
54.78645
 20
305.7964
 30
0.0
 11
55.069654875485
 21
305.506342857149
 31
0.0
  0
LINE
  5
305
330
1E
100
AcDbEntity
  8
0
100
AcDbLine
 10
54.78645
 20
305.7964
 30
0.0
 11
55.069654875485
 21
305.506342857149
 31
0.0
  0
LINE
  5
306
330
1E
100
AcDbEntity
  8
0
100
AcDbLine
 10
55.27505
 20
305.2953999999999
 30
0.0
 11
55.9728436186995
 21
305.975639062254
 31
0.0
  0
LINE
  5
307
330
1E
100
AcDbEntity
  8
0
100
AcDbLine
 10
55.75376436848589
 20
305.762071239719
 30
0.0
 11
56.4755392476589
 21
305.100785848335
 31
0.0
  0
LINE
  5
308
330
1E
100
AcDbEntity
  8
0
100
AcDbLine
 10
55.21215
 20
305.3604
 30
0.0
 11
55.27505
 21
305.2953999999999
 31
0.0
  0
LINE
  5
309
330
1E
100
AcDbEntity
  8
0
100
AcDbLine
 10
55.21215
 20
305.3604
 30
0.0
 11
55.91843451868499
 21
306.048967909643
 31
0.0
  0
LINE
  5
30A
330
1E
100
AcDbEntity
  8
0
100
AcDbLine
 10
55.069654875485
 20
305.506342857149
 30
0.0
 11
55.27505
 21
305.2953999999999
 31
0.0
  0
LINE
  5
30B
330
1E
100
AcDbEntity
  8
0
100
AcDbLine
 10
55.95715
 20
304.5954
 30
0.0
 11
56.21261250002439
 21
304.333477205857
 31
0.0
  0
LINE
  5
30C
330
1E
100
AcDbEntity
  8
0
100
AcDbLine
 10
55.95715
 20
304.5954
 30
0.0
 11
56.5533145426872
 21
305.176610209344
 31
0.0
  0
LINE
  5
30D
330
1E
100
AcDbEntity
  8
0
100
AcDbLine
 10
55.95715
 20
304.5954
 30
0.0
 11
56.4755392476589
 21
305.100785848335
 31
0.0
  0
LINE
  5
30E
330
1E
100
AcDbEntity
  8
0
100
AcDbLine
 10
56.21261250002439
 20
304.333477205857
 30
0.0
 11
56.37434999999999
 21
304.1673999999999
 31
0.0
  0
LINE
  5
30F
330
1E
100
AcDbEntity
  8
0
100
AcDbLine
 10
56.21261250002429
 20
304.333477205857
 30
0.0
 11
56.37434999999999
 21
304.1673999999999
 31
0.0
  0
LINE
  5
310
330
1E
100
AcDbEntity
  8
0
100
AcDbLine
 10
55.98675
 20
304.5654
 30
0.0
 11
56.37434999999999
 21
304.1673999999999
 31
0.0
  0
LINE
  5
311
330
1E
100
AcDbEntity
  8
0
100
AcDbLine
 10
55.98675
 20
304.5654
 30
0.0
 11
56.5842698903536
 21
305.1479315591469
 31
0.0
  0
LINE
  5
312
330
1E
100
AcDbEntity
  8
0
100
AcDbLine
 10
56.37434999999999
 20
304.1673999999999
 30
0.0
 11
56.90505
 21
303.6234
 31
0.0
  0
LINE
  5
313
330
1E
100
AcDbEntity
  8
0
100
AcDbLine
 10
56.37434999999999
 20
304.1673999999999
 30
0.0
 11
57.12721512654039
 21
304.9013800784389
 31
0.0
  0
LINE
  5
314
330
1E
100
AcDbEntity
  8
0
100
AcDbLine
 10
56.90505
 20
303.6234
 30
0.0
 11
57.26894999999999
 21
303.2504
 31
0.0
  0
LINE
  5
315
330
1E
100
AcDbEntity
  8
0
100
AcDbLine
 10
56.90505
 20
303.6234
 30
0.0
 11
57.6576852982486
 21
304.3571560152149
 31
0.0
  0
LINE
  5
316
330
1E
100
AcDbEntity
  8
0
100
AcDbLine
 10
56.90505
 20
303.6234
 30
0.0
 11
57.0274201730553
 21
303.4979697319329
 31
0.0
  0
LINE
  5
317
330
1E
100
AcDbEntity
  8
0
100
AcDbLine
 10
56.90505
 20
303.6234
 30
0.0
 11
57.0274201730553
 21
303.4979697319329
 31
0.0
  0
LINE
  5
318
330
1E
100
AcDbEntity
  8
0
100
AcDbLine
 10
57.0274201730553
 20
303.4979697319329
 30
0.0
 11
57.23925
 21
303.2804
 31
0.0
  0
LINE
  5
319
330
1E
100
AcDbEntity
  8
0
100
AcDbLine
 10
57.0274201730553
 20
303.4979697319329
 30
0.0
 11
57.22539921029779
 21
303.2946261014229
 31
0.0
  0
LINE
  5
31A
330
1E
100
AcDbEntity
  8
0
100
AcDbLine
 10
57.0274201730553
 20
303.4979697319329
 30
0.0
 11
57.22539921029779
 21
303.2946261014229
 31
0.0
  0
LINE
  5
31B
330
1E
100
AcDbEntity
  8
0
100
AcDbLine
 10
53.02355
 20
307.1344
 30
0.0
 11
53.6689097572345
 21
307.7631947346549
 31
0.0
  0
LINE
  5
31C
330
1E
100
AcDbEntity
  8
0
100
AcDbLine
 10
51.9175625943048
 20
308.2688881423109
 30
0.0
 11
52.27244999999999
 21
307.9044
 31
0.0
  0
LINE
  5
31D
330
1E
100
AcDbEntity
  8
0
100
AcDbLine
 10
52.01955
 20
308.1644
 30
0.0
 11
52.34825
 21
307.8274
 31
0.0
  0
LINE
  5
31E
330
1E
100
AcDbEntity
  8
0
100
AcDbLine
 10
52.01955
 20
308.1644
 30
0.0
 11
52.2551291945619
 21
308.393932373958
 31
0.0
  0
LINE
  5
31F
330
1E
100
AcDbEntity
  8
0
100
AcDbLine
 10
51.9175625943048
 20
308.2688881423109
 30
0.0
 11
52.27244999999999
 21
307.9044
 31
0.0
  0
LINE
  5
320
330
1E
100
AcDbEntity
  8
0
100
AcDbLine
 10
51.07565000000001
 20
309.1324
 30
0.0
 11
51.49345
 21
308.7034
 31
0.0
  0
LINE
  5
321
330
1E
100
AcDbEntity
  8
0
100
AcDbLine
 10
51.07565000000001
 20
309.1324
 30
0.0
 11
51.3110414853689
 21
309.3619256345399
 31
0.0
  0
LINE
  5
322
330
1E
100
AcDbEntity
  8
0
100
AcDbLine
 10
51.49345
 20
308.7034
 30
0.0
 11
52.01955
 21
308.1644
 31
0.0
  0
LINE
  5
323
330
1E
100
AcDbEntity
  8
0
100
AcDbLine
 10
51.49345
 20
308.7034
 30
0.0
 11
51.7290212119516
 21
308.9331180730229
 31
0.0
  0
LINE
  5
324
330
1E
100
AcDbEntity
  8
0
100
AcDbLine
 10
51.0339252293551
 20
309.1753357798189
 30
0.0
 11
51.07565000000001
 21
309.1324
 31
0.0
  0
LINE
  5
325
330
1E
100
AcDbEntity
  8
0
100
AcDbLine
 10
51.03485
 20
309.1743999999999
 30
0.0
 11
51.2702571438804
 21
309.403781904904
 31
0.0
  0
LINE
  5
326
330
1E
100
AcDbEntity
  8
0
100
AcDbLine
 10
51.01805
 20
309.1914
 30
0.0
 11
51.2534983927607
 21
309.420981123825
 31
0.0
  0
LINE
  5
327
330
1E
100
AcDbEntity
  8
0
100
AcDbLine
 10
49.73625
 20
310.5064
 30
0.0
 11
50.09055
 21
310.1433999999999
 31
0.0
  0
LINE
  5
328
330
1E
100
AcDbEntity
  8
0
100
AcDbLine
 10
49.73625
 20
310.5064
 30
0.0
 11
50.3119865263737
 21
311.0678314427969
 31
0.0
  0
LINE
  5
329
330
1E
100
AcDbEntity
  8
0
100
AcDbLine
 10
49.73625
 20
310.5064
 30
0.0
 11
50.1427742103112
 21
310.902823474057
 31
0.0
  0
LINE
  5
32A
330
1E
100
AcDbEntity
  8
0
100
AcDbLine
 10
50.09055
 20
310.1433999999999
 30
0.0
 11
50.62185
 21
309.5984
 31
0.0
  0
LINE
  5
32B
330
1E
100
AcDbEntity
  8
0
100
AcDbLine
 10
50.09055
 20
310.1433999999999
 30
0.0
 11
50.6901517859092
 21
310.7276549957
 31
0.0
  0
LINE
  5
32C
330
1E
100
AcDbEntity
  8
0
100
AcDbLine
 10
51.19755
 20
309.4784
 30
0.0
 11
51.43724999999999
 21
309.2324
 31
0.0
  0
LINE
  5
32D
330
1E
100
AcDbEntity
  8
0
100
AcDbLine
 10
51.19755
 20
309.4784
 30
0.0
 11
51.92665965216189
 21
310.189220492037
 31
0.0
  0
LINE
  5
32E
330
1E
100
AcDbEntity
  8
0
100
AcDbLine
 10
51.43724999999999
 20
309.2324
 30
0.0
 11
51.94615
 21
308.7104
 31
0.0
  0
LINE
  5
32F
330
1E
100
AcDbEntity
  8
0
100
AcDbLine
 10
51.43724999999999
 20
309.2324
 30
0.0
 11
52.1861919848689
 21
309.962555345788
 31
0.0
  0
LINE
  5
330
330
1E
100
AcDbEntity
  8
0
100
AcDbLine
 10
50.62185
 20
309.5984
 30
0.0
 11
51.01805
 21
309.1914
 31
0.0
  0
LINE
  5
331
330
1E
100
AcDbEntity
  8
0
100
AcDbLine
 10
50.62185
 20
309.5984
 30
0.0
 11
51.2572436012199
 21
310.217530720542
 31
0.0
  0
LINE
  5
332
330
1E
100
AcDbEntity
  8
0
100
AcDbLine
 10
49.18225
 20
311.0754
 30
0.0
 11
49.8193427675492
 21
311.696139941143
 31
0.0
  0
LINE
  5
333
330
1E
100
AcDbEntity
  8
0
100
AcDbLine
 10
49.5564578172029
 20
311.440002692508
 30
0.0
 11
50.1427742103112
 21
310.902823474057
 31
0.0
  0
LINE
  5
334
330
1E
100
AcDbEntity
  8
0
100
AcDbLine
 10
49.07354999999999
 20
311.1864
 30
0.0
 11
49.18225
 21
311.0754
 31
0.0
  0
LINE
  5
335
330
1E
100
AcDbEntity
  8
0
100
AcDbLine
 10
49.07354999999999
 20
311.1864
 30
0.0
 11
49.70492094570599
 21
311.8020835370869
 31
0.0
  0
LINE
  5
336
330
1E
100
AcDbEntity
  8
0
100
AcDbLine
 10
49.21905
 20
311.5083999999999
 30
0.0
 11
49.9716945419843
 21
312.242165027079
 31
0.0
  0
LINE
  5
338
330
1E
100
AcDbEntity
  8
0
100
AcDbLine
 10
51.94615
 20
308.7104
 30
0.0
 11
52.42065
 21
308.2244
 31
0.0
  0
LINE
  5
339
330
1E
100
AcDbEntity
  8
0
100
AcDbLine
 10
51.94615
 20
308.7104
 30
0.0
 11
52.6989120573803
 21
309.444279594691
 31
0.0
  0
LINE
  5
33A
330
1E
100
AcDbEntity
  8
0
100
AcDbLine
 10
51.63295
 20
308.5604
 30
0.0
 11
51.79895
 21
308.3903999999999
 31
0.0
  0
LINE
  5
33B
330
1E
100
AcDbEntity
  8
0
100
AcDbLine
 10
51.79895
 20
308.3903999999999
 30
0.0
 11
52.26745
 21
307.9093999999999
 31
0.0
  0
LINE
  5
33C
330
1E
100
AcDbEntity
  8
0
100
AcDbLine
 10
53.6207784690285
 20
307.7162988750089
 30
0.0
 11
54.34133815473679
 21
307.056126835876
 31
0.0
  0
LINE
  5
33D
330
1E
100
AcDbEntity
  8
0
100
AcDbLine
 10
52.34825
 20
307.8274
 30
0.0
 11
52.952820972428
 21
308.4164529118469
 31
0.0
  0
LINE
  5
33E
330
1E
100
AcDbEntity
  8
0
100
AcDbLine
 10
52.27244999999999
 20
307.9044
 30
0.0
 11
52.34825
 21
307.8274
 31
0.0
  0
LINE
  5
33F
330
1E
100
AcDbEntity
  8
0
100
AcDbLine
 10
52.27866540153621
 20
308.369825742578
 30
0.0
 11
52.33465
 21
308.3124
 31
0.0
  0
LINE
  5
340
330
1E
100
AcDbEntity
  8
0
100
AcDbLine
 10
52.27866540153621
 20
308.369825742578
 30
0.0
 11
52.33465
 21
308.3124
 31
0.0
  0
LINE
  5
341
330
1E
100
AcDbEntity
  8
0
100
AcDbLine
 10
52.57435
 20
308.0664
 30
0.0
 11
53.3268848744534
 21
308.800058110474
 31
0.0
  0
LINE
  5
345
330
1E
100
AcDbEntity
  8
0
100
AcDbLine
 10
52.42065
 20
308.2244
 30
0.0
 11
52.57435
 21
308.0664
 31
0.0
  0
LINE
  5
346
330
1E
100
AcDbEntity
  8
0
100
AcDbLine
 10
52.42065
 20
308.2244
 30
0.0
 11
53.1733050925908
 21
308.957611737522
 31
0.0
  0
LINE
  5
347
330
1E
100
AcDbEntity
  8
0
100
AcDbLine
 10
52.33465
 20
308.3124
 30
0.0
 11
52.57435
 21
308.0664
 31
0.0
  0
LINE
  5
348
330
1E
100
AcDbEntity
  8
0
100
AcDbLine
 10
52.26745
 20
307.9093999999999
 30
0.0
 11
52.77245
 21
307.3913999999999
 31
0.0
  0
LINE
  5
349
330
1E
100
AcDbEntity
  8
0
100
AcDbLine
 10
52.77245
 20
307.3913999999999
 30
0.0
 11
53.02355
 21
307.1344
 31
0.0
  0
LINE
  5
34A
330
1E
100
AcDbEntity
  8
0
100
AcDbLine
 10
52.77245
 20
307.3913999999999
 30
0.0
 11
53.4027299040695
 21
308.006019604103
 31
0.0
  0
LINE
  5
34B
330
1E
100
AcDbEntity
  8
0
100
AcDbLine
 10
57.26894999999999
 20
303.2504
 30
0.0
 11
58.0216995212925
 21
303.983703726845
 31
0.0
  0
LINE
  5
34C
330
1E
100
AcDbEntity
  8
0
100
AcDbLine
 10
57.26894999999999
 20
303.2504
 30
0.0
 11
58.0216995212925
 21
303.983703726845
 31
0.0
  0
LINE
  5
34D
330
1E
100
AcDbEntity
  8
0
100
AcDbLine
 10
57.22539921029779
 20
303.2946261014229
 30
0.0
 11
57.27515
 21
303.2434
 31
0.0
  0
LINE
  5
34E
330
1E
100
AcDbEntity
  8
0
100
AcDbLine
 10
57.27515
 20
303.2434
 30
0.0
 11
57.71995
 21
302.7874
 31
0.0
  0
LINE
  5
34F
330
1E
100
AcDbEntity
  8
0
100
AcDbLine
 10
57.27515
 20
303.2434
 30
0.0
 11
57.92690266068309
 21
303.878803941752
 31
0.0
  0
LINE
  5
350
330
1E
100
AcDbEntity
  8
0
100
AcDbLine
 10
57.27515
 20
303.2434
 30
0.0
 11
57.431075552073
 21
303.083548264961
 31
0.0
  0
LINE
  5
353
330
1E
100
AcDbEntity
  8
0
100
AcDbLine
 10
57.71995
 20
302.7874
 30
0.0
 11
58.23745
 21
302.2564
 31
0.0
  0
LINE
  5
354
330
1E
100
AcDbEntity
  8
0
100
AcDbLine
 10
57.71995
 20
302.7874
 30
0.0
 11
58.3983177733879
 21
303.448751434632
 31
0.0
  0
LINE
  5
355
330
1E
100
AcDbEntity
  8
0
100
AcDbLine
 10
57.96235
 20
302.5384
 30
0.0
 11
58.25122444796449
 21
302.242251735
 31
0.0
  0
LINE
  5
356
330
1E
100
AcDbEntity
  8
0
100
AcDbLine
 10
57.96235
 20
302.5384
 30
0.0
 11
58.1490201639247
 21
302.347029508207
 31
0.0
  0
LINE
  5
357
330
1E
100
AcDbEntity
  8
0
100
AcDbLine
 10
65.37815000000001
 20
310.1363999999999
 30
0.0
 11
66.64194999999999
 21
308.8384
 31
0.0
  0
LINE
  5
358
330
1E
100
AcDbEntity
  8
0
100
AcDbLine
 10
48.508949999989
 20
311.765953334626
 30
0.0
 11
48.90215
 21
311.3623999999999
 31
0.0
  0
LINE
  5
359
330
1E
100
AcDbEntity
  8
0
100
AcDbLine
 10
48.0225066500307
 20
312.26456988501
 30
0.0
 11
48.10145
 21
312.1834
 31
0.0
  0
LINE
  5
35A
330
1E
100
AcDbEntity
  8
0
100
AcDbLine
 10
48.10145
 20
312.1834
 30
0.0
 11
48.62175
 21
311.6503999999999
 31
0.0
  0
LINE
  5
35B
330
1E
100
AcDbEntity
  8
0
100
AcDbLine
 10
48.10145
 20
312.1834
 30
0.0
 11
48.33713397700271
 21
312.413228036248
 31
0.0
  0
LINE
  5
35C
330
1E
100
AcDbEntity
  8
0
100
AcDbLine
 10
48.62175
 20
311.6503999999999
 30
0.0
 11
49.07354999999999
 21
311.1864
 31
0.0
  0
LINE
  5
35D
330
1E
100
AcDbEntity
  8
0
100
AcDbLine
 10
48.62175
 20
311.6503999999999
 30
0.0
 11
48.8571439344906
 21
311.879751869121
 31
0.0
  0
LINE
  5
35E
330
1E
100
AcDbEntity
  8
0
100
AcDbLine
 10
47.92995
 20
312.3594
 30
0.0
 11
48.0225066500307
 21
312.26456988501
 31
0.0
  0
LINE
  5
35F
330
1E
100
AcDbEntity
  8
0
100
AcDbLine
 10
47.82135
 20
312.4714
 30
0.0
 11
48.10145
 21
312.1834
 31
0.0
  0
LINE
  5
360
330
1E
100
AcDbEntity
  8
0
100
AcDbLine
 10
47.82135
 20
312.4714
 30
0.0
 11
47.92995
 21
312.3594
 31
0.0
  0
LINE
  5
361
330
1E
100
AcDbEntity
  8
0
100
AcDbLine
 10
47.82135
 20
312.4714
 30
0.0
 11
48.0568616432868
 21
312.7008837296509
 31
0.0
  0
LINE
  5
362
330
1E
100
AcDbEntity
  8
0
100
AcDbLine
 10
48.47045
 20
312.2764
 30
0.0
 11
48.97935
 21
311.7543999999999
 31
0.0
  0
LINE
  5
363
330
1E
100
AcDbEntity
  8
0
100
AcDbLine
 10
48.47045
 20
312.2764
 30
0.0
 11
49.223096286801
 21
313.010166728128
 31
0.0
  0
LINE
  5
364
330
1E
100
AcDbEntity
  8
0
100
AcDbLine
 10
49.7847330986261
 20
312.059893369084
 30
0.0
 11
52.23675
 21
309.9184
 31
0.0
  0
LINE
  5
365
330
1E
100
AcDbEntity
  8
0
100
AcDbLine
 10
48.97935
 20
311.7543999999999
 30
0.0
 11
49.21905
 21
311.5083999999999
 31
0.0
  0
LINE
  5
366
330
1E
100
AcDbEntity
  8
0
100
AcDbLine
 10
48.97935
 20
311.7543999999999
 30
0.0
 11
49.7319510367906
 21
312.48812261318
 31
0.0
  0
LINE
  5
367
330
1E
100
AcDbEntity
  8
0
100
AcDbLine
 10
47.8216974002892
 20
313.0651013966129
 30
0.0
 11
47.90616557081779
 21
312.983664438513
 31
0.0
  0
LINE
  5
368
330
1E
100
AcDbEntity
  8
0
100
AcDbLine
 10
47.84225
 20
312.9214
 30
0.0
 11
47.99595
 21
312.7634
 31
0.0
  0
LINE
  5
369
330
1E
100
AcDbEntity
  8
0
100
AcDbLine
 10
47.84225
 20
312.9214
 30
0.0
 11
48.5949194495652
 21
313.6546257236119
 31
0.0
  0
LINE
  5
36A
330
1E
100
AcDbEntity
  8
0
100
AcDbLine
 10
47.84225
 20
312.9214
 30
0.0
 11
47.90616557081779
 21
312.983664438513
 31
0.0
  0
LINE
  5
36B
330
1E
100
AcDbEntity
  8
0
100
AcDbLine
 10
47.99595
 20
312.7634
 30
0.0
 11
48.47045
 21
312.2764
 31
0.0
  0
LINE
  5
36C
330
1E
100
AcDbEntity
  8
0
100
AcDbLine
 10
47.99595
 20
312.7634
 30
0.0
 11
48.74852323419379
 21
313.4970405742139
 31
0.0
  0
LINE
  5
36D
330
1E
100
AcDbEntity
  8
0
100
AcDbLine
 10
47.99595
 20
312.7634
 30
0.0
 11
48.0568616432868
 21
312.7008837296509
 31
0.0
  0
LINE
  5
36E
330
1E
100
AcDbEntity
  8
0
100
AcDbLine
 10
47.28965
 20
312.5464
 30
0.0
 11
47.8413731851636
 21
313.0842836294139
 31
0.0
  0
LINE
  5
36F
330
1E
100
AcDbEntity
  8
0
100
AcDbLine
 10
47.08025
 20
312.7613999999999
 30
0.0
 11
47.28965
 21
312.5464
 31
0.0
  0
LINE
  5
370
330
1E
100
AcDbEntity
  8
0
100
AcDbLine
 10
47.08025
 20
312.7613999999999
 30
0.0
 11
47.62499067836429
 21
313.292476273478
 31
0.0
  0
LINE
  5
371
330
1E
100
AcDbEntity
  8
0
100
AcDbLine
 10
46.0912193059881
 20
313.776293870735
 30
0.0
 11
46.28085
 21
313.5813999999999
 31
0.0
  0
LINE
  5
372
330
1E
100
AcDbEntity
  8
0
100
AcDbLine
 10
46.0912193059881
 20
313.776293870735
 30
0.0
 11
46.28085
 21
313.5813999999999
 31
0.0
  0
LINE
  5
373
330
1E
100
AcDbEntity
  8
0
100
AcDbLine
 10
46.28085
 20
313.5813999999999
 30
0.0
 11
46.51592340957449
 21
313.810576772195
 31
0.0
  0
LINE
  5
374
330
1E
100
AcDbEntity
  8
0
100
AcDbLine
 10
45.91695
 20
313.9553999999999
 30
0.0
 11
46.28085
 21
313.5813999999999
 31
0.0
  0
LINE
  5
375
330
1E
100
AcDbEntity
  8
0
100
AcDbLine
 10
45.91695
 20
313.9553999999999
 30
0.0
 11
46.15163214700159
 21
314.18401959809
 31
0.0
  0
LINE
  5
376
330
1E
100
AcDbEntity
  8
0
100
AcDbLine
 10
45.16143418730679
 20
314.730204886327
 30
0.0
 11
45.38615
 21
314.4994
 31
0.0
  0
LINE
  5
377
330
1E
100
AcDbEntity
  8
0
100
AcDbLine
 10
45.16143418730679
 20
314.730204886327
 30
0.0
 11
45.38615
 21
314.4994
 31
0.0
  0
LINE
  5
378
330
1E
100
AcDbEntity
  8
0
100
AcDbLine
 10
45.31114999999999
 20
315.5174
 30
0.0
 11
46.0521902597971
 21
316.2398518294689
 31
0.0
  0
LINE
  5
379
330
1E
100
AcDbEntity
  8
0
100
AcDbLine
 10
44.99265
 20
315.8444
 30
0.0
 11
45.31114999999999
 21
315.5174
 31
0.0
  0
LINE
  5
37A
330
1E
100
AcDbEntity
  8
0
100
AcDbLine
 10
44.99265
 20
315.8444
 30
0.0
 11
45.7170554456416
 21
316.5505814092729
 31
0.0
  0
LINE
  5
37B
330
1E
100
AcDbEntity
  8
0
100
AcDbLine
 10
44.96905
 20
314.9273999999999
 30
0.0
 11
45.1614341873069
 21
314.730204886327
 31
0.0
  0
LINE
  5
37C
330
1E
100
AcDbEntity
  8
0
100
AcDbLine
 10
44.96905
 20
314.9273999999999
 30
0.0
 11
45.4967464412079
 21
315.441859578025
 31
0.0
  0
LINE
  5
37D
330
1E
100
AcDbEntity
  8
0
100
AcDbLine
 10
44.96905
 20
314.9273999999999
 30
0.0
 11
45.16143418730679
 21
314.730204886327
 31
0.0
  0
LINE
  5
37E
330
1E
100
AcDbEntity
  8
0
100
AcDbLine
 10
44.96905
 20
314.9273999999999
 30
0.0
 11
45.4270001870294
 21
315.373862855494
 31
0.0
  0
LINE
  5
37F
330
1E
100
AcDbEntity
  8
0
100
AcDbLine
 10
44.99864999999999
 20
314.8973999999999
 30
0.0
 11
45.38615
 21
314.4994
 31
0.0
  0
LINE
  5
380
330
1E
100
AcDbEntity
  8
0
100
AcDbLine
 10
44.99864999999999
 20
314.8973999999999
 30
0.0
 11
45.52744965516479
 21
315.412539162388
 31
0.0
  0
LINE
  5
381
330
1E
100
AcDbEntity
  8
0
100
AcDbLine
 10
46.08005
 20
314.2574
 30
0.0
 11
46.57365
 21
313.7513999999999
 31
0.0
  0
LINE
  5
382
330
1E
100
AcDbEntity
  8
0
100
AcDbLine
 10
46.08005
 20
314.2574
 30
0.0
 11
46.6416127265147
 21
314.8049688338309
 31
0.0
  0
LINE
  5
383
330
1E
100
AcDbEntity
  8
0
100
AcDbLine
 10
45.5861500000051
 20
314.294426375277
 30
0.0
 11
45.86375
 21
314.0094
 31
0.0
  0
LINE
  5
384
330
1E
100
AcDbEntity
  8
0
100
AcDbLine
 10
45.38915
 20
314.9664
 30
0.0
 11
45.58655
 21
314.7644
 31
0.0
  0
LINE
  5
385
330
1E
100
AcDbEntity
  8
0
100
AcDbLine
 10
45.38915
 20
314.9664
 30
0.0
 11
45.8935659465437
 21
315.4582829354489
 31
0.0
  0
LINE
  5
386
330
1E
100
AcDbEntity
  8
0
100
AcDbLine
 10
45.58655
 20
314.7644
 30
0.0
 11
46.08005
 21
314.2574
 31
0.0
  0
LINE
  5
387
330
1E
100
AcDbEntity
  8
0
100
AcDbLine
 10
45.58655
 20
314.7644
 30
0.0
 11
46.1071889216567
 21
315.271713183653
 31
0.0
  0
LINE
  5
388
330
1E
100
AcDbEntity
  8
0
100
AcDbLine
 10
45.5543722075908
 20
315.7545211638209
 30
0.0
 11
45.8935659465437
 21
315.4582829354489
 31
0.0
  0
LINE
  5
389
330
1E
100
AcDbEntity
  8
0
100
AcDbLine
 10
45.58615000000499
 20
314.294426375277
 30
0.0
 11
45.86375
 21
314.0094
 31
0.0
  0
LINE
  5
38A
330
1E
100
AcDbEntity
  8
0
100
AcDbLine
 10
45.38615
 20
314.4994
 30
0.0
 11
45.91695
 21
313.9553999999999
 31
0.0
  0
LINE
  5
38B
330
1E
100
AcDbEntity
  8
0
100
AcDbLine
 10
45.38615
 20
314.4994
 30
0.0
 11
45.6213325219359
 21
314.728665980504
 31
0.0
  0
LINE
  5
38C
330
1E
100
AcDbEntity
  8
0
100
AcDbLine
 10
45.38615
 20
314.4994
 30
0.0
 11
45.5861500000051
 21
314.294426375277
 31
0.0
  0
LINE
  5
38D
330
1E
100
AcDbEntity
  8
0
100
AcDbLine
 10
45.38615
 20
314.4994
 30
0.0
 11
45.58615000000499
 21
314.294426375277
 31
0.0
  0
LINE
  5
38E
330
1E
100
AcDbEntity
  8
0
100
AcDbLine
 10
45.86375
 20
314.0094
 30
0.0
 11
46.0912193059881
 21
313.776293870735
 31
0.0
  0
LINE
  5
38F
330
1E
100
AcDbEntity
  8
0
100
AcDbLine
 10
45.86375
 20
314.0094
 30
0.0
 11
46.0912193059881
 21
313.776293870735
 31
0.0
  0
LINE
  5
390
330
1E
100
AcDbEntity
  8
0
100
AcDbLine
 10
46.77114999999999
 20
313.5484
 30
0.0
 11
47.38972067540789
 21
314.1516013097269
 31
0.0
  0
LINE
  5
391
330
1E
100
AcDbEntity
  8
0
100
AcDbLine
 10
47.1759586093013
 20
314.3382925380259
 30
0.0
 11
48.294194869938
 21
313.361669768468
 31
0.0
  0
LINE
  5
392
330
1E
100
AcDbEntity
  8
0
100
AcDbLine
 10
46.57365
 20
313.7513999999999
 30
0.0
 11
46.77114999999999
 21
313.5484
 31
0.0
  0
LINE
  5
393
330
1E
100
AcDbEntity
  8
0
100
AcDbLine
 10
46.57365
 20
313.7513999999999
 30
0.0
 11
47.1759586093013
 21
314.3382925380259
 31
0.0
  0
LINE
  5
394
330
1E
100
AcDbEntity
  8
0
100
AcDbLine
 10
46.2810117018407
 20
313.5815576456729
 30
0.0
 11
46.59165
 21
313.2624
 31
0.0
  0
LINE
  5
395
330
1E
100
AcDbEntity
  8
0
100
AcDbLine
 10
46.59165
 20
313.2624
 30
0.0
 11
47.08025
 21
312.7613999999999
 31
0.0
  0
LINE
  5
396
330
1E
100
AcDbEntity
  8
0
100
AcDbLine
 10
46.59165
 20
313.2624
 30
0.0
 11
47.12044232547889
 21
313.777927972874
 31
0.0
  0
LINE
  5
398
330
1E
100
AcDbEntity
  8
0
100
AcDbLine
 10
63.10305
 20
312.1313999999999
 30
0.0
 11
68.68705
 21
306.4023999999999
 31
0.0
  0
LINE
  5
399
330
1E
100
AcDbEntity
  8
0
100
AcDbLine
 10
62.35195
 20
313.2384
 30
0.0
 11
64.02214999999999
 21
311.5264
 31
0.0
  0
LINE
  5
39A
330
1E
100
AcDbEntity
  8
0
100
AcDbLine
 10
60.57145
 20
315.0654
 30
0.0
 11
62.35195
 21
313.2384
 31
0.0
  0
LINE
  5
39B
330
1E
100
AcDbEntity
  8
0
100
AcDbLine
 10
64.02214999999999
 20
311.5264
 30
0.0
 11
65.37815000000001
 21
310.1363999999999
 31
0.0
  0
LINE
  5
39C
330
1E
100
AcDbEntity
  8
0
100
AcDbLine
 10
107.55535
 20
244.2633999999999
 30
0.0
 11
110.80155
 21
235.3914
 31
0.0
  0
LINE
  5
39D
330
1E
100
AcDbEntity
  8
0
100
AcDbLine
 10
110.80155
 20
235.3914
 30
0.0
 11
116.92335
 21
217.9183999999999
 31
0.0
  0
LINE
  5
39E
330
1E
100
AcDbEntity
  8
0
100
AcDbLine
 10
116.92335
 20
217.9183999999999
 30
0.0
 11
122.6932499999999
 21
200.9063999999999
 31
0.0
  0
LINE
  5
3A2
330
1E
100
AcDbEntity
  8
0
100
AcDbLine
 10
101.49415
 20
259.9474
 30
0.0
 11
107.55535
 21
244.2633999999999
 31
0.0
  0
LINE
  5
3A4
330
1E
100
AcDbEntity
  8
0
100
AcDbLine
 10
122.6932499999999
 20
200.9063999999999
 30
0.0
 11
128.220533
 21
184.6654
 31
0.0
  0
LINE
  5
3A9
330
1E
100
AcDbEntity
  8
0
100
AcDbLine
 10
94.88644999999999
 20
275.6504
 30
0.0
 11
101.49415
 21
259.9474
 31
0.0
  0
LINE
  5
3AA
330
1E
100
AcDbEntity
  8
0
100
AcDbLine
 10
91.55445
 20
282.8464
 30
0.0
 11
94.88644999999999
 21
275.6504
 31
0.0
  0
LINE
  5
3AB
330
1E
100
AcDbEntity
  8
0
100
AcDbLine
 10
89.61555
 20
286.5624
 30
0.0
 11
91.55445
 21
282.8464
 31
0.0
  0
LINE
  5
3B9
330
1E
100
AcDbEntity
  8
0
100
AcDbLine
 10
112.94025
 20
285.3114
 30
0.0
 11
117.18085
 21
277.9414
 31
0.0
  0
LINE
  5
3BA
330
1E
100
AcDbEntity
  8
0
100
AcDbLine
 10
117.18085
 20
277.9414
 30
0.0
 11
121.2535499999999
 21
270.4904
 31
0.0
  0
LINE
  5
3BB
330
1E
100
AcDbEntity
  8
0
100
AcDbLine
 10
121.2535499999999
 20
270.4904
 30
0.0
 11
125.15416
 21
262.9664
 31
0.0
  0
LINE
  5
3BE
330
1E
100
AcDbEntity
  8
0
100
AcDbLine
 10
86.34375
 20
291.8874
 30
0.0
 11
88.03594999999999
 21
289.2844
 31
0.0
  0
LINE
  5
3BF
330
1E
100
AcDbEntity
  8
0
100
AcDbLine
 10
84.39764999999999
 20
294.4834
 30
0.0
 11
86.34375
 21
291.8874
 31
0.0
  0
LINE
  5
3C0
330
1E
100
AcDbEntity
  8
0
100
AcDbLine
 10
83.70874999999999
 20
295.2504
 30
0.0
 11
84.39764999999999
 21
294.4834
 31
0.0
  0
LINE
  5
3C1
330
1E
100
AcDbEntity
  8
0
100
AcDbLine
 10
68.68705
 20
306.4023999999999
 30
0.0
 11
72.10725
 21
302.8934
 31
0.0
  0
LINE
  5
3C2
330
1E
100
AcDbEntity
  8
0
100
AcDbLine
 10
66.95855
 20
298.1543999999999
 30
0.0
 11
69.67555
 21
298.7083999999999
 31
0.0
  0
LINE
  5
3C3
330
1E
100
AcDbEntity
  8
0
100
AcDbLine
 10
71.69374999999999
 20
299.9774
 30
0.0
 11
73.36365
 21
301.6043999999999
 31
0.0
  0
LINE
  5
3C4
330
1E
100
AcDbEntity
  8
0
100
AcDbLine
 10
69.67555
 20
298.7083999999999
 30
0.0
 11
71.69374999999999
 21
299.9774
 31
0.0
  0
LINE
  5
3C5
330
1E
100
AcDbEntity
  8
0
100
AcDbLine
 10
73.54994999999999
 20
301.7404
 30
0.0
 11
73.62115
 21
301.6634
 31
0.0
  0
LINE
  5
3C6
330
1E
100
AcDbEntity
  8
0
100
AcDbLine
 10
80.41695
 20
298.5113999999999
 30
0.0
 11
82.31574999999999
 21
296.8004
 31
0.0
  0
LINE
  5
3C7
330
1E
100
AcDbEntity
  8
0
100
AcDbLine
 10
77.81314999999999
 20
300.3894
 30
0.0
 11
78.41875
 21
299.9103999999999
 31
0.0
  0
LINE
  5
3C8
330
1E
100
AcDbEntity
  8
0
100
AcDbLine
 10
77.81314999999999
 20
300.3894
 30
0.0
 11
78.41944999999999
 21
299.9093999999999
 31
0.0
  0
LINE
  5
3C9
330
1E
100
AcDbEntity
  8
0
100
AcDbLine
 10
73.77885
 20
301.6144
 30
0.0
 11
76.15145
 21
301.0094
 31
0.0
  0
LINE
  5
3CA
330
1E
100
AcDbEntity
  8
0
100
AcDbLine
 10
76.15215
 20
301.0094
 30
0.0
 11
78.41875
 21
299.9103999999999
 31
0.0
  0
LINE
  5
3CB
330
1E
100
AcDbEntity
  8
0
100
AcDbLine
 10
78.41944999999999
 20
299.9093999999999
 30
0.0
 11
80.41695
 21
298.5113999999999
 31
0.0
  0
LINE
  5
3CC
330
1E
100
AcDbEntity
  8
0
100
AcDbLine
 10
73.62115
 20
301.6634
 30
0.0
 11
73.77885
 21
301.6144
 31
0.0
  0
LINE
  5
3CD
330
1E
100
AcDbEntity
  8
0
100
AcDbLine
 10
72.10725
 20
302.8934
 30
0.0
 11
73.36365
 21
301.6043999999999
 31
0.0
  0
LINE
  5
3CE
330
1E
100
AcDbEntity
  8
0
100
AcDbLine
 10
69.83414999999999
 20
305.5654
 30
0.0
 11
71.44015
 21
303.9124
 31
0.0
  0
LINE
  5
3CF
330
1E
100
AcDbEntity
  8
0
100
AcDbLine
 10
71.44015
 20
303.9124
 30
0.0
 11
72.24264999999999
 21
303.1994
 31
0.0
  0
LINE
  5
3D0
330
1E
100
AcDbEntity
  8
0
100
AcDbLine
 10
72.24264999999999
 20
303.1994
 30
0.0
 11
72.88955
 21
302.4793999999999
 31
0.0
  0
LINE
  5
3D1
330
1E
100
AcDbEntity
  8
0
100
AcDbLine
 10
72.88955
 20
302.4793999999999
 30
0.0
 11
73.33305
 21
301.9773999999999
 31
0.0
  0
LINE
  5
3D2
330
1E
100
AcDbEntity
  8
0
100
AcDbLine
 10
73.16788012454141
 20
302.1643566572269
 30
0.0
 11
73.33305
 21
301.9773999999999
 31
0.0
  0
LINE
  5
3D3
330
1E
100
AcDbEntity
  8
0
100
AcDbLine
 10
73.16788012454141
 20
302.1643566572269
 30
0.0
 11
73.36365
 21
301.6043999999999
 31
0.0
  0
LINE
  5
3D4
330
1E
100
AcDbEntity
  8
0
100
AcDbLine
 10
73.33305
 20
301.9773999999999
 30
0.0
 11
73.54994999999999
 21
301.7404
 31
0.0
  0
LINE
  5
3D5
330
1E
100
AcDbEntity
  8
0
100
AcDbLine
 10
68.87345
 20
306.5514
 30
0.0
 11
69.83414999999999
 21
305.5654
 31
0.0
  0
LINE
  5
3D6
330
1E
100
AcDbEntity
  8
0
100
AcDbLine
 10
82.31574999999999
 20
296.8004
 30
0.0
 11
83.70874999999999
 21
295.2504
 31
0.0
  0
LINE
  5
3E3
330
1E
100
AcDbEntity
  8
0
100
AcDbLine
 10
108.7109499999999
 20
292.2953999999999
 30
0.0
 11
112.94025
 21
285.3114
 31
0.0
  0
LINE
  5
3E4
330
1E
100
AcDbEntity
  8
0
100
AcDbLine
 10
108.7109499999999
 20
292.2953999999999
 30
0.0
 11
112.9395499999999
 21
285.3124
 31
0.0
  0
LINE
  5
3E5
330
1E
100
AcDbEntity
  8
0
100
AcDbLine
 10
104.47005
 20
298.9214
 30
0.0
 11
106.5687499999999
 21
295.6494
 31
0.0
  0
LINE
  5
3E6
330
1E
100
AcDbEntity
  8
0
100
AcDbLine
 10
106.5687499999999
 20
295.6494
 30
0.0
 11
108.7109499999999
 21
292.2953999999999
 31
0.0
  0
LINE
  5
3E9
330
1E
100
AcDbEntity
  8
0
100
AcDbLine
 10
100.29805
 20
305.0823999999999
 30
0.0
 11
104.47005
 21
298.9214
 31
0.0
  0
LINE
  5
3EF
330
1E
100
AcDbEntity
  8
0
100
AcDbLine
 10
88.03594999999999
 20
289.2844
 30
0.0
 11
89.61555
 21
286.5624
 31
0.0
  0
LINE
  5
3F0
330
1E
100
AcDbEntity
  8
0
100
AcDbLine
 10
138.0643999999999
 20
156.4164
 30
0.0
 11
138.45301
 21
156.5114
 31
0.0
  0
LINE
  5
3F1
330
1E
100
AcDbEntity
  8
0
100
AcDbLine
 10
138.45301
 20
156.5114
 30
0.0
 11
139.3274499999999
 21
156.7244
 31
0.0
  0
LINE
  5
3F2
330
1E
100
AcDbEntity
  8
0
100
AcDbLine
 10
139.3274499999999
 20
156.7244
 30
0.0
 11
139.518502103173
 21
156.770980088197
 31
0.0
  0
LINE
  5
3F3
330
1E
100
AcDbEntity
  8
0
100
AcDbLine
 10
150.2022499999999
 20
0.315099999999977
 30
0.0
 11
153.2676499999999
 21
0.227699999999976
 31
0.0
  0
LINE
  5
3F4
330
1E
100
AcDbEntity
  8
0
100
AcDbLine
 10
147.7324499999999
 20
0.38559999999997
 30
0.0
 11
150.2022499999999
 21
0.315099999999977
 31
0.0
  0
LINE
  5
3F5
330
1E
100
AcDbEntity
  8
0
100
AcDbLine
 10
146.00995
 20
0.4348999999999731
 30
0.0
 11
147.7324499999999
 21
0.38559999999997
 31
0.0
  0
LINE
  5
3F6
330
1E
100
AcDbEntity
  8
0
100
AcDbLine
 10
146.1740499999999
 20
0.4301999999999611
 30
0.0
 11
146.2252305024869
 21
0.428738415806882
 31
0.0
  0
LINE
  5
3F7
330
1E
100
AcDbEntity
  8
0
100
AcDbLine
 10
145.48435
 20
0.4497999999999651
 30
0.0
 11
146.1740499999999
 21
0.4301999999999611
 31
0.0
  0
LINE
  5
3F8
330
1E
100
AcDbEntity
  8
0
100
AcDbLine
 10
145.48435
 20
0.4497999999999651
 30
0.0
 11
147.74285
 21
81.7604
 31
0.0
  0
LINE
  5
3F9
330
1E
100
AcDbEntity
  8
0
100
AcDbLine
 10
145.48435
 20
0.4497999999999651
 30
0.0
 11
146.00995
 21
0.4348999999999731
 31
0.0
  0
LINE
  5
3FA
330
1E
100
AcDbEntity
  8
0
100
AcDbLine
 10
146.8442499999999
 20
113.4004
 30
0.0
 11
147.74285
 21
81.7604
 31
0.0
  0
LINE
  5
3FB
330
1E
100
AcDbEntity
  8
0
100
AcDbLine
 10
144.56575
 20
135.1714
 30
0.0
 11
146.8442499999999
 21
113.4004
 31
0.0
  0
LINE
  5
3FC
330
1E
100
AcDbEntity
  8
0
100
AcDbLine
 10
143.044687366089
 20
144.643923168513
 30
0.0
 11
144.56575
 21
135.1714
 31
0.0
  0
LINE
  5
3FD
330
1E
100
AcDbEntity
  8
0
100
AcDbLine
 10
148.178945789625
 20
140.2965349687369
 30
0.0
 11
149.70835
 21
140.5963999999999
 31
0.0
  0
LINE
  5
3FE
330
1E
100
AcDbEntity
  8
0
100
AcDbLine
 10
149.70835
 20
140.5963999999999
 30
0.0
 11
150.875590328983
 21
140.8576398536129
 31
0.0
  0
LINE
  5
3FF
330
1E
100
AcDbEntity
  8
0
100
AcDbLine
 10
151.4086499999999
 20
140.9713999999999
 30
0.0
 11
152.52445
 21
141.2184
 31
0.0
  0
LINE
  5
400
330
1E
100
AcDbEntity
  8
0
100
AcDbLine
 10
150.15285
 20
140.7033999999999
 30
0.0
 11
151.4086499999999
 21
140.9713999999999
 31
0.0
  0
LINE
  5
401
330
1E
100
AcDbEntity
  8
0
100
AcDbLine
 10
148.2179499999999
 20
140.3054
 30
0.0
 11
150.15285
 21
140.7033999999999
 31
0.0
  0
LINE
  5
402
330
1E
100
AcDbEntity
  8
0
100
AcDbLine
 10
146.9729499999999
 20
140.0184
 30
0.0
 11
147.527378546244
 21
140.1484441875939
 31
0.0
  0
LINE
  5
403
330
1E
100
AcDbEntity
  8
0
100
AcDbLine
 10
146.19405
 20
139.8454
 30
0.0
 11
148.2179499999999
 21
140.3054
 31
0.0
  0
LINE
  5
404
330
1E
100
AcDbEntity
  8
0
100
AcDbLine
 10
145.6349499999999
 20
139.7134
 30
0.0
 11
146.9729499999999
 21
140.0184
 31
0.0
  0
LINE
  5
405
330
1E
100
AcDbEntity
  8
0
100
AcDbLine
 10
144.5440499999999
 20
139.4874
 30
0.0
 11
146.19405
 21
139.8454
 31
0.0
  0
LINE
  5
406
330
1E
100
AcDbEntity
  8
0
100
AcDbLine
 10
144.5440499999999
 20
139.4874
 30
0.0
 11
145.6349499999999
 21
139.7134
 31
0.0
  0
LINE
  5
407
330
1E
100
AcDbEntity
  8
0
100
AcDbLine
 10
139.518502103173
 20
156.770980088197
 30
0.0
 11
143.044687366089
 21
144.643923168513
 31
0.0
  0
LINE
  5
408
330
1E
100
AcDbEntity
  8
0
100
AcDbLine
 10
139.518502103173
 20
156.770980088197
 30
0.0
 11
143.044687366089
 21
144.643923168513
 31
0.0
  0
LINE
  5
409
330
1E
100
AcDbEntity
  8
0
100
AcDbLine
 10
128.88728
 20
183.9384
 30
0.0
 11
129.069988
 21
183.9584
 31
0.0
  0
LINE
  5
40A
330
1E
100
AcDbEntity
  8
0
100
AcDbLine
 10
128.66862
 20
183.9824
 30
0.0
 11
128.88728
 21
183.9384
 31
0.0
  0
LINE
  5
40C
330
1E
100
AcDbEntity
  8
0
100
AcDbLine
 10
128.220533
 20
184.6654
 30
0.0
 11
128.372649
 21
184.2844
 31
0.0
  0
LINE
  5
40E
330
1E
100
AcDbEntity
  8
0
100
AcDbLine
 10
129.7997612202369
 20
184.2125863677579
 30
0.0
 11
138.0643999999999
 21
156.4164
 31
0.0
  0
LINE
  5
40F
330
1E
100
AcDbEntity
  8
0
100
AcDbLine
 10
128.3788769999999
 20
184.2734
 30
0.0
 11
128.46902
 21
184.1344
 31
0.0
  0
LINE
  5
410
330
1E
100
AcDbEntity
  8
0
100
AcDbLine
 10
129.8222179999999
 20
184.2204
 30
0.0
 11
130.4451899999999
 21
184.4374
 31
0.0
  0
LINE
  5
411
330
1E
100
AcDbEntity
  8
0
100
AcDbLine
 10
133.3794799999999
 20
186.4734
 30
0.0
 11
135.63005
 21
186.9833999999999
 31
0.0
  0
LINE
  5
412
330
1E
100
AcDbEntity
  8
0
100
AcDbLine
 10
133.07145
 20
186.3684
 30
0.0
 11
134.6189899999999
 21
186.7314
 31
0.0
  0
LINE
  5
416
330
1E
100
AcDbEntity
  8
0
100
AcDbLine
 10
135.63005
 20
186.9833999999999
 30
0.0
 11
135.9325074320629
 21
187.044002107307
 31
0.0
  0
LINE
  5
419
330
1E
100
AcDbEntity
  8
0
100
AcDbLine
 10
136.62749
 20
187.2093999999999
 30
0.0
 11
181.0491499999999
 21
197.4803999999999
 31
0.0
  0
LINE
  5
41B
330
1E
100
AcDbEntity
  8
0
100
AcDbLine
 10
134.6189899999999
 20
186.7314
 30
0.0
 11
135.63005
 21
186.9833999999999
 31
0.0
  0
LINE
  5
41C
330
1E
100
AcDbEntity
  8
0
100
AcDbLine
 10
134.6189899999999
 20
186.7314
 30
0.0
 11
136.62749
 21
187.2093999999999
 31
0.0
  0
LINE
  5
41E
330
1E
100
AcDbEntity
  8
0
100
AcDbLine
 10
132.371830558945
 20
186.205804806685
 30
0.0
 11
133.3794799999999
 21
186.4734
 31
0.0
  0
LINE
  5
41F
330
1E
100
AcDbEntity
  8
0
100
AcDbLine
 10
131.0491199999999
 20
185.8984
 30
0.0
 11
133.07145
 21
186.3684
 31
0.0
  0
LINE
  5
420
330
1E
100
AcDbEntity
  8
0
100
AcDbLine
 10
131.0491199999999
 20
185.8984
 30
0.0
 11
144.5440499999999
 21
139.4874
 31
0.0
  0
LINE
  5
421
330
1E
100
AcDbEntity
  8
0
100
AcDbLine
 10
130.4451899999999
 20
184.4374
 30
0.0
 11
131.2485399999999
 21
184.7153999999999
 31
0.0
  0
LINE
  5
426
330
1E
100
AcDbEntity
  8
0
100
AcDbLine
 10
150.1087499999999
 20
190.5834
 30
0.0
 11
151.0047499999999
 21
190.5853999999999
 31
0.0
  0
LINE
  5
427
330
1E
100
AcDbEntity
  8
0
100
AcDbLine
 10
149.79525
 20
190.4524
 30
0.0
 11
150.1087499999999
 21
190.5834
 31
0.0
  0
LINE
  5
428
330
1E
100
AcDbEntity
  8
0
100
AcDbLine
 10
148.84785
 20
190.0853999999999
 30
0.0
 11
149.79525
 21
190.4524
 31
0.0
  0
LINE
  5
429
330
1E
100
AcDbEntity
  8
0
100
AcDbLine
 10
148.4438659744429
 20
189.9282591627299
 30
0.0
 11
148.84785
 21
190.0853999999999
 31
0.0
  0
LINE
  5
42A
330
1E
100
AcDbEntity
  8
0
100
AcDbLine
 10
148.57765
 20
190.7394
 30
0.0
 11
148.8074499999999
 21
190.8523999999999
 31
0.0
  0
LINE
  5
42B
330
1E
100
AcDbEntity
  8
0
100
AcDbLine
 10
148.39495
 20
190.6684
 30
0.0
 11
148.57765
 21
190.7394
 31
0.0
  0
LINE
  5
435
330
1E
100
AcDbEntity
  8
0
100
AcDbLine
 10
132.43598
 20
247.7244
 30
0.0
 11
132.59676
 21
247.3574
 31
0.0
  0
LINE
  5
436
330
1E
100
AcDbEntity
  8
0
100
AcDbLine
 10
132.59676
 20
247.3574
 30
0.0
 11
135.8166399999999
 21
240.0193999999999
 31
0.0
  0
LINE
  5
438
330
1E
100
AcDbEntity
  8
0
100
AcDbLine
 10
141.90075
 20
224.8483999999999
 30
0.0
 11
142.04445
 21
224.4774
 31
0.0
  0
LINE
  5
43C
330
1E
100
AcDbEntity
  8
0
100
AcDbLine
 10
135.8166399999999
 20
240.0193999999999
 30
0.0
 11
139.01855
 21
232.2693999999999
 31
0.0
  0
LINE
  5
43D
330
1E
100
AcDbEntity
  8
0
100
AcDbLine
 10
139.01855
 20
232.2693999999999
 30
0.0
 11
141.90075
 21
224.8483999999999
 31
0.0
  0
LINE
  5
43F
330
1E
100
AcDbEntity
  8
0
100
AcDbLine
 10
144.89105
 20
216.6513999999999
 30
0.0
 11
147.4309499999999
 21
209.1733999999999
 31
0.0
  0
LINE
  5
440
330
1E
100
AcDbEntity
  8
0
100
AcDbLine
 10
149.855969401256
 20
191.294997137821
 30
0.0
 11
150.108118884693
 21
190.5831362803659
 31
0.0
  0
LINE
  5
442
330
1E
100
AcDbEntity
  8
0
100
AcDbLine
 10
150.0609091901469
 20
191.38352142533
 30
0.0
 11
152.37995
 21
192.2233999999999
 31
0.0
  0
LINE
  5
443
330
1E
100
AcDbEntity
  8
0
100
AcDbLine
 10
150.04235
 20
200.9263999999999
 30
0.0
 11
152.34585
 21
193.0393999999999
 31
0.0
  0
LINE
  5
444
330
1E
100
AcDbEntity
  8
0
100
AcDbLine
 10
147.5577499999999
 20
208.7994
 30
0.0
 11
150.04235
 21
200.9263999999999
 31
0.0
  0
LINE
  5
445
330
1E
100
AcDbEntity
  8
0
100
AcDbLine
 10
147.4309499999999
 20
209.1733999999999
 30
0.0
 11
147.5577499999999
 21
208.7994
 31
0.0
  0
LINE
  5
446
330
1E
100
AcDbEntity
  8
0
100
AcDbLine
 10
142.18045
 20
224.1044
 30
0.0
 11
144.89105
 21
216.6513999999999
 31
0.0
  0
LINE
  5
447
330
1E
100
AcDbEntity
  8
0
100
AcDbLine
 10
142.04445
 20
224.4774
 30
0.0
 11
144.89105
 21
216.6513999999999
 31
0.0
  0
LINE
  5
448
330
1E
100
AcDbEntity
  8
0
100
AcDbLine
 10
142.04445
 20
224.4774
 30
0.0
 11
142.18045
 21
224.1044
 31
0.0
  0
LINE
  5
449
330
1E
100
AcDbEntity
  8
0
100
AcDbLine
 10
148.8074499999999
 20
190.8523999999999
 30
0.0
 11
150.0609091901469
 21
191.38352142533
 31
0.0
  0
LINE
  5
44A
330
1E
100
AcDbEntity
  8
0
100
AcDbLine
 10
150.893172546395
 20
190.495575434858
 30
0.0
 11
151.0047499999999
 21
190.5853999999999
 31
0.0
  0
LINE
  5
44C
330
1E
100
AcDbEntity
  8
0
100
AcDbLine
 10
150.893172546395
 20
190.495575434858
 30
0.0
 11
151.0047499999999
 21
190.5853999999999
 31
0.0
  0
LINE
  5
44D
330
1E
100
AcDbEntity
  8
0
100
AcDbLine
 10
150.6089499999999
 20
190.4353999999999
 30
0.0
 11
151.0047499999999
 21
190.5853999999999
 31
0.0
  0
LINE
  5
44F
330
1E
100
AcDbEntity
  8
0
100
AcDbLine
 10
145.91735
 20
189.8074
 30
0.0
 11
148.39495
 21
190.6684
 31
0.0
  0
LINE
  5
450
330
1E
100
AcDbEntity
  8
0
100
AcDbLine
 10
128.372649
 20
184.2844
 30
0.0
 11
128.46902
 21
184.1344
 31
0.0
  0
LINE
  5
451
330
1E
100
AcDbEntity
  8
0
100
AcDbLine
 10
128.46902
 20
184.1344
 30
0.0
 11
128.653101
 21
183.9854
 31
0.0
  0
LINE
  5
452
330
1E
100
AcDbEntity
  8
0
100
AcDbLine
 10
128.46902
 20
184.1344
 30
0.0
 11
128.6405
 21
183.9953999999999
 31
0.0
  0
LINE
  5
453
330
1E
100
AcDbEntity
  8
0
100
AcDbLine
 10
152.3357290369849
 20
0.254270722309462
 30
0.0
 11
153.6790499999999
 21
0.2158999999999779
 31
0.0
  0
LINE
  5
454
330
1E
100
AcDbEntity
  8
0
100
AcDbLine
 10
152.15055
 20
192.1433999999999
 30
0.0
 11
152.37995
 21
192.2233999999999
 31
0.0
  0
LINE
  5
455
330
1E
100
AcDbEntity
  8
0
100
AcDbLine
 10
152.37995
 20
192.2233999999999
 30
0.0
 11
152.4444499999999
 21
192.4564
 31
0.0
  0
LINE
  5
456
330
1E
100
AcDbEntity
  8
0
100
AcDbLine
 10
156.37645
 20
0.138899999999983
 30
0.0
 11
158.93515
 21
0.06579999999997
 31
0.0
  0
LINE
  5
457
330
1E
100
AcDbEntity
  8
0
100
AcDbLine
 10
158.93515
 20
0.06579999999997
 30
0.0
 11
160.7735499999999
 21
0.0132999999999751
 31
0.0
  0
LINE
  5
458
330
1E
100
AcDbEntity
  8
0
100
AcDbLine
 10
156.74365
 20
0.128399999999969
 30
0.0
 11
157.1115172186449
 21
0.117899721075937
 31
0.0
  0
LINE
  5
459
330
1E
100
AcDbEntity
  8
0
100
AcDbLine
 10
153.2676499999999
 20
0.227699999999976
 30
0.0
 11
156.37645
 21
0.138899999999983
 31
0.0
  0
LINE
  5
45A
330
1E
100
AcDbEntity
  8
0
100
AcDbLine
 10
153.6790499999999
 20
0.2158999999999779
 30
0.0
 11
156.74365
 21
0.128399999999969
 31
0.0
  0
LINE
  5
45B
330
1E
100
AcDbEntity
  8
0
100
AcDbLine
 10
160.7735499999999
 20
0.0132999999999751
 30
0.0
 11
161.4632499999999
 21
-0.0064000000000266
 31
0.0
  0
LINE
  5
45C
330
1E
100
AcDbEntity
  8
0
100
AcDbLine
 10
159.7166499999999
 20
140.2463999999999
 30
0.0
 11
162.71895
 21
115.7514
 31
0.0
  0
LINE
  5
45D
330
1E
100
AcDbEntity
  8
0
100
AcDbLine
 10
159.298509803768
 20
142.6875829937569
 30
0.0
 11
159.7166499999999
 21
140.2463999999999
 31
0.0
  0
LINE
  5
45E
330
1E
100
AcDbEntity
  8
0
100
AcDbLine
 10
158.7727499999999
 20
142.5734
 30
0.0
 11
161.20855
 21
143.1023999999999
 31
0.0
  0
LINE
  5
45F
330
1E
100
AcDbEntity
  8
0
100
AcDbLine
 10
155.9411499999999
 20
141.9593999999999
 30
0.0
 11
158.7727499999999
 21
142.5734
 31
0.0
  0
LINE
  5
460
330
1E
100
AcDbEntity
  8
0
100
AcDbLine
 10
155.567367836037
 20
141.886408830567
 30
0.0
 11
155.9411499999999
 21
141.9593999999999
 31
0.0
  0
LINE
  5
461
330
1E
100
AcDbEntity
  8
0
100
AcDbLine
 10
152.52445
 20
141.2184
 30
0.0
 11
181.0491499999999
 21
147.4803999999999
 31
0.0
  0
LINE
  5
462
330
1E
100
AcDbEntity
  8
0
100
AcDbLine
 10
161.4632499999999
 20
-0.0064000000000266
 30
0.0
 11
163.7364499999999
 21
81.30740000000001
 31
0.0
  0
LINE
  5
463
330
1E
100
AcDbEntity
  8
0
100
AcDbLine
 10
162.71895
 20
115.7514
 30
0.0
 11
163.7364499999999
 21
81.30740000000001
 31
0.0
  0
LINE
  5
464
330
1E
100
AcDbEntity
  8
0
100
AcDbLine
 10
164.1577499999999
 20
143.7413999999999
 30
0.0
 11
164.59915
 21
143.8384
 31
0.0
  0
LINE
  5
465
330
1E
100
AcDbEntity
  8
0
100
AcDbLine
 10
163.0695499999999
 20
143.5054
 30
0.0
 11
164.1577499999999
 21
143.7413999999999
 31
0.0
  0
LINE
  5
466
330
1E
100
AcDbEntity
  8
0
100
AcDbLine
 10
161.20855
 20
143.1023999999999
 30
0.0
 11
163.0695499999999
 21
143.5054
 31
0.0
  0
LINE
  5
467
330
1E
100
AcDbEntity
  8
0
100
AcDbLine
 10
181.0491499999999
 20
147.4803999999999
 30
0.0
 11
181.0491499999999
 21
197.4803999999999
 31
0.0
  0
LINE
  5
468
330
1E
100
AcDbEntity
  8
0
100
AcDbLine
 10
152.43685
 20
192.6374
 30
0.0
 11
152.4444499999999
 21
192.4564
 31
0.0
  0
LINE
  5
469
330
1E
100
AcDbEntity
  8
0
100
AcDbLine
 10
181.0491499999999
 20
197.4803999999999
 30
0.0
 11
181.0491499999999
 21
147.4803999999999
 31
0.0
  0
LINE
  5
46A
330
1E
100
AcDbEntity
  8
0
100
AcDbLine
 10
152.34585
 20
193.0393999999999
 30
0.0
 11
152.43685
 21
192.6374
 31
0.0
  0
LINE
  5
46B
330
1E
100
AcDbEntity
  8
0
100
AcDbLine
 10
151.4984499999999
 20
191.9153999999999
 30
0.0
 11
152.15055
 21
192.1433999999999
 31
0.0
  0
LINE
  5
46C
330
1E
100
AcDbEntity
  8
0
100
AcDbLine
 10
125.15416
 20
262.9664
 30
0.0
 11
128.8820779999999
 21
255.3744
 31
0.0
  0
LINE
  5
46D
330
1E
100
AcDbEntity
  8
0
100
AcDbLine
 10
128.8820779999999
 20
255.3744
 30
0.0
 11
132.43598
 21
247.7244
 31
0.0
  0
LINE
  5
46E
330
1E
100
AcDbEntity
  8
0
100
AcDbLine
 10
124.96852
 20
263.3244
 30
0.0
 11
125.15416
 21
262.9664
 31
0.0
  0
LINE
  5
470
330
1E
100
AcDbEntity
  8
0
100
AcDbLine
 10
66.64194999999999
 20
308.8384
 30
0.0
 11
67.80825
 21
307.6424
 31
0.0
  0
LINE
  5
481
330
1E
100
AcDbEntity
  8
0
100
AcDbLine
 10
94.31725
 20
313.2913999999999
 30
0.0
 11
96.27355000000001
 21
310.7124
 31
0.0
  0
LINE
  5
484
330
1E
100
AcDbEntity
  8
0
100
AcDbLine
 10
96.27425
 20
310.7124
 30
0.0
 11
100.29805
 21
305.0823999999999
 31
0.0
  0
LINE
  5
485
330
1E
100
AcDbEntity
  8
0
100
AcDbLine
 10
96.27355000000001
 20
310.7124
 30
0.0
 11
100.29805
 21
305.0823999999999
 31
0.0
  0
LINE
  5
486
330
1E
100
AcDbEntity
  8
0
100
AcDbLine
 10
67.80825
 20
307.6424
 30
0.0
 11
68.87345
 21
306.5514
 31
0.0
  0
LINE
  5
487
330
1E
100
AcDbEntity
  8
0
100
AcDbLine
 10
44.46485
 20
316.3863999999999
 30
0.0
 11
44.99265
 21
315.8444
 31
0.0
  0
LINE
  5
488
330
1E
100
AcDbEntity
  8
0
100
AcDbLine
 10
44.46485
 20
316.3863999999999
 30
0.0
 11
45.15364114926829
 21
317.05739759281
 31
0.0
  0
LINE
  5
489
330
1E
100
AcDbEntity
  8
0
100
AcDbLine
 10
43.61707093891699
 20
316.7841276607089
 30
0.0
 11
43.76574999999999
 21
316.6313999999999
 31
0.0
  0
LINE
  5
48A
330
1E
100
AcDbEntity
  8
0
100
AcDbLine
 10
43.61707093891699
 20
316.7841276607089
 30
0.0
 11
43.76574999999999
 21
316.6313999999999
 31
0.0
  0
LINE
  5
48B
330
1E
100
AcDbEntity
  8
0
100
AcDbLine
 10
43.59435
 20
316.8073999999999
 30
0.0
 11
43.87455
 21
316.5204
 31
0.0
  0
LINE
  5
48C
330
1E
100
AcDbEntity
  8
0
100
AcDbLine
 10
43.59435
 20
316.8073999999999
 30
0.0
 11
44.1491680960287
 21
317.348432763902
 31
0.0
  0
LINE
  5
48D
330
1E
100
AcDbEntity
  8
0
100
AcDbLine
 10
43.97625
 20
316.8874
 30
0.0
 11
44.03925
 21
316.8224
 31
0.0
  0
LINE
  5
48E
330
1E
100
AcDbEntity
  8
0
100
AcDbLine
 10
43.97625
 20
316.8874
 30
0.0
 11
44.6319658378028
 21
317.526667705593
 31
0.0
  0
LINE
  5
48F
330
1E
100
AcDbEntity
  8
0
100
AcDbLine
 10
44.05520441206939
 20
316.696430567665
 30
0.0
 11
45.4270001870294
 21
315.373862855494
 31
0.0
  0
LINE
  5
490
330
1E
100
AcDbEntity
  8
0
100
AcDbLine
 10
44.29464999999999
 20
316.5604
 30
0.0
 11
44.667626769763
 21
316.1781676975909
 31
0.0
  0
LINE
  5
491
330
1E
100
AcDbEntity
  8
0
100
AcDbLine
 10
44.29464999999999
 20
316.5604
 30
0.0
 11
44.667626769763
 21
316.1781676975909
 31
0.0
  0
LINE
  5
492
330
1E
100
AcDbEntity
  8
0
100
AcDbLine
 10
44.1551674311913
 20
316.703650000001
 30
0.0
 11
44.29464999999999
 21
316.5604
 31
0.0
  0
LINE
  5
493
330
1E
100
AcDbEntity
  8
0
100
AcDbLine
 10
44.1551674311913
 20
316.703650000001
 30
0.0
 11
44.29464999999999
 21
316.5604
 31
0.0
  0
LINE
  5
494
330
1E
100
AcDbEntity
  8
0
100
AcDbLine
 10
44.03925
 20
316.8224
 30
0.0
 11
44.46485
 21
316.3863999999999
 31
0.0
  0
LINE
  5
495
330
1E
100
AcDbEntity
  8
0
100
AcDbLine
 10
44.03925
 20
316.8224
 30
0.0
 11
44.69940909136949
 21
317.465999503529
 31
0.0
  0
LINE
  5
496
330
1E
100
AcDbEntity
  8
0
100
AcDbLine
 10
43.87455
 20
316.5204
 30
0.0
 11
44.1100487695062
 21
316.749871185374
 31
0.0
  0
LINE
  5
497
330
1E
100
AcDbEntity
  8
0
100
AcDbLine
 10
43.76574999999999
 20
316.6313999999999
 30
0.0
 11
43.87455
 21
316.5204
 31
0.0
  0
LINE
  5
498
330
1E
100
AcDbEntity
  8
0
100
AcDbLine
 10
43.52974999999999
 20
316.4044
 30
0.0
 11
43.76430785832479
 21
316.63288141186
 31
0.0
  0
LINE
  5
499
330
1E
100
AcDbEntity
  8
0
100
AcDbLine
 10
43.37615
 20
316.5614
 30
0.0
 11
43.52974999999999
 21
316.4044
 31
0.0
  0
LINE
  5
49A
330
1E
100
AcDbEntity
  8
0
100
AcDbLine
 10
43.37615
 20
316.5614
 30
0.0
 11
43.61099347973939
 21
316.7903526099739
 31
0.0
  0
LINE
  5
4A1
330
1E
100
AcDbEntity
  8
0
100
AcDbLine
 10
43.45934999999999
 20
332.6194
 30
0.0
 11
45.78495
 21
330.2334
 31
0.0
  0
LINE
  5
4A4
330
1E
100
AcDbEntity
  8
0
100
AcDbLine
 10
52.52324999999999
 20
323.3204
 30
0.0
 11
56.71425
 21
319.0214
 31
0.0
  0
LINE
  5
4AF
330
1E
100
AcDbEntity
  8
0
100
AcDbLine
 10
48.07705
 20
327.8824
 30
0.0
 11
50.32725
 21
325.5733999999999
 31
0.0
  0
LINE
  5
4B2
330
1E
100
AcDbEntity
  8
0
100
AcDbLine
 10
49.71015
 20
359.9714
 30
0.0
 11
56.26725
 21
354.5154
 31
0.0
  0
LINE
  5
4B3
330
1E
100
AcDbEntity
  8
0
100
AcDbLine
 10
50.32725
 20
325.5733999999999
 30
0.0
 11
52.52324999999999
 21
323.3204
 31
0.0
  0
LINE
  5
4B4
330
1E
100
AcDbEntity
  8
0
100
AcDbLine
 10
55.84385000000001
 20
319.5783999999999
 30
0.0
 11
63.10305
 21
312.1313999999999
 31
0.0
  0
LINE
  5
4C6
330
1E
100
AcDbEntity
  8
0
100
AcDbLine
 10
73.53735
 20
337.8833999999999
 30
0.0
 11
78.95444999999999
 21
331.9904
 31
0.0
  0
LINE
  5
4D1
330
1E
100
AcDbEntity
  8
0
100
AcDbLine
 10
56.26725
 20
354.5154
 30
0.0
 11
62.22165
 21
349.1684
 31
0.0
  0
LINE
  5
4D2
330
1E
100
AcDbEntity
  8
0
100
AcDbLine
 10
62.22165
 20
349.1684
 30
0.0
 11
63.87755
 21
347.4873999999999
 31
0.0
  0
LINE
  5
4D3
330
1E
100
AcDbEntity
  8
0
100
AcDbLine
 10
63.87755
 20
347.4873999999999
 30
0.0
 11
67.97204999999999
 21
343.6204
 31
0.0
  0
LINE
  5
4D4
330
1E
100
AcDbEntity
  8
0
100
AcDbLine
 10
67.97204999999999
 20
343.6204
 30
0.0
 11
73.53735
 21
337.8833999999999
 31
0.0
  0
LINE
  5
4D6
330
1E
100
AcDbEntity
  8
0
100
AcDbLine
 10
56.71425
 20
319.0214
 30
0.0
 11
58.68925
 21
316.9954
 31
0.0
  0
LINE
  5
4D7
330
1E
100
AcDbEntity
  8
0
100
AcDbLine
 10
45.78495
 20
330.2334
 30
0.0
 11
48.07705
 21
327.8824
 31
0.0
  0
LINE
  5
4D8
330
1E
100
AcDbEntity
  8
0
100
AcDbLine
 10
58.68925
 20
316.9954
 30
0.0
 11
60.57145
 21
315.0654
 31
0.0
  0
LINE
  5
4DE
330
1E
100
AcDbEntity
  8
0
100
AcDbLine
 10
90.64854999999999
 20
318.0434
 30
0.0
 11
94.31725
 21
313.2913999999999
 31
0.0
  0
LINE
  5
4E0
330
1E
100
AcDbEntity
  8
0
100
AcDbLine
 10
83.88305
 20
326.3553999999999
 30
0.0
 11
88.88125
 21
320.3263999999999
 31
0.0
  0
LINE
  5
4E1
330
1E
100
AcDbEntity
  8
0
100
AcDbLine
 10
78.95444999999999
 20
331.9904
 30
0.0
 11
83.88305
 21
326.3553999999999
 31
0.0
  0
LINE
  5
4E4
330
1E
100
AcDbEntity
  8
0
100
AcDbLine
 10
88.88125
 20
320.3263999999999
 30
0.0
 11
90.40217705113519
 21
318.348369797003
 31
0.0
  0
LINE
  5
4E5
330
1E
100
AcDbEntity
  8
0
100
AcDbLine
 10
88.88125
 20
320.3263999999999
 30
0.0
 11
90.64854999999999
 21
318.0434
 31
0.0
  0
LINE
  5
4E6
330
1E
100
AcDbEntity
  8
0
100
AcDbLine
 10
88.88125
 20
320.3263999999999
 30
0.0
 11
90.40217705113519
 21
318.348369797003
 31
0.0
  0
ENDSEC
  0
SECTION
  2
OBJECTS
  0
DICTIONARY
  5
C
330
0
100
AcDbDictionary
281
     1
  3
ACAD_GROUP
350
D
  3
ACAD_LAYOUT
350
19
  3
ACAD_MLINESTYLE
350
16
  3
ACAD_PLOTSETTINGS
350
18
  3
ACAD_PLOTSTYLENAME
350
E
  3
AcDbVariableDictionary
350
4ED
  0
DICTIONARY
  5
D
102
{ACAD_REACTORS
330
C
102
}
330
C
100
AcDbDictionary
281
     1
  0
DICTIONARY
  5
19
102
{ACAD_REACTORS
330
C
102
}
330
C
100
AcDbDictionary
281
     1
  3
Layout1
350
1D
  3
Model
350
21
  0
DICTIONARY
  5
16
102
{ACAD_REACTORS
330
C
102
}
330
C
100
AcDbDictionary
281
     1
  3
Standard
350
17
  0
DICTIONARY
  5
18
102
{ACAD_REACTORS
330
C
102
}
330
C
100
AcDbDictionary
281
     1
  0
ACDBDICTIONARYWDFLT
  5
E
102
{ACAD_REACTORS
330
C
102
}
330
C
100
AcDbDictionary
281
     1
  3
Normal
350
F
100
AcDbDictionaryWithDefault
340
F
  0
DICTIONARY
  5
4ED
102
{ACAD_REACTORS
330
C
102
}
330
C
100
AcDbDictionary
281
     1
  3
DIMASSOC
350
4EE
  0
LAYOUT
  5
1D
102
{ACAD_REACTORS
330
19
102
}
330
19
100
AcDbPlotSettings
  1

  2
C:\Programme\AutoCAD LT 2002 Deu\plotters\DWF ePlot (optimized for plotting).pc3
  4

  6

 40
0.0
 41
0.0
 42
0.0
 43
0.0
 44
0.0
 45
0.0
 46
0.0
 47
0.0
 48
0.0
 49
0.0
140
0.0
141
0.0
142
1.0
143
1.0
 70
   688
 72
     0
 73
     0
 74
     5
  7

 75
    16
147
1.0
148
0.0
149
0.0
100
AcDbLayout
  1
Layout1
 70
     1
 71
     1
 10
0.0
 20
0.0
 11
12.0
 21
9.0
 12
0.0
 22
0.0
 32
0.0
 14
1.000000000000000E+20
 24
1.000000000000000E+20
 34
1.000000000000000E+20
 15
-1.000000000000000E+20
 25
-1.000000000000000E+20
 35
-1.000000000000000E+20
146
0.0
 13
0.0
 23
0.0
 33
0.0
 16
1.0
 26
0.0
 36
0.0
 17
0.0
 27
1.0
 37
0.0
 76
     0
330
1A
  0
LAYOUT
  5
21
102
{ACAD_REACTORS
330
19
102
}
330
19
100
AcDbPlotSettings
  1

  2
C:\Programme\AutoCAD LT 2002 Deu\plotters\DWF ePlot (optimized for plotting).pc3
  4

  6

 40
0.0
 41
0.0
 42
0.0
 43
0.0
 44
0.0
 45
0.0
 46
0.0
 47
0.0
 48
0.0
 49
0.0
140
0.0
141
0.0
142
1.0
143
1.0
 70
  1712
 72
     0
 73
     0
 74
     0
  7

 75
     0
147
1.0
148
0.0
149
0.0
100
AcDbLayout
  1
Model
 70
     1
 71
     0
 10
0.0
 20
0.0
 11
12.0
 21
9.0
 12
0.0
 22
0.0
 32
0.0
 14
0.0
 24
0.0
 34
0.0
 15
0.0
 25
0.0
 35
0.0
146
0.0
 13
0.0
 23
0.0
 33
0.0
 16
1.0
 26
0.0
 36
0.0
 17
0.0
 27
1.0
 37
0.0
 76
     0
330
1E
  0
MLINESTYLE
  5
17
102
{ACAD_REACTORS
330
16
102
}
330
16
100
AcDbMlineStyle
  2
STANDARD
 70
     0
  3

 62
   256
 51
90.0
 52
90.0
 71
     2
 49
0.5
 62
   256
  6
BYLAYER
 49
-0.5
 62
   256
  6
BYLAYER
  0
ACDBPLACEHOLDER
  5
F
102
{ACAD_REACTORS
330
E
102
}
330
E
  0
DICTIONARYVAR
  5
4EE
102
{ACAD_REACTORS
330
4ED
102
}
330
4ED
100
DictionaryVariables
280
     0
  1
1
  0
ENDSEC
  0
EOF
