999
Erzeugt mit innoplus bad 
0
SECTION
2
HEADER
9
$ACADVER
1
AC1009
9
$DWGCODEPAGE
3
ISO8859-1
0
ENDSEC
0
SECTION
2
TABLES
0
TABLE
2
LAYER
70
1
0
LAYER
2
0
70
0
62
7
6
CONTINUOUS
0
ENDTAB
0
ENDSEC
0
SECTION
2
ENTITIES
0
LINE
8
0
6
CONTINUOUS
10
-27.792350
20
185.323315
30
0.0
11
-19.362980
21
189.416905
31
0.0
0
LINE
8
0
6
CONTINUOUS
10
-19.362980
20
189.416905
30
0.0
11
-9.960870
21
191.966305
31
0.0
0
LINE
8
0
6
CONTINUOUS
10
-9.960870
20
191.966305
30
0.0
11
-0.058850
21
192.929855
31
0.0
0
LINE
8
0
6
CONTINUOUS
10
-0.058850
20
192.929855
30
0.0
11
9.847090
21
192.009295
31
0.0
0
LINE
8
0
6
CONTINUOUS
10
9.847090
20
192.009295
30
0.0
11
19.315170
21
189.661675
31
0.0
0
LINE
8
0
6
CONTINUOUS
10
34.765090
20
180.044445
30
0.0
11
40.080660
21
173.572115
31
0.0
0
LINE
8
0
6
CONTINUOUS
10
40.080660
20
173.572115
30
0.0
11
43.387480
21
166.351675
31
0.0
0
LINE
8
0
6
CONTINUOUS
10
43.387480
20
166.351675
30
0.0
11
44.519229
21
158.745020
31
0.0
0
LINE
8
0
6
CONTINUOUS
10
-43.424520
20
150.965245
30
0.0
11
-44.493730
21
158.552295
31
0.0
0
LINE
8
0
6
CONTINUOUS
10
-43.610120
20
151.636975
30
0.0
11
-43.424520
21
150.965245
31
0.0
0
LINE
8
0
6
CONTINUOUS
10
-44.493730
20
158.552295
30
0.0
11
-43.457030
21
166.204315
31
0.0
0
LINE
8
0
6
CONTINUOUS
10
-35.424670
20
180.669075
30
0.0
11
-40.803880
21
174.063085
31
0.0
0
LINE
8
0
6
CONTINUOUS
10
-0.060740
20
193.772715
30
0.0
11
9.900930
21
192.932075
31
0.0
0
LINE
8
0
6
CONTINUOUS
10
10.013830
20
192.990185
30
0.0
11
-0.060820
21
193.840375
31
0.0
0
LINE
8
0
6
CONTINUOUS
10
9.900930
20
192.932075
30
0.0
11
19.366700
21
190.409185
31
0.0
0
LINE
8
0
6
CONTINUOUS
10
19.586960
20
190.438695
30
0.0
11
10.013830
21
192.990185
31
0.0
0
LINE
8
0
6
CONTINUOUS
10
28.178520
20
186.313785
30
0.0
11
19.586960
21
190.438695
31
0.0
0
LINE
8
0
6
CONTINUOUS
10
35.357670
20
180.822315
30
0.0
11
28.178520
21
186.313785
31
0.0
0
LINE
8
0
6
CONTINUOUS
10
34.960550
20
180.900655
30
0.0
11
40.306680
21
174.391835
31
0.0
0
LINE
8
0
6
CONTINUOUS
10
40.764430
20
174.239685
30
0.0
11
35.357670
21
180.822315
31
0.0
0
LINE
8
0
6
CONTINUOUS
10
35.448220
20
137.453555
30
0.0
11
40.827450
21
144.059555
31
0.0
0
LINE
8
0
6
CONTINUOUS
10
-28.154990
20
131.808875
30
0.0
11
-19.563440
21
127.683975
31
0.0
0
LINE
8
0
6
CONTINUOUS
10
-35.334130
20
137.300325
30
0.0
11
-28.154990
21
131.808875
31
0.0
0
LINE
8
0
6
CONTINUOUS
10
43.545500
20
151.182495
30
0.0
11
43.664170
21
151.825885
31
0.0
0
LINE
8
0
6
CONTINUOUS
10
44.519230
20
158.745015
30
0.0
11
43.545500
21
151.182495
31
0.0
0
LINE
8
0
6
CONTINUOUS
10
-35.028000
20
180.749115
30
0.0
11
-40.346880
21
174.217205
31
0.0
0
LINE
8
0
6
CONTINUOUS
10
-40.176060
20
173.448695
30
0.0
11
-34.880000
21
179.952245
31
0.0
0
LINE
8
0
6
CONTINUOUS
10
-34.880000
20
179.952245
30
0.0
11
-27.792350
21
185.323315
31
0.0
0
LINE
8
0
6
CONTINUOUS
10
27.861900
20
186.330545
30
0.0
11
19.366700
21
190.409185
31
0.0
0
LINE
8
0
6
CONTINUOUS
10
19.315170
20
189.661675
30
0.0
11
27.706110
21
185.443495
31
0.0
0
LINE
8
0
6
CONTINUOUS
10
34.960550
20
180.900655
30
0.0
11
27.861900
21
186.330545
31
0.0
0
LINE
8
0
6
CONTINUOUS
10
27.706110
20
185.443495
30
0.0
11
34.765090
21
180.044445
31
0.0
0
LINE
8
0
6
CONTINUOUS
10
-40.803880
20
174.063085
30
0.0
11
-44.136430
21
166.704815
31
0.0
0
LINE
8
0
6
CONTINUOUS
10
-35.028000
20
180.749115
30
0.0
11
-27.952100
21
186.209675
31
0.0
0
LINE
8
0
6
CONTINUOUS
10
-28.268520
20
186.191545
30
0.0
11
-35.424670
21
180.669075
31
0.0
0
LINE
8
0
6
CONTINUOUS
10
-27.952100
20
186.209675
30
0.0
11
-19.474010
21
190.325055
31
0.0
0
LINE
8
0
6
CONTINUOUS
10
-19.694270
20
190.353645
30
0.0
11
-28.268520
21
186.191545
31
0.0
0
LINE
8
0
6
CONTINUOUS
10
-19.474010
20
190.325055
30
0.0
11
-10.018850
21
192.888925
31
0.0
0
LINE
8
0
6
CONTINUOUS
10
-10.131880
20
192.946585
30
0.0
11
-19.694270
21
190.353645
31
0.0
0
LINE
8
0
6
CONTINUOUS
10
-10.018850
20
192.888925
30
0.0
11
-0.060740
21
193.772715
31
0.0
0
LINE
8
0
6
CONTINUOUS
10
-0.060820
20
193.840375
30
0.0
11
-10.131880
21
192.946585
31
0.0
0
LINE
8
0
6
CONTINUOUS
10
40.306680
20
174.391835
30
0.0
11
43.632220
21
167.130445
31
0.0
0
LINE
8
0
6
CONTINUOUS
10
44.127690
20
166.895955
30
0.0
11
40.764430
21
174.239685
31
0.0
0
LINE
8
0
6
CONTINUOUS
10
43.632220
20
167.130445
30
0.0
11
44.770410
21
159.480635
31
0.0
0
LINE
8
0
6
CONTINUOUS
10
45.278790
20
159.159345
30
0.0
11
44.127690
21
166.895955
31
0.0
0
LINE
8
0
6
CONTINUOUS
10
44.770410
20
159.480635
30
0.0
11
43.664170
21
151.825885
31
0.0
0
LINE
8
0
6
CONTINUOUS
10
44.160010
20
151.417795
30
0.0
11
45.278790
21
159.159345
31
0.0
0
LINE
8
0
6
CONTINUOUS
10
40.827450
20
144.059555
30
0.0
11
44.160010
21
151.417795
31
0.0
0
LINE
8
0
6
CONTINUOUS
10
28.292060
20
131.931045
30
0.0
11
35.448220
21
137.453555
31
0.0
0
LINE
8
0
6
CONTINUOUS
10
19.717810
20
127.768995
30
0.0
11
28.292060
21
131.931045
31
0.0
0
LINE
8
0
6
CONTINUOUS
10
10.155410
20
125.176055
30
0.0
11
19.717810
21
127.768995
31
0.0
0
LINE
8
0
6
CONTINUOUS
10
0.084440
20
124.282255
30
0.0
11
10.155410
21
125.176055
31
0.0
0
LINE
8
0
6
CONTINUOUS
10
-9.990310
20
125.132455
30
0.0
11
0.084440
21
124.282255
31
0.0
0
LINE
8
0
6
CONTINUOUS
10
-19.563440
20
127.683975
30
0.0
11
-9.990310
21
125.132455
31
0.0
0
LINE
8
0
6
CONTINUOUS
10
-40.740890
20
143.882985
30
0.0
11
-35.334130
21
137.300325
31
0.0
0
LINE
8
0
6
CONTINUOUS
10
-44.104120
20
151.226755
30
0.0
11
-40.740890
21
143.882985
31
0.0
0
LINE
8
0
6
CONTINUOUS
10
-43.610120
20
151.636975
30
0.0
11
-44.748300
21
159.286805
31
0.0
0
LINE
8
0
6
CONTINUOUS
10
-45.255210
20
158.963315
30
0.0
11
-44.104120
21
151.226755
31
0.0
0
LINE
8
0
6
CONTINUOUS
10
-44.748300
20
159.286805
30
0.0
11
-43.642060
21
166.941485
31
0.0
0
LINE
8
0
6
CONTINUOUS
10
-44.136430
20
166.704815
30
0.0
11
-45.255209
21
158.963320
31
0.0
0
LINE
8
0
6
CONTINUOUS
10
-40.346880
20
174.217205
30
0.0
11
-43.642060
21
166.941485
31
0.0
0
LINE
8
0
6
CONTINUOUS
10
-43.457030
20
166.204315
30
0.0
11
-40.176060
21
173.448695
31
0.0
0
LINE
8
0
6
CONTINUOUS
10
-12.965399
20
125.251017
30
0.0
11
-12.903700
21
117.128195
31
0.0
0
LINE
8
0
6
CONTINUOUS
10
-11.667204
20
124.905009
30
0.0
11
-11.638870
21
115.826485
31
0.0
0
LINE
8
0
6
CONTINUOUS
10
-14.485020
20
114.384785
30
0.0
11
-14.484380
21
114.013805
31
0.0
0
LINE
8
0
6
CONTINUOUS
10
-13.079160
20
112.027595
30
0.0
11
-13.076670
21
112.394225
31
0.0
0
LINE
8
0
6
CONTINUOUS
10
-14.307770
20
11.349405
30
0.0
11
-14.306530
21
10.629895
31
0.0
0
LINE
8
0
6
CONTINUOUS
10
-14.306530
20
10.629895
30
0.0
11
-13.770970
21
9.784145
31
0.0
0
LINE
8
0
6
CONTINUOUS
10
-13.766040
20
10.496205
30
0.0
11
-13.770970
21
9.784145
31
0.0
0
LINE
8
0
6
CONTINUOUS
10
-13.770970
20
9.784145
30
0.0
11
-11.288600
21
9.214205
31
0.0
0
LINE
8
0
6
CONTINUOUS
10
-10.789080
20
9.157025
30
0.0
11
-7.603090
21
8.792315
31
0.0
0
LINE
8
0
6
CONTINUOUS
10
-3.709240
20
8.525475
30
0.0
11
0.330120
21
8.457645
31
0.0
0
LINE
8
0
6
CONTINUOUS
10
-7.603090
20
8.792315
30
0.0
11
-3.709240
21
8.525475
31
0.0
0
LINE
8
0
6
CONTINUOUS
10
-12.943725
20
122.397597
30
0.0
11
-14.157660
21
120.814095
31
0.0
0
LINE
8
0
6
CONTINUOUS
10
-14.157660
20
120.814095
30
0.0
11
-14.185690
21
120.366065
31
0.0
0
LINE
8
0
6
CONTINUOUS
10
-14.487020
20
115.550395
30
0.0
11
-14.485020
21
114.384785
31
0.0
0
LINE
8
0
6
CONTINUOUS
10
-13.068820
20
113.556095
30
0.0
11
-14.487020
21
115.550395
31
0.0
0
LINE
8
0
6
CONTINUOUS
10
-13.068820
20
113.556095
30
0.0
11
-13.076670
21
112.394225
31
0.0
0
LINE
8
0
6
CONTINUOUS
10
-10.078310
20
112.505085
30
0.0
11
-13.068820
21
113.556095
31
0.0
0
LINE
8
0
6
CONTINUOUS
10
-9.626740
20
112.422365
30
0.0
11
-10.078310
21
112.505085
31
0.0
0
LINE
8
0
6
CONTINUOUS
10
-3.346170
20
111.470645
30
0.0
11
-6.746480
21
111.894705
31
0.0
0
LINE
8
0
6
CONTINUOUS
10
-6.180710
20
114.363865
30
0.0
11
-2.998110
21
114.077495
31
0.0
0
LINE
8
0
6
CONTINUOUS
10
-12.903700
20
117.128195
30
0.0
11
-12.900550
21
116.713435
31
0.0
0
LINE
8
0
6
CONTINUOUS
10
-12.900550
20
116.713435
30
0.0
11
-11.637590
21
115.415855
31
0.0
0
LINE
8
0
6
CONTINUOUS
10
-2.998110
20
114.077495
30
0.0
11
0.105050
21
113.971765
31
0.0
0
LINE
8
0
6
CONTINUOUS
10
-11.638870
20
115.826485
30
0.0
11
-11.637590
21
115.415855
31
0.0
0
LINE
8
0
6
CONTINUOUS
10
-11.637590
20
115.415855
30
0.0
11
-9.422820
21
114.825995
31
0.0
0
LINE
8
0
6
CONTINUOUS
10
-14.457860
20
116.016395
30
0.0
11
-14.487020
21
115.550395
31
0.0
0
LINE
8
0
6
CONTINUOUS
10
-14.185690
20
120.366065
30
0.0
11
-14.457860
21
116.016395
31
0.0
0
LINE
8
0
6
CONTINUOUS
10
-6.180710
20
114.363865
30
0.0
11
-8.983400
21
114.763385
31
0.0
0
LINE
8
0
6
CONTINUOUS
10
-11.288600
20
9.214205
30
0.0
11
-10.789080
21
9.157025
31
0.0
0
LINE
8
0
6
CONTINUOUS
10
-6.746480
20
111.894705
30
0.0
11
-9.626740
21
112.422365
31
0.0
0
LINE
8
0
6
CONTINUOUS
10
-9.422820
20
114.825995
30
0.0
11
-8.983400
21
114.763385
31
0.0
0
LINE
8
0
6
CONTINUOUS
10
-14.484380
20
114.013805
30
0.0
11
-14.307770
21
11.349405
31
0.0
0
LINE
8
0
6
CONTINUOUS
10
-13.766040
20
10.496205
30
0.0
11
-13.079160
21
112.027595
31
0.0
0
LINE
8
0
6
CONTINUOUS
10
-10.096180
20
110.977575
30
0.0
11
-11.280120
21
9.922005
31
0.0
0
LINE
8
0
6
CONTINUOUS
10
-11.915460
20
115.213035
30
0.0
11
-13.136140
21
116.575095
31
0.0
0
LINE
8
0
6
CONTINUOUS
10
-9.605060
20
114.402355
30
0.0
11
-11.915460
21
115.213035
31
0.0
0
LINE
8
0
6
CONTINUOUS
10
-3.346170
20
111.470645
30
0.0
11
0.110960
21
111.325015
31
0.0
0
LINE
8
0
6
CONTINUOUS
10
13.099450
20
117.184495
30
0.0
11
13.126696
21
125.306811
31
0.0
0
LINE
8
0
6
CONTINUOUS
10
11.840550
20
115.877345
30
0.0
11
11.830418
21
124.955316
31
0.0
0
LINE
8
0
6
CONTINUOUS
10
13.293260
20
112.451335
30
0.0
11
13.297300
21
112.084705
31
0.0
0
LINE
8
0
6
CONTINUOUS
10
14.693460
20
114.076975
30
0.0
11
14.692520
21
114.447965
31
0.0
0
LINE
8
0
6
CONTINUOUS
10
14.424370
20
9.845195
30
0.0
11
14.955680
21
10.693255
31
0.0
0
LINE
8
0
6
CONTINUOUS
10
14.955680
20
10.693255
30
0.0
11
14.953850
21
11.412775
31
0.0
0
LINE
8
0
6
CONTINUOUS
10
11.944890
20
9.264515
30
0.0
11
14.424370
21
9.845195
31
0.0
0
LINE
8
0
6
CONTINUOUS
10
14.424370
20
9.845195
30
0.0
11
14.416410
21
10.557235
31
0.0
0
LINE
8
0
6
CONTINUOUS
10
8.261550
20
8.826665
30
0.0
11
11.445670
21
9.205165
31
0.0
0
LINE
8
0
6
CONTINUOUS
10
0.330120
20
8.457645
30
0.0
11
4.369090
21
8.542965
31
0.0
0
LINE
8
0
6
CONTINUOUS
10
4.369090
20
8.542965
30
0.0
11
8.261550
21
8.826665
31
0.0
0
LINE
8
0
6
CONTINUOUS
10
14.336240
20
120.875795
30
0.0
11
13.117118
21
122.451428
31
0.0
0
LINE
8
0
6
CONTINUOUS
10
14.366310
20
120.427885
30
0.0
11
14.336240
21
120.875795
31
0.0
0
LINE
8
0
6
CONTINUOUS
10
14.689560
20
115.613565
30
0.0
11
13.280450
21
113.613155
31
0.0
0
LINE
8
0
6
CONTINUOUS
10
14.692520
20
114.447965
30
0.0
11
14.689560
21
115.613565
31
0.0
0
LINE
8
0
6
CONTINUOUS
10
13.280450
20
113.613155
30
0.0
11
10.294760
21
112.549195
31
0.0
0
LINE
8
0
6
CONTINUOUS
10
13.293260
20
112.451335
30
0.0
11
13.280450
21
113.613155
31
0.0
0
LINE
8
0
6
CONTINUOUS
10
10.294760
20
112.549195
30
0.0
11
9.843560
21
112.464525
31
0.0
0
LINE
8
0
6
CONTINUOUS
10
6.965730
20
111.924395
30
0.0
11
3.567380
21
111.485615
31
0.0
0
LINE
8
0
6
CONTINUOUS
10
3.207710
20
114.090925
30
0.0
11
6.388970
21
114.391075
31
0.0
0
LINE
8
0
6
CONTINUOUS
10
11.841010
20
115.466705
30
0.0
11
13.098060
21
116.769715
31
0.0
0
LINE
8
0
6
CONTINUOUS
10
13.098060
20
116.769715
30
0.0
11
13.099450
21
117.184495
31
0.0
0
LINE
8
0
6
CONTINUOUS
10
0.105050
20
113.971765
30
0.0
11
3.207710
21
114.090925
31
0.0
0
LINE
8
0
6
CONTINUOUS
10
9.628940
20
114.867265
30
0.0
11
11.841010
21
115.466705
31
0.0
0
LINE
8
0
6
CONTINUOUS
10
11.841010
20
115.466705
30
0.0
11
11.840550
21
115.877345
31
0.0
0
LINE
8
0
6
CONTINUOUS
10
14.689560
20
115.613565
30
0.0
11
14.658280
21
116.079465
31
0.0
0
LINE
8
0
6
CONTINUOUS
10
14.658280
20
116.079465
30
0.0
11
14.366310
21
120.427885
31
0.0
0
LINE
8
0
6
CONTINUOUS
10
9.189820
20
114.802735
30
0.0
11
6.388970
21
114.391075
31
0.0
0
LINE
8
0
6
CONTINUOUS
10
11.445670
20
9.205165
30
0.0
11
11.944890
21
9.264515
31
0.0
0
LINE
8
0
6
CONTINUOUS
10
9.843560
20
112.464525
30
0.0
11
6.965730
21
111.924395
31
0.0
0
LINE
8
0
6
CONTINUOUS
10
9.189820
20
114.802735
30
0.0
11
9.628940
21
114.867265
31
0.0
0
LINE
8
0
6
CONTINUOUS
10
13.297300
20
112.084705
30
0.0
11
14.416410
21
10.557235
31
0.0
0
LINE
8
0
6
CONTINUOUS
10
14.953850
20
11.412775
30
0.0
11
14.693460
21
114.076975
31
0.0
0
LINE
8
0
6
CONTINUOUS
10
11.933400
20
9.972275
30
0.0
11
10.319130
21
111.021775
31
0.0
0
LINE
8
0
6
CONTINUOUS
10
13.334250
20
116.632435
30
0.0
11
12.119800
21
115.265085
31
0.0
0
LINE
8
0
6
CONTINUOUS
10
12.119800
20
115.265085
30
0.0
11
9.813110
21
114.444395
31
0.0
0
LINE
8
0
6
CONTINUOUS
10
0.110960
20
111.325015
30
0.0
11
3.567380
21
111.485615
31
0.0
0
LINE
8
0
6
CONTINUOUS
10
49.752790
20
169.213565
30
0.0
11
48.487340
21
177.718675
31
0.0
0
LINE
8
0
6
CONTINUOUS
10
50.017850
20
164.853435
30
0.0
11
49.752790
21
169.213565
31
0.0
0
LINE
8
0
6
CONTINUOUS
10
-48.113870
20
179.533675
30
0.0
11
-48.545020
21
177.508575
31
0.0
0
LINE
8
0
6
CONTINUOUS
10
-46.693650
20
183.454785
30
0.0
11
-47.502480
21
181.523745
31
0.0
0
LINE
8
0
6
CONTINUOUS
10
-43.170880
20
191.233085
30
0.0
11
-46.693650
21
183.454785
31
0.0
0
LINE
8
0
6
CONTINUOUS
10
48.487340
20
177.718675
30
0.0
11
48.046950
21
179.741875
31
0.0
0
LINE
8
0
6
CONTINUOUS
10
46.608810
20
183.656805
30
0.0
11
43.053570
21
191.419735
31
0.0
0
LINE
8
0
6
CONTINUOUS
10
47.426470
20
181.729295
30
0.0
11
46.608810
21
183.656805
31
0.0
0
LINE
8
0
6
CONTINUOUS
10
-49.774940
20
168.998035
30
0.0
11
-50.020150
21
164.636845
31
0.0
0
LINE
8
0
6
CONTINUOUS
10
-48.545020
20
177.508575
30
0.0
11
-49.774940
21
168.998035
31
0.0
0
LINE
8
0
6
CONTINUOUS
10
-47.502480
20
181.523745
30
0.0
11
-48.113870
21
179.533675
31
0.0
0
LINE
8
0
6
CONTINUOUS
10
48.046950
20
179.741875
30
0.0
11
47.426470
21
181.729295
31
0.0
0
LINE
8
0
6
CONTINUOUS
10
-50.020150
20
164.636845
30
0.0
11
-50.019790
21
164.480225
31
0.0
0
LINE
8
0
6
CONTINUOUS
10
50.018210
20
164.696825
30
0.0
11
50.017850
21
164.853435
31
0.0
0
LINE
8
0
6
CONTINUOUS
10
-50.019290
20
164.259665
30
0.0
11
-50.017850
21
163.627735
31
0.0
0
LINE
8
0
6
CONTINUOUS
10
50.020150
20
163.844325
30
0.0
11
50.018710
21
164.476275
31
0.0
0
LINE
8
0
6
CONTINUOUS
10
19.717810
20
127.769005
30
0.0
11
10.155410
21
125.176065
31
0.0
0
LINE
8
0
6
CONTINUOUS
10
10.155410
20
125.176065
30
0.0
11
0.084440
21
124.282265
31
0.0
0
LINE
8
0
6
CONTINUOUS
10
0.084440
20
124.282265
30
0.0
11
-9.990310
21
125.132465
31
0.0
0
LINE
8
0
6
CONTINUOUS
10
-40.740890
20
143.882995
30
0.0
11
-44.104120
21
151.226755
31
0.0
0
LINE
8
0
6
CONTINUOUS
10
28.292060
20
131.931055
30
0.0
11
19.717810
21
127.769005
31
0.0
0
LINE
8
0
6
CONTINUOUS
10
-30.142230
20
131.793315
30
0.0
11
-20.945850
21
127.378045
31
0.0
0
LINE
8
0
6
CONTINUOUS
10
10.865180
20
124.693585
30
0.0
11
21.100760
21
127.469035
31
0.0
0
LINE
8
0
6
CONTINUOUS
10
44.683780
20
145.999095
30
0.0
11
48.331820
21
154.053965
31
0.0
0
LINE
8
0
6
CONTINUOUS
10
-37.826790
20
137.671405
30
0.0
11
-30.142230
21
131.793315
31
0.0
0
LINE
8
0
6
CONTINUOUS
10
38.795300
20
138.767725
30
0.0
11
44.683780
21
145.999095
31
0.0
0
LINE
8
0
6
CONTINUOUS
10
37.938580
20
137.835375
30
0.0
11
38.795300
21
138.767725
31
0.0
0
LINE
8
0
6
CONTINUOUS
10
0.085220
20
123.736865
30
0.0
11
10.865180
21
124.693585
31
0.0
0
LINE
8
0
6
CONTINUOUS
10
-44.606550
20
145.805845
30
0.0
11
-38.687950
21
138.599985
31
0.0
0
LINE
8
0
6
CONTINUOUS
10
-38.687950
20
138.599985
30
0.0
11
-37.826790
21
137.671405
31
0.0
0
LINE
8
0
6
CONTINUOUS
10
-10.698780
20
124.646895
30
0.0
11
0.085220
21
123.736865
31
0.0
0
LINE
8
0
6
CONTINUOUS
10
30.278630
20
131.924115
30
0.0
11
37.938580
21
137.835375
31
0.0
0
LINE
8
0
6
CONTINUOUS
10
-48.288180
20
153.844805
30
0.0
11
-44.606550
21
145.805845
31
0.0
0
LINE
8
0
6
CONTINUOUS
10
-20.945850
20
127.378045
30
0.0
11
-10.698780
21
124.646895
31
0.0
0
LINE
8
0
6
CONTINUOUS
10
48.331820
20
154.053965
30
0.0
11
48.783910
21
155.290075
31
0.0
0
LINE
8
0
6
CONTINUOUS
10
48.783910
20
155.290075
30
0.0
11
50.020150
21
163.844325
31
0.0
0
LINE
8
0
6
CONTINUOUS
10
21.100760
20
127.469035
30
0.0
11
30.278630
21
131.924115
31
0.0
0
LINE
8
0
6
CONTINUOUS
10
39.055920
20
188.493275
30
0.0
11
31.123120
21
194.561235
31
0.0
0
LINE
8
0
6
CONTINUOUS
10
-39.156940
20
188.323935
30
0.0
11
-45.100850
21
181.024455
31
0.0
0
LINE
8
0
6
CONTINUOUS
10
-0.080710
20
202.877905
30
0.0
11
-11.208990
21
201.890315
31
0.0
0
LINE
8
0
6
CONTINUOUS
10
-11.208990
20
201.890315
30
0.0
11
-21.775210
21
199.025155
31
0.0
0
LINE
8
0
6
CONTINUOUS
10
31.123120
20
194.561235
30
0.0
11
21.629640
21
199.119145
31
0.0
0
LINE
8
0
6
CONTINUOUS
10
50.018530
20
164.556185
30
0.0
11
48.746590
21
173.104915
31
0.0
0
LINE
8
0
6
CONTINUOUS
10
50.018710
20
164.476275
30
0.0
11
50.018530
21
164.556185
31
0.0
0
LINE
8
0
6
CONTINUOUS
10
-45.100850
20
181.024455
30
0.0
11
-48.783240
21
172.893765
31
0.0
0
LINE
8
0
6
CONTINUOUS
10
-48.783240
20
172.893765
30
0.0
11
-50.019470
21
164.339585
31
0.0
0
LINE
8
0
6
CONTINUOUS
10
-50.019470
20
164.339585
30
0.0
11
-50.019290
21
164.259665
31
0.0
0
LINE
8
0
6
CONTINUOUS
10
-21.775210
20
199.025155
30
0.0
11
-31.249560
21
194.426195
31
0.0
0
LINE
8
0
6
CONTINUOUS
10
21.629640
20
199.119145
30
0.0
11
11.051550
21
201.938535
31
0.0
0
LINE
8
0
6
CONTINUOUS
10
48.746590
20
173.104915
30
0.0
11
45.030270
21
181.219635
31
0.0
0
LINE
8
0
6
CONTINUOUS
10
-31.249560
20
194.426195
30
0.0
11
-39.156940
21
188.323935
31
0.0
0
LINE
8
0
6
CONTINUOUS
10
11.051550
20
201.938535
30
0.0
11
-0.080710
21
202.877905
31
0.0
0
LINE
8
0
6
CONTINUOUS
10
45.030270
20
181.219635
30
0.0
11
39.055920
21
188.493275
31
0.0
0
LINE
8
0
6
CONTINUOUS
10
-48.783560
20
173.034395
30
0.0
11
-50.019790
21
164.480225
31
0.0
0
LINE
8
0
6
CONTINUOUS
10
-45.101170
20
181.165125
30
0.0
11
-48.783560
21
173.034395
31
0.0
0
LINE
8
0
6
CONTINUOUS
10
-39.157270
20
188.464605
30
0.0
11
-45.101170
21
181.165125
31
0.0
0
LINE
8
0
6
CONTINUOUS
10
-31.249880
20
194.566825
30
0.0
11
-39.157270
21
188.464605
31
0.0
0
LINE
8
0
6
CONTINUOUS
10
-21.775530
20
199.165785
30
0.0
11
-31.249880
21
194.566825
31
0.0
0
LINE
8
0
6
CONTINUOUS
10
-11.209310
20
202.030945
30
0.0
11
-21.775530
21
199.165785
31
0.0
0
LINE
8
0
6
CONTINUOUS
10
-0.081030
20
203.018575
30
0.0
11
-11.209310
21
202.030945
31
0.0
0
LINE
8
0
6
CONTINUOUS
10
11.051230
20
202.079165
30
0.0
11
-0.081030
21
203.018575
31
0.0
0
LINE
8
0
6
CONTINUOUS
10
21.629320
20
199.259775
30
0.0
11
11.051230
21
202.079165
31
0.0
0
LINE
8
0
6
CONTINUOUS
10
31.122800
20
194.701845
30
0.0
11
21.629320
21
199.259775
31
0.0
0
LINE
8
0
6
CONTINUOUS
10
39.055590
20
188.633935
30
0.0
11
31.122800
21
194.701845
31
0.0
0
LINE
8
0
6
CONTINUOUS
10
45.029950
20
181.360265
30
0.0
11
39.055590
21
188.633935
31
0.0
0
LINE
8
0
6
CONTINUOUS
10
48.746270
20
173.245585
30
0.0
11
45.029950
21
181.360265
31
0.0
0
LINE
8
0
6
CONTINUOUS
10
50.018210
20
164.696825
30
0.0
11
48.746270
21
173.245585
31
0.0
0
LINE
8
0
6
CONTINUOUS
10
50.008057
20
164.626572
30
0.0
11
50.018210
21
164.696825
31
0.0
0
LINE
8
0
6
CONTINUOUS
10
-50.019790
20
164.480225
30
0.0
11
-50.009317
21
164.409837
31
0.0
0
LINE
8
0
6
CONTINUOUS
10
-36.729520
20
199.285485
30
0.0
11
-37.107340
21
198.871555
31
0.0
0
LINE
8
0
6
CONTINUOUS
10
-29.318060
20
205.005035
30
0.0
11
-36.729520
21
199.285485
31
0.0
0
LINE
8
0
6
CONTINUOUS
10
-20.437930
20
209.315545
30
0.0
11
-29.318060
21
205.005035
31
0.0
0
LINE
8
0
6
CONTINUOUS
10
-10.534380
20
212.001015
30
0.0
11
-20.437930
21
209.315545
31
0.0
0
LINE
8
0
6
CONTINUOUS
10
-0.104030
20
212.926735
30
0.0
11
-10.534380
21
212.001015
31
0.0
0
LINE
8
0
6
CONTINUOUS
10
10.330040
20
212.046225
30
0.0
11
-0.104030
21
212.926735
31
0.0
0
LINE
8
0
6
CONTINUOUS
10
20.244710
20
209.403665
30
0.0
11
10.330040
21
212.046225
31
0.0
0
LINE
8
0
6
CONTINUOUS
10
29.142760
20
205.131605
30
0.0
11
20.244710
21
209.403665
31
0.0
0
LINE
8
0
6
CONTINUOUS
10
36.578040
20
199.444235
30
0.0
11
29.142760
21
205.131605
31
0.0
0
LINE
8
0
6
CONTINUOUS
10
36.957830
20
199.031925
30
0.0
11
36.578040
21
199.444235
31
0.0
0
LINE
8
0
6
CONTINUOUS
10
-42.736030
20
191.959175
30
0.0
11
-43.170880
21
191.233085
31
0.0
0
LINE
8
0
6
CONTINUOUS
10
-37.107340
20
198.871555
30
0.0
11
-42.736030
21
191.959175
31
0.0
0
LINE
8
0
6
CONTINUOUS
10
42.615360
20
192.143975
30
0.0
11
36.957830
21
199.031925
31
0.0
0
LINE
8
0
6
CONTINUOUS
10
43.053570
20
191.419735
30
0.0
11
42.615360
21
192.143975
31
0.0
0
LINE
8
0
6
CONTINUOUS
10
-19.563440
20
127.683985
30
0.0
11
-28.154990
21
131.808885
31
0.0
0
LINE
8
0
6
CONTINUOUS
10
-35.424670
20
180.669095
30
0.0
11
-28.268520
21
186.191555
31
0.0
0
LINE
8
0
6
CONTINUOUS
10
44.160010
20
151.417795
30
0.0
11
40.827450
21
144.059565
31
0.0
0
LINE
8
0
6
CONTINUOUS
10
35.357670
20
180.822335
30
0.0
11
40.764430
21
174.239705
31
0.0
0
LINE
8
0
6
CONTINUOUS
10
-0.060820
20
193.840385
30
0.0
11
10.013830
21
192.990205
31
0.0
0
LINE
8
0
6
CONTINUOUS
10
-28.154990
20
131.808885
30
0.0
11
-35.334130
21
137.300335
31
0.0
0
LINE
8
0
6
CONTINUOUS
10
40.827450
20
144.059565
30
0.0
11
35.448220
21
137.453565
31
0.0
0
LINE
8
0
6
CONTINUOUS
10
10.013830
20
192.990205
30
0.0
11
19.586960
21
190.438705
31
0.0
0
LINE
8
0
6
CONTINUOUS
10
-28.268520
20
186.191555
30
0.0
11
-19.694270
21
190.353665
31
0.0
0
LINE
8
0
6
CONTINUOUS
10
-45.255210
20
158.963325
30
0.0
11
-44.136430
21
166.704825
31
0.0
0
LINE
8
0
6
CONTINUOUS
10
40.764430
20
174.239705
30
0.0
11
44.127690
21
166.895965
31
0.0
0
LINE
8
0
6
CONTINUOUS
10
-35.334130
20
137.300335
30
0.0
11
-40.740890
21
143.882995
31
0.0
0
LINE
8
0
6
CONTINUOUS
10
35.448220
20
137.453565
30
0.0
11
28.292060
21
131.931055
31
0.0
0
LINE
8
0
6
CONTINUOUS
10
44.127690
20
166.895965
30
0.0
11
45.278790
21
159.159355
31
0.0
0
LINE
8
0
6
CONTINUOUS
10
19.586960
20
190.438705
30
0.0
11
28.178520
21
186.313805
31
0.0
0
LINE
8
0
6
CONTINUOUS
10
-19.694270
20
190.353665
30
0.0
11
-10.131880
21
192.946605
31
0.0
0
LINE
8
0
6
CONTINUOUS
10
-44.136430
20
166.704825
30
0.0
11
-40.803880
21
174.063105
31
0.0
0
LINE
8
0
6
CONTINUOUS
10
-9.990310
20
125.132465
30
0.0
11
-19.563440
21
127.683985
31
0.0
0
LINE
8
0
6
CONTINUOUS
10
45.278790
20
159.159355
30
0.0
11
44.160010
21
151.417795
31
0.0
0
LINE
8
0
6
CONTINUOUS
10
28.178520
20
186.313805
30
0.0
11
35.357670
21
180.822335
31
0.0
0
LINE
8
0
6
CONTINUOUS
10
-10.131880
20
192.946605
30
0.0
11
-0.060820
21
193.840385
31
0.0
0
LINE
8
0
6
CONTINUOUS
10
-40.803880
20
174.063105
30
0.0
11
-35.424670
21
180.669095
31
0.0
0
LINE
8
0
6
CONTINUOUS
10
-44.104120
20
151.226755
30
0.0
11
-45.255209
21
158.963320
31
0.0
0
LINE
8
0
6
CONTINUOUS
10
-48.745930
20
155.078965
30
0.0
11
-48.288180
21
153.844805
31
0.0
0
LINE
8
0
6
CONTINUOUS
10
-50.017850
20
163.627735
30
0.0
11
-48.745930
21
155.078965
31
0.0
0
LINE
8
0
6
CONTINUOUS
10
-40.176060
20
173.448715
30
0.0
11
-43.457030
21
166.204315
31
0.0
0
LINE
8
0
6
CONTINUOUS
10
-19.362980
20
189.416925
30
0.0
11
-27.792350
21
185.323335
31
0.0
0
LINE
8
0
6
CONTINUOUS
10
-9.960870
20
191.966325
30
0.0
11
-19.362980
21
189.416925
31
0.0
0
LINE
8
0
6
CONTINUOUS
10
-0.058850
20
192.929875
30
0.0
11
-9.960870
21
191.966325
31
0.0
0
LINE
8
0
6
CONTINUOUS
10
9.847090
20
192.009315
30
0.0
11
-0.058850
21
192.929875
31
0.0
0
LINE
8
0
6
CONTINUOUS
10
19.315170
20
189.661695
30
0.0
11
9.847090
21
192.009315
31
0.0
0
LINE
8
0
6
CONTINUOUS
10
40.080660
20
173.572135
30
0.0
11
34.765090
21
180.044465
31
0.0
0
LINE
8
0
6
CONTINUOUS
10
43.387480
20
166.351685
30
0.0
11
40.080660
21
173.572135
31
0.0
0
LINE
8
0
6
CONTINUOUS
10
44.519230
20
158.745025
30
0.0
11
43.387480
21
166.351685
31
0.0
0
LINE
8
0
6
CONTINUOUS
10
27.860140
20
131.973615
30
0.0
11
34.954850
21
137.412605
31
0.0
0
LINE
8
0
6
CONTINUOUS
10
19.420100
20
127.873575
30
0.0
11
27.860140
21
131.973615
31
0.0
0
LINE
8
0
6
CONTINUOUS
10
10.014840
20
125.305095
30
0.0
11
19.420100
21
127.873575
31
0.0
0
LINE
8
0
6
CONTINUOUS
10
0.084180
20
124.438165
30
0.0
11
10.014840
21
125.305095
31
0.0
0
LINE
8
0
6
CONTINUOUS
10
-9.829710
20
125.273405
30
0.0
11
0.084180
21
124.438165
31
0.0
0
LINE
8
0
6
CONTINUOUS
10
-19.258180
20
127.783785
30
0.0
11
-9.829710
21
125.273405
31
0.0
0
LINE
8
0
6
CONTINUOUS
10
34.765090
20
180.044465
30
0.0
11
27.706110
21
185.443515
31
0.0
0
LINE
8
0
6
CONTINUOUS
10
-43.457030
20
166.204315
30
0.0
11
-44.493730
21
158.552305
31
0.0
0
LINE
8
0
6
CONTINUOUS
10
-34.880000
20
179.952255
30
0.0
11
-40.176060
21
173.448715
31
0.0
0
LINE
8
0
6
CONTINUOUS
10
-27.792350
20
185.323335
30
0.0
11
-34.880000
21
179.952255
31
0.0
0
LINE
8
0
6
CONTINUOUS
10
43.545500
20
151.182505
30
0.0
11
44.519229
21
158.745020
31
0.0
0
LINE
8
0
6
CONTINUOUS
10
40.259230
20
143.926675
30
0.0
11
43.545500
21
151.182505
31
0.0
0
LINE
8
0
6
CONTINUOUS
10
34.954850
20
137.412605
30
0.0
11
40.259230
21
143.926675
31
0.0
0
LINE
8
0
6
CONTINUOUS
10
-27.718270
20
131.846715
30
0.0
11
-19.258180
21
127.783785
31
0.0
0
LINE
8
0
6
CONTINUOUS
10
-34.840480
20
137.261515
30
0.0
11
-27.718270
21
131.846715
31
0.0
0
LINE
8
0
6
CONTINUOUS
10
-40.112550
20
143.734705
30
0.0
11
-34.840480
21
137.261515
31
0.0
0
LINE
8
0
6
CONTINUOUS
10
-43.424520
20
150.965255
30
0.0
11
-40.112550
21
143.734705
31
0.0
0
LINE
8
0
6
CONTINUOUS
10
-44.493730
20
158.552305
30
0.0
11
-43.424520
21
150.965255
31
0.0
0
LINE
8
0
6
CONTINUOUS
10
27.706110
20
185.443515
30
0.0
11
19.315170
21
189.661695
31
0.0
0
LINE
8
0
6
CONTINUOUS
10
-24.331380
20
157.918965
30
0.0
11
-24.319800
21
159.103335
31
0.0
0
LINE
8
0
6
CONTINUOUS
10
-24.319800
20
159.103335
30
0.0
11
-22.978970
21
159.689065
31
0.0
0
LINE
8
0
6
CONTINUOUS
10
-22.978970
20
159.689065
30
0.0
11
-21.649720
21
159.090395
31
0.0
0
LINE
8
0
6
CONTINUOUS
10
-24.319800
20
159.103335
30
0.0
11
-24.331380
21
157.918965
31
0.0
0
LINE
8
0
6
CONTINUOUS
10
-22.978970
20
159.689065
30
0.0
11
-24.319800
21
159.103335
31
0.0
0
LINE
8
0
6
CONTINUOUS
10
-21.649720
20
159.090395
30
0.0
11
-22.978970
21
159.689065
31
0.0
0
LINE
8
0
6
CONTINUOUS
10
-21.661280
20
157.906025
30
0.0
11
-21.649720
21
159.090395
31
0.0
0
LINE
8
0
6
CONTINUOUS
10
-23.002120
20
157.320305
30
0.0
11
-21.661280
21
157.906025
31
0.0
0
LINE
8
0
6
CONTINUOUS
10
-24.331380
20
157.918965
30
0.0
11
-23.002120
21
157.320305
31
0.0
0
LINE
8
0
6
CONTINUOUS
10
-31.132690
20
157.000215
30
0.0
11
-31.122750
21
158.016265
31
0.0
0
LINE
8
0
6
CONTINUOUS
10
-31.122750
20
158.016265
30
0.0
11
-29.972500
21
158.518725
31
0.0
0
LINE
8
0
6
CONTINUOUS
10
-29.972500
20
158.518725
30
0.0
11
-28.832170
21
158.005175
31
0.0
0
LINE
8
0
6
CONTINUOUS
10
-31.122750
20
158.016265
30
0.0
11
-31.132690
21
157.000215
31
0.0
0
LINE
8
0
6
CONTINUOUS
10
-29.972500
20
158.518725
30
0.0
11
-31.122750
21
158.016265
31
0.0
0
LINE
8
0
6
CONTINUOUS
10
-28.832170
20
158.005175
30
0.0
11
-29.972500
21
158.518725
31
0.0
0
LINE
8
0
6
CONTINUOUS
10
-28.842080
20
156.989125
30
0.0
11
-28.832170
21
158.005175
31
0.0
0
LINE
8
0
6
CONTINUOUS
10
-29.992350
20
156.486645
30
0.0
11
-28.842080
21
156.989125
31
0.0
0
LINE
8
0
6
CONTINUOUS
10
-31.132690
20
157.000215
30
0.0
11
-29.992350
21
156.486645
31
0.0
0
LINE
8
0
6
CONTINUOUS
10
-38.026290
20
155.169665
30
0.0
11
-38.016350
21
156.185735
31
0.0
0
LINE
8
0
6
CONTINUOUS
10
-38.016350
20
156.185735
30
0.0
11
-36.866100
21
156.688205
31
0.0
0
LINE
8
0
6
CONTINUOUS
10
-36.866100
20
156.688205
30
0.0
11
-35.725760
21
156.174605
31
0.0
0
LINE
8
0
6
CONTINUOUS
10
-38.016350
20
156.185735
30
0.0
11
-38.026290
21
155.169665
31
0.0
0
LINE
8
0
6
CONTINUOUS
10
-36.866100
20
156.688205
30
0.0
11
-38.016350
21
156.185735
31
0.0
0
LINE
8
0
6
CONTINUOUS
10
-35.725760
20
156.174605
30
0.0
11
-36.866100
21
156.688205
31
0.0
0
LINE
8
0
6
CONTINUOUS
10
-35.735690
20
155.158585
30
0.0
11
-35.725760
21
156.174605
31
0.0
0
LINE
8
0
6
CONTINUOUS
10
-36.885960
20
154.656095
30
0.0
11
-35.735690
21
155.158585
31
0.0
0
LINE
8
0
6
CONTINUOUS
10
-38.026290
20
155.169665
30
0.0
11
-36.885960
21
154.656095
31
0.0
0
LINE
8
0
6
CONTINUOUS
10
1.015060
20
157.930695
30
0.0
11
2.469610
21
156.394165
31
0.0
0
LINE
8
0
6
CONTINUOUS
10
-2.452040
20
155.991695
30
0.0
11
-1.445790
21
157.729475
31
0.0
0
LINE
8
0
6
CONTINUOUS
10
-1.445790
20
157.729475
30
0.0
11
1.015060
21
157.930695
31
0.0
0
LINE
8
0
6
CONTINUOUS
10
-1.445790
20
157.729475
30
0.0
11
-2.452040
21
155.991695
31
0.0
0
LINE
8
0
6
CONTINUOUS
10
1.015060
20
157.930695
30
0.0
11
-1.445790
21
157.729475
31
0.0
0
LINE
8
0
6
CONTINUOUS
10
2.469610
20
156.394165
30
0.0
11
1.015060
21
157.930695
31
0.0
0
LINE
8
0
6
CONTINUOUS
10
1.463370
20
154.656375
30
0.0
11
2.469610
21
156.394165
31
0.0
0
LINE
8
0
6
CONTINUOUS
10
-0.997440
20
154.455155
30
0.0
11
1.463370
21
154.656375
31
0.0
0
LINE
8
0
6
CONTINUOUS
10
-2.452040
20
155.991695
30
0.0
11
-0.997440
21
154.455155
31
0.0
0
LINE
8
0
6
CONTINUOUS
10
-22.114240
20
164.219275
30
0.0
11
-22.102650
21
165.403665
31
0.0
0
LINE
8
0
6
CONTINUOUS
10
-22.102650
20
165.403665
30
0.0
11
-20.761830
21
165.989375
31
0.0
0
LINE
8
0
6
CONTINUOUS
10
-20.761830
20
165.989375
30
0.0
11
-19.432570
21
165.390735
31
0.0
0
LINE
8
0
6
CONTINUOUS
10
-22.102650
20
165.403665
30
0.0
11
-22.114240
21
164.219275
31
0.0
0
LINE
8
0
6
CONTINUOUS
10
-20.761830
20
165.989375
30
0.0
11
-22.102650
21
165.403665
31
0.0
0
LINE
8
0
6
CONTINUOUS
10
-19.432570
20
165.390735
30
0.0
11
-20.761830
21
165.989375
31
0.0
0
LINE
8
0
6
CONTINUOUS
10
-19.444140
20
164.206315
30
0.0
11
-19.432570
21
165.390735
31
0.0
0
LINE
8
0
6
CONTINUOUS
10
-20.784980
20
163.620615
30
0.0
11
-19.444140
21
164.206315
31
0.0
0
LINE
8
0
6
CONTINUOUS
10
-22.114240
20
164.219275
30
0.0
11
-20.784980
21
163.620615
31
0.0
0
LINE
8
0
6
CONTINUOUS
10
-29.772980
20
163.480815
30
0.0
11
-29.763040
21
164.496865
31
0.0
0
LINE
8
0
6
CONTINUOUS
10
-29.763040
20
164.496865
30
0.0
11
-28.612790
21
164.999325
31
0.0
0
LINE
8
0
6
CONTINUOUS
10
-28.612790
20
164.999325
30
0.0
11
-27.472460
21
164.485755
31
0.0
0
LINE
8
0
6
CONTINUOUS
10
-29.763040
20
164.496865
30
0.0
11
-29.772980
21
163.480815
31
0.0
0
LINE
8
0
6
CONTINUOUS
10
-28.612790
20
164.999325
30
0.0
11
-29.763040
21
164.496865
31
0.0
0
LINE
8
0
6
CONTINUOUS
10
-27.472460
20
164.485755
30
0.0
11
-28.612790
21
164.999325
31
0.0
0
LINE
8
0
6
CONTINUOUS
10
-27.482370
20
163.469725
30
0.0
11
-27.472460
21
164.485755
31
0.0
0
LINE
8
0
6
CONTINUOUS
10
-28.632640
20
162.967245
30
0.0
11
-27.482370
21
163.469725
31
0.0
0
LINE
8
0
6
CONTINUOUS
10
-29.772980
20
163.480815
30
0.0
11
-28.632640
21
162.967245
31
0.0
0
LINE
8
0
6
CONTINUOUS
10
-26.004340
20
169.352185
30
0.0
11
-25.994400
21
170.368265
31
0.0
0
LINE
8
0
6
CONTINUOUS
10
-25.994400
20
170.368265
30
0.0
11
-24.844150
21
170.870725
31
0.0
0
LINE
8
0
6
CONTINUOUS
10
-24.844150
20
170.870725
30
0.0
11
-23.703800
21
170.357135
31
0.0
0
LINE
8
0
6
CONTINUOUS
10
-25.994400
20
170.368265
30
0.0
11
-26.004340
21
169.352185
31
0.0
0
LINE
8
0
6
CONTINUOUS
10
-24.844150
20
170.870725
30
0.0
11
-25.994400
21
170.368265
31
0.0
0
LINE
8
0
6
CONTINUOUS
10
-23.703800
20
170.357135
30
0.0
11
-24.844150
21
170.870725
31
0.0
0
LINE
8
0
6
CONTINUOUS
10
-23.713730
20
169.341095
30
0.0
11
-23.703800
21
170.357135
31
0.0
0
LINE
8
0
6
CONTINUOUS
10
-24.864000
20
168.838605
30
0.0
11
-23.713730
21
169.341095
31
0.0
0
LINE
8
0
6
CONTINUOUS
10
-26.004340
20
169.352185
30
0.0
11
-24.864000
21
168.838605
31
0.0
0
LINE
8
0
6
CONTINUOUS
10
-25.004900
20
178.774525
30
0.0
11
-24.774420
21
179.775255
31
0.0
0
LINE
8
0
6
CONTINUOUS
10
-24.774420
20
179.775255
30
0.0
11
-23.531390
21
180.123345
31
0.0
0
LINE
8
0
6
CONTINUOUS
10
-23.531390
20
180.123345
30
0.0
11
-22.518830
21
179.470615
31
0.0
0
LINE
8
0
6
CONTINUOUS
10
-24.774420
20
179.775255
30
0.0
11
-25.004900
21
178.774525
31
0.0
0
LINE
8
0
6
CONTINUOUS
10
-23.531390
20
180.123345
30
0.0
11
-24.774420
21
179.775255
31
0.0
0
LINE
8
0
6
CONTINUOUS
10
-22.518830
20
179.470615
30
0.0
11
-23.531390
21
180.123345
31
0.0
0
LINE
8
0
6
CONTINUOUS
10
-22.749290
20
178.469925
30
0.0
11
-22.518830
21
179.470615
31
0.0
0
LINE
8
0
6
CONTINUOUS
10
-23.992330
20
178.121835
30
0.0
11
-22.749290
21
178.469925
31
0.0
0
LINE
8
0
6
CONTINUOUS
10
-25.004900
20
178.774525
30
0.0
11
-23.992330
21
178.121835
31
0.0
0
LINE
8
0
6
CONTINUOUS
10
-30.928160
20
173.925905
30
0.0
11
-30.697670
21
174.926635
31
0.0
0
LINE
8
0
6
CONTINUOUS
10
-30.697670
20
174.926635
30
0.0
11
-29.454650
21
175.274685
31
0.0
0
LINE
8
0
6
CONTINUOUS
10
-29.454650
20
175.274685
30
0.0
11
-28.442090
21
174.622005
31
0.0
0
LINE
8
0
6
CONTINUOUS
10
-30.697670
20
174.926635
30
0.0
11
-30.928160
21
173.925905
31
0.0
0
LINE
8
0
6
CONTINUOUS
10
-29.454650
20
175.274685
30
0.0
11
-30.697670
21
174.926635
31
0.0
0
LINE
8
0
6
CONTINUOUS
10
-28.442090
20
174.622005
30
0.0
11
-29.454650
21
175.274685
31
0.0
0
LINE
8
0
6
CONTINUOUS
10
-28.672540
20
173.621265
30
0.0
11
-28.442090
21
174.622005
31
0.0
0
LINE
8
0
6
CONTINUOUS
10
-29.915590
20
173.273225
30
0.0
11
-28.672540
21
173.621265
31
0.0
0
LINE
8
0
6
CONTINUOUS
10
-30.928160
20
173.925905
30
0.0
11
-29.915590
21
173.273225
31
0.0
0
LINE
8
0
6
CONTINUOUS
10
-35.229150
20
168.236485
30
0.0
11
-34.998670
21
169.237245
31
0.0
0
LINE
8
0
6
CONTINUOUS
10
-34.998670
20
169.237245
30
0.0
11
-33.755640
21
169.585285
31
0.0
0
LINE
8
0
6
CONTINUOUS
10
-33.755640
20
169.585285
30
0.0
11
-32.743080
21
168.932585
31
0.0
0
LINE
8
0
6
CONTINUOUS
10
-34.998670
20
169.237245
30
0.0
11
-35.229150
21
168.236485
31
0.0
0
LINE
8
0
6
CONTINUOUS
10
-33.755640
20
169.585285
30
0.0
11
-34.998670
21
169.237245
31
0.0
0
LINE
8
0
6
CONTINUOUS
10
-32.743080
20
168.932585
30
0.0
11
-33.755640
21
169.585285
31
0.0
0
LINE
8
0
6
CONTINUOUS
10
-32.973530
20
167.931855
30
0.0
11
-32.743080
21
168.932585
31
0.0
0
LINE
8
0
6
CONTINUOUS
10
-34.216590
20
167.583805
30
0.0
11
-32.973530
21
167.931855
31
0.0
0
LINE
8
0
6
CONTINUOUS
10
-35.229150
20
168.236485
30
0.0
11
-34.216590
21
167.583805
31
0.0
0
LINE
8
0
6
CONTINUOUS
10
-37.730690
20
161.867125
30
0.0
11
-37.500210
21
162.867875
31
0.0
0
LINE
8
0
6
CONTINUOUS
10
-37.500210
20
162.867875
30
0.0
11
-36.257180
21
163.215925
31
0.0
0
LINE
8
0
6
CONTINUOUS
10
-36.257180
20
163.215925
30
0.0
11
-35.244610
21
162.563235
31
0.0
0
LINE
8
0
6
CONTINUOUS
10
-37.500210
20
162.867875
30
0.0
11
-37.730690
21
161.867125
31
0.0
0
LINE
8
0
6
CONTINUOUS
10
-36.257180
20
163.215925
30
0.0
11
-37.500210
21
162.867875
31
0.0
0
LINE
8
0
6
CONTINUOUS
10
-35.244610
20
162.563235
30
0.0
11
-36.257180
21
163.215925
31
0.0
0
LINE
8
0
6
CONTINUOUS
10
-35.475070
20
161.562505
30
0.0
11
-35.244610
21
162.563235
31
0.0
0
LINE
8
0
6
CONTINUOUS
10
-36.718120
20
161.214435
30
0.0
11
-35.475070
21
161.562505
31
0.0
0
LINE
8
0
6
CONTINUOUS
10
-37.730690
20
161.867125
30
0.0
11
-36.718120
21
161.214435
31
0.0
0
LINE
8
0
6
CONTINUOUS
10
-6.378330
20
146.300875
30
0.0
11
-4.924280
21
145.805025
31
0.0
0
LINE
8
0
6
CONTINUOUS
10
-7.665860
20
145.580775
30
0.0
11
-6.378330
21
146.300875
31
0.0
0
LINE
8
0
6
CONTINUOUS
10
-4.924280
20
145.805025
30
0.0
11
-4.757740
21
144.589045
31
0.0
0
LINE
8
0
6
CONTINUOUS
10
-7.499330
20
144.364815
30
0.0
11
-6.045270
21
143.868925
31
0.0
0
LINE
8
0
6
CONTINUOUS
10
-7.665860
20
145.580775
30
0.0
11
-7.499330
21
144.364815
31
0.0
0
LINE
8
0
6
CONTINUOUS
10
-6.378330
20
146.300875
30
0.0
11
-7.665860
21
145.580775
31
0.0
0
LINE
8
0
6
CONTINUOUS
10
-4.924280
20
145.805025
30
0.0
11
-6.378330
21
146.300875
31
0.0
0
LINE
8
0
6
CONTINUOUS
10
-4.757740
20
144.589045
30
0.0
11
-4.924280
21
145.805025
31
0.0
0
LINE
8
0
6
CONTINUOUS
10
-6.045270
20
143.868925
30
0.0
11
-4.757740
21
144.589045
31
0.0
0
LINE
8
0
6
CONTINUOUS
10
-4.467030
20
130.007775
30
0.0
11
-3.258830
21
129.595755
31
0.0
0
LINE
8
0
6
CONTINUOUS
10
-4.467030
20
130.007775
30
0.0
11
-4.459861
21
131.166152
31
0.0
0
LINE
8
0
6
CONTINUOUS
10
-5.536870
20
129.409415
30
0.0
11
-4.467030
21
130.007775
31
0.0
0
LINE
8
0
6
CONTINUOUS
10
-3.258830
20
129.595755
30
0.0
11
-3.120450
21
128.585365
31
0.0
0
LINE
8
0
6
CONTINUOUS
10
-5.398500
20
128.399035
30
0.0
11
-4.190290
21
127.987005
31
0.0
0
LINE
8
0
6
CONTINUOUS
10
-5.536870
20
129.409415
30
0.0
11
-5.398500
21
128.399035
31
0.0
0
LINE
8
0
6
CONTINUOUS
10
-4.467030
20
130.007775
30
0.0
11
-5.536870
21
129.409415
31
0.0
0
LINE
8
0
6
CONTINUOUS
10
-3.258830
20
129.595755
30
0.0
11
-4.467030
21
130.007775
31
0.0
0
LINE
8
0
6
CONTINUOUS
10
-3.120450
20
128.585365
30
0.0
11
-3.258830
21
129.595755
31
0.0
0
LINE
8
0
6
CONTINUOUS
10
-4.190290
20
127.987005
30
0.0
11
-3.120450
21
128.585365
31
0.0
0
LINE
8
0
6
CONTINUOUS
10
-4.938410
20
135.191955
30
0.0
11
-3.730210
21
134.779955
31
0.0
0
LINE
8
0
6
CONTINUOUS
10
-6.008250
20
134.593615
30
0.0
11
-4.938410
21
135.191955
31
0.0
0
LINE
8
0
6
CONTINUOUS
10
-3.730210
20
134.779955
30
0.0
11
-3.591830
21
133.769565
31
0.0
0
LINE
8
0
6
CONTINUOUS
10
-5.869880
20
133.583265
30
0.0
11
-4.661670
21
133.171205
31
0.0
0
LINE
8
0
6
CONTINUOUS
10
-6.008250
20
134.593615
30
0.0
11
-5.869880
21
133.583265
31
0.0
0
LINE
8
0
6
CONTINUOUS
10
-4.938410
20
135.191955
30
0.0
11
-6.008250
21
134.593615
31
0.0
0
LINE
8
0
6
CONTINUOUS
10
-3.730210
20
134.779955
30
0.0
11
-4.938410
21
135.191955
31
0.0
0
LINE
8
0
6
CONTINUOUS
10
-3.591830
20
133.769565
30
0.0
11
-3.730210
21
134.779955
31
0.0
0
LINE
8
0
6
CONTINUOUS
10
-4.661670
20
133.171205
30
0.0
11
-3.591830
21
133.769565
31
0.0
0
LINE
8
0
6
CONTINUOUS
10
-4.178160
20
140.562495
30
0.0
11
-2.769800
21
140.082235
31
0.0
0
LINE
8
0
6
CONTINUOUS
10
-5.425250
20
139.865025
30
0.0
11
-4.178160
21
140.562495
31
0.0
0
LINE
8
0
6
CONTINUOUS
10
-2.769800
20
140.082235
30
0.0
11
-2.608490
21
138.904435
31
0.0
0
LINE
8
0
6
CONTINUOUS
10
-5.263950
20
138.687255
30
0.0
11
-3.855570
21
138.206945
31
0.0
0
LINE
8
0
6
CONTINUOUS
10
-5.425250
20
139.865025
30
0.0
11
-5.263950
21
138.687255
31
0.0
0
LINE
8
0
6
CONTINUOUS
10
-4.178160
20
140.562495
30
0.0
11
-5.425250
21
139.865025
31
0.0
0
LINE
8
0
6
CONTINUOUS
10
-2.769800
20
140.082235
30
0.0
11
-4.178160
21
140.562495
31
0.0
0
LINE
8
0
6
CONTINUOUS
10
-2.608490
20
138.904435
30
0.0
11
-2.769800
21
140.082235
31
0.0
0
LINE
8
0
6
CONTINUOUS
10
-3.855570
20
138.206945
30
0.0
11
-2.608490
21
138.904435
31
0.0
0
LINE
8
0
6
CONTINUOUS
10
-12.885540
20
131.765025
30
0.0
11
-11.677350
21
131.352985
31
0.0
0
LINE
8
0
6
CONTINUOUS
10
-13.955390
20
131.166635
30
0.0
11
-12.885540
21
131.765025
31
0.0
0
LINE
8
0
6
CONTINUOUS
10
-11.677350
20
131.352985
30
0.0
11
-11.538970
21
130.342605
31
0.0
0
LINE
8
0
6
CONTINUOUS
10
-13.817010
20
130.156285
30
0.0
11
-12.608800
21
129.744235
31
0.0
0
LINE
8
0
6
CONTINUOUS
10
-13.955390
20
131.166635
30
0.0
11
-13.817010
21
130.156285
31
0.0
0
LINE
8
0
6
CONTINUOUS
10
-12.885540
20
131.765025
30
0.0
11
-13.955390
21
131.166635
31
0.0
0
LINE
8
0
6
CONTINUOUS
10
-11.677350
20
131.352985
30
0.0
11
-12.885540
21
131.765025
31
0.0
0
LINE
8
0
6
CONTINUOUS
10
-11.538970
20
130.342605
30
0.0
11
-11.677350
21
131.352985
31
0.0
0
LINE
8
0
6
CONTINUOUS
10
-12.608800
20
129.744235
30
0.0
11
-11.538970
21
130.342605
31
0.0
0
LINE
8
0
6
CONTINUOUS
10
-13.023260
20
137.152185
30
0.0
11
-11.815060
21
136.740175
31
0.0
0
LINE
8
0
6
CONTINUOUS
10
-14.093100
20
136.553835
30
0.0
11
-13.023260
21
137.152185
31
0.0
0
LINE
8
0
6
CONTINUOUS
10
-11.815060
20
136.740175
30
0.0
11
-11.676680
21
135.729795
31
0.0
0
LINE
8
0
6
CONTINUOUS
10
-13.954720
20
135.543455
30
0.0
11
-12.746520
21
135.131415
31
0.0
0
LINE
8
0
6
CONTINUOUS
10
-14.093100
20
136.553835
30
0.0
11
-13.954720
21
135.543455
31
0.0
0
LINE
8
0
6
CONTINUOUS
10
-13.023260
20
137.152185
30
0.0
11
-14.093100
21
136.553835
31
0.0
0
LINE
8
0
6
CONTINUOUS
10
-11.815060
20
136.740175
30
0.0
11
-13.023260
21
137.152185
31
0.0
0
LINE
8
0
6
CONTINUOUS
10
-11.676680
20
135.729795
30
0.0
11
-11.815060
21
136.740175
31
0.0
0
LINE
8
0
6
CONTINUOUS
10
-12.746520
20
135.131415
30
0.0
11
-11.676680
21
135.729795
31
0.0
0
LINE
8
0
6
CONTINUOUS
10
-12.089770
20
142.911485
30
0.0
11
-10.681400
21
142.431205
31
0.0
0
LINE
8
0
6
CONTINUOUS
10
-13.336850
20
142.213985
30
0.0
11
-12.089770
21
142.911485
31
0.0
0
LINE
8
0
6
CONTINUOUS
10
-10.681400
20
142.431205
30
0.0
11
-10.520090
21
141.253435
31
0.0
0
LINE
8
0
6
CONTINUOUS
10
-13.175550
20
141.036225
30
0.0
11
-11.767180
21
140.555925
31
0.0
0
LINE
8
0
6
CONTINUOUS
10
-13.336850
20
142.213985
30
0.0
11
-13.175550
21
141.036225
31
0.0
0
LINE
8
0
6
CONTINUOUS
10
-12.089770
20
142.911485
30
0.0
11
-13.336850
21
142.213985
31
0.0
0
LINE
8
0
6
CONTINUOUS
10
-10.681400
20
142.431205
30
0.0
11
-12.089770
21
142.911485
31
0.0
0
LINE
8
0
6
CONTINUOUS
10
-10.520090
20
141.253435
30
0.0
11
-10.681400
21
142.431205
31
0.0
0
LINE
8
0
6
CONTINUOUS
10
-11.767180
20
140.555925
30
0.0
11
-10.520090
21
141.253435
31
0.0
0
LINE
8
0
6
CONTINUOUS
10
-12.974170
20
150.212325
30
0.0
11
-11.520130
21
149.716475
31
0.0
0
LINE
8
0
6
CONTINUOUS
10
-14.261700
20
149.492215
30
0.0
11
-12.974170
21
150.212325
31
0.0
0
LINE
8
0
6
CONTINUOUS
10
-11.520130
20
149.716475
30
0.0
11
-11.353590
21
148.500495
31
0.0
0
LINE
8
0
6
CONTINUOUS
10
-14.095170
20
148.276255
30
0.0
11
-12.641120
21
147.780385
31
0.0
0
LINE
8
0
6
CONTINUOUS
10
-14.261700
20
149.492215
30
0.0
11
-14.095170
21
148.276255
31
0.0
0
LINE
8
0
6
CONTINUOUS
10
-12.974170
20
150.212325
30
0.0
11
-14.261700
21
149.492215
31
0.0
0
LINE
8
0
6
CONTINUOUS
10
-11.520130
20
149.716475
30
0.0
11
-12.974170
21
150.212325
31
0.0
0
LINE
8
0
6
CONTINUOUS
10
-11.353590
20
148.500495
30
0.0
11
-11.520130
21
149.716475
31
0.0
0
LINE
8
0
6
CONTINUOUS
10
-12.641120
20
147.780385
30
0.0
11
-11.353590
21
148.500495
31
0.0
0
LINE
8
0
6
CONTINUOUS
10
-16.115210
20
156.105875
30
0.0
11
-14.661170
21
155.610035
31
0.0
0
LINE
8
0
6
CONTINUOUS
10
-17.402740
20
155.385785
30
0.0
11
-16.115210
21
156.105875
31
0.0
0
LINE
8
0
6
CONTINUOUS
10
-14.661170
20
155.610035
30
0.0
11
-14.494630
21
154.394035
31
0.0
0
LINE
8
0
6
CONTINUOUS
10
-17.236220
20
154.169815
30
0.0
11
-15.782160
21
153.673925
31
0.0
0
LINE
8
0
6
CONTINUOUS
10
-17.402740
20
155.385785
30
0.0
11
-17.236220
21
154.169815
31
0.0
0
LINE
8
0
6
CONTINUOUS
10
-16.115210
20
156.105875
30
0.0
11
-17.402740
21
155.385785
31
0.0
0
LINE
8
0
6
CONTINUOUS
10
-14.661170
20
155.610035
30
0.0
11
-16.115210
21
156.105875
31
0.0
0
LINE
8
0
6
CONTINUOUS
10
-14.494630
20
154.394035
30
0.0
11
-14.661170
21
155.610035
31
0.0
0
LINE
8
0
6
CONTINUOUS
10
-15.782160
20
153.673925
30
0.0
11
-14.494630
21
154.394035
31
0.0
0
LINE
8
0
6
CONTINUOUS
10
-18.526370
20
147.226125
30
0.0
11
-17.118000
21
146.745845
31
0.0
0
LINE
8
0
6
CONTINUOUS
10
-19.773450
20
146.528625
30
0.0
11
-18.526370
21
147.226125
31
0.0
0
LINE
8
0
6
CONTINUOUS
10
-17.118000
20
146.745845
30
0.0
11
-16.956690
21
145.568045
31
0.0
0
LINE
8
0
6
CONTINUOUS
10
-19.612150
20
145.350845
30
0.0
11
-18.203780
21
144.870545
31
0.0
0
LINE
8
0
6
CONTINUOUS
10
-19.773450
20
146.528625
30
0.0
11
-19.612150
21
145.350845
31
0.0
0
LINE
8
0
6
CONTINUOUS
10
-18.526370
20
147.226125
30
0.0
11
-19.773450
21
146.528625
31
0.0
0
LINE
8
0
6
CONTINUOUS
10
-17.118000
20
146.745845
30
0.0
11
-18.526370
21
147.226125
31
0.0
0
LINE
8
0
6
CONTINUOUS
10
-16.956690
20
145.568045
30
0.0
11
-17.118000
21
146.745845
31
0.0
0
LINE
8
0
6
CONTINUOUS
10
-18.203780
20
144.870545
30
0.0
11
-16.956690
21
145.568045
31
0.0
0
LINE
8
0
6
CONTINUOUS
10
-22.201850
20
152.930075
30
0.0
11
-20.793480
21
152.449815
31
0.0
0
LINE
8
0
6
CONTINUOUS
10
-23.448930
20
152.232595
30
0.0
11
-22.201850
21
152.930075
31
0.0
0
LINE
8
0
6
CONTINUOUS
10
-20.793480
20
152.449815
30
0.0
11
-20.632180
21
151.272025
31
0.0
0
LINE
8
0
6
CONTINUOUS
10
-23.287630
20
151.054845
30
0.0
11
-21.879260
21
150.574545
31
0.0
0
LINE
8
0
6
CONTINUOUS
10
-23.448930
20
152.232595
30
0.0
11
-23.287630
21
151.054845
31
0.0
0
LINE
8
0
6
CONTINUOUS
10
-22.201850
20
152.930075
30
0.0
11
-23.448930
21
152.232595
31
0.0
0
LINE
8
0
6
CONTINUOUS
10
-20.793480
20
152.449815
30
0.0
11
-22.201850
21
152.930075
31
0.0
0
LINE
8
0
6
CONTINUOUS
10
-20.632180
20
151.272025
30
0.0
11
-20.793480
21
152.449815
31
0.0
0
LINE
8
0
6
CONTINUOUS
10
-21.879260
20
150.574545
30
0.0
11
-20.632180
21
151.272025
31
0.0
0
LINE
8
0
6
CONTINUOUS
10
-20.121290
20
140.925015
30
0.0
11
-18.913090
21
140.513005
31
0.0
0
LINE
8
0
6
CONTINUOUS
10
-20.121290
20
140.925015
30
0.0
11
-20.117487
21
141.539251
31
0.0
0
LINE
8
0
6
CONTINUOUS
10
-21.191130
20
140.326655
30
0.0
11
-20.121290
21
140.925015
31
0.0
0
LINE
8
0
6
CONTINUOUS
10
-21.187006
20
140.993053
30
0.0
11
-21.191130
21
140.326655
31
0.0
0
LINE
8
0
6
CONTINUOUS
10
-18.774710
20
139.502585
30
0.0
11
-18.770819
21
140.131279
31
0.0
0
LINE
8
0
6
CONTINUOUS
10
-18.913090
20
140.513005
30
0.0
11
-18.774710
21
139.502585
31
0.0
0
LINE
8
0
6
CONTINUOUS
10
-18.909403
20
141.108383
30
0.0
11
-18.913090
21
140.513005
31
0.0
0
LINE
8
0
6
CONTINUOUS
10
-21.052750
20
139.316265
30
0.0
11
-19.844550
21
138.904245
31
0.0
0
LINE
8
0
6
CONTINUOUS
10
-21.191130
20
140.326655
30
0.0
11
-21.052750
21
139.316265
31
0.0
0
LINE
8
0
6
CONTINUOUS
10
-20.121290
20
140.925015
30
0.0
11
-21.191130
21
140.326655
31
0.0
0
LINE
8
0
6
CONTINUOUS
10
-18.913090
20
140.513005
30
0.0
11
-20.121290
21
140.925015
31
0.0
0
LINE
8
0
6
CONTINUOUS
10
-18.774710
20
139.502585
30
0.0
11
-18.913090
21
140.513005
31
0.0
0
LINE
8
0
6
CONTINUOUS
10
-19.844550
20
138.904245
30
0.0
11
-18.774710
21
139.502585
31
0.0
0
LINE
8
0
6
CONTINUOUS
10
-25.652190
20
145.930585
30
0.0
11
-24.443980
21
145.518575
31
0.0
0
LINE
8
0
6
CONTINUOUS
10
-26.722020
20
145.332265
30
0.0
11
-25.652190
21
145.930585
31
0.0
0
LINE
8
0
6
CONTINUOUS
10
-24.443980
20
145.518575
30
0.0
11
-24.305600
21
144.508195
31
0.0
0
LINE
8
0
6
CONTINUOUS
10
-26.583650
20
144.321875
30
0.0
11
-25.375450
21
143.909815
31
0.0
0
LINE
8
0
6
CONTINUOUS
10
-26.722020
20
145.332265
30
0.0
11
-26.583650
21
144.321875
31
0.0
0
LINE
8
0
6
CONTINUOUS
10
-25.652190
20
145.930585
30
0.0
11
-26.722020
21
145.332265
31
0.0
0
LINE
8
0
6
CONTINUOUS
10
-24.443980
20
145.518575
30
0.0
11
-25.652190
21
145.930585
31
0.0
0
LINE
8
0
6
CONTINUOUS
10
-24.305600
20
144.508195
30
0.0
11
-24.443980
21
145.518575
31
0.0
0
LINE
8
0
6
CONTINUOUS
10
-25.375450
20
143.909815
30
0.0
11
-24.305600
21
144.508195
31
0.0
0
LINE
8
0
6
CONTINUOUS
10
-29.104620
20
151.923245
30
0.0
11
-27.896420
21
151.511235
31
0.0
0
LINE
8
0
6
CONTINUOUS
10
-30.174450
20
151.324905
30
0.0
11
-29.104620
21
151.923245
31
0.0
0
LINE
8
0
6
CONTINUOUS
10
-27.896420
20
151.511235
30
0.0
11
-27.758040
21
150.500855
31
0.0
0
LINE
8
0
6
CONTINUOUS
10
-30.036080
20
150.314515
30
0.0
11
-28.827870
21
149.902495
31
0.0
0
LINE
8
0
6
CONTINUOUS
10
-30.174450
20
151.324905
30
0.0
11
-30.036080
21
150.314515
31
0.0
0
LINE
8
0
6
CONTINUOUS
10
-29.104620
20
151.923245
30
0.0
11
-30.174450
21
151.324905
31
0.0
0
LINE
8
0
6
CONTINUOUS
10
-27.896420
20
151.511235
30
0.0
11
-29.104620
21
151.923245
31
0.0
0
LINE
8
0
6
CONTINUOUS
10
-27.758040
20
150.500855
30
0.0
11
-27.896420
21
151.511235
31
0.0
0
LINE
8
0
6
CONTINUOUS
10
-28.827870
20
149.902495
30
0.0
11
-27.758040
21
150.500855
31
0.0
0
LINE
8
0
6
CONTINUOUS
10
-36.679530
20
148.678685
30
0.0
11
-36.596490
21
149.692845
31
0.0
0
LINE
8
0
6
CONTINUOUS
10
-35.411900
20
150.145765
30
0.0
11
-34.310370
21
149.584545
31
0.0
0
LINE
8
0
6
CONTINUOUS
10
-36.596490
20
149.692845
30
0.0
11
-35.411900
21
150.145765
31
0.0
0
LINE
8
0
6
CONTINUOUS
10
-36.679530
20
148.678685
30
0.0
11
-35.578000
21
148.117445
31
0.0
0
LINE
8
0
6
CONTINUOUS
10
-36.596490
20
149.692845
30
0.0
11
-36.679530
21
148.678685
31
0.0
0
LINE
8
0
6
CONTINUOUS
10
-35.411900
20
150.145765
30
0.0
11
-36.596490
21
149.692845
31
0.0
0
LINE
8
0
6
CONTINUOUS
10
-34.310370
20
149.584545
30
0.0
11
-35.411900
21
150.145765
31
0.0
0
LINE
8
0
6
CONTINUOUS
10
-34.393420
20
148.570365
30
0.0
11
-34.310370
21
149.584545
31
0.0
0
LINE
8
0
6
CONTINUOUS
10
-35.578000
20
148.117445
30
0.0
11
-34.393420
21
148.570365
31
0.0
0
LINE
8
0
6
CONTINUOUS
10
-33.210430
20
142.642635
30
0.0
11
-33.127390
21
143.656775
31
0.0
0
LINE
8
0
6
CONTINUOUS
10
-31.942810
20
144.109695
30
0.0
11
-30.841290
21
143.548475
31
0.0
0
LINE
8
0
6
CONTINUOUS
10
-33.127390
20
143.656775
30
0.0
11
-31.942810
21
144.109695
31
0.0
0
LINE
8
0
6
CONTINUOUS
10
-33.210430
20
142.642635
30
0.0
11
-32.108910
21
142.081375
31
0.0
0
LINE
8
0
6
CONTINUOUS
10
-33.127390
20
143.656775
30
0.0
11
-33.210430
21
142.642635
31
0.0
0
LINE
8
0
6
CONTINUOUS
10
-31.942810
20
144.109695
30
0.0
11
-33.127390
21
143.656775
31
0.0
0
LINE
8
0
6
CONTINUOUS
10
-30.841290
20
143.548475
30
0.0
11
-31.942810
21
144.109695
31
0.0
0
LINE
8
0
6
CONTINUOUS
10
-30.924320
20
142.534295
30
0.0
11
-30.841290
21
143.548475
31
0.0
0
LINE
8
0
6
CONTINUOUS
10
-32.108910
20
142.081375
30
0.0
11
-30.924320
21
142.534295
31
0.0
0
LINE
8
0
6
CONTINUOUS
10
-28.111610
20
137.344495
30
0.0
11
-28.028560
21
138.358635
31
0.0
0
LINE
8
0
6
CONTINUOUS
10
-25.742450
20
138.250355
30
0.0
11
-25.739557
21
138.839036
31
0.0
0
LINE
8
0
6
CONTINUOUS
10
-26.843990
20
138.811565
30
0.0
11
-25.742450
21
138.250355
31
0.0
0
LINE
8
0
6
CONTINUOUS
10
-26.843990
20
138.811565
30
0.0
11
-26.841044
21
139.410600
31
0.0
0
LINE
8
0
6
CONTINUOUS
10
-28.028560
20
138.358635
30
0.0
11
-26.843990
21
138.811565
31
0.0
0
LINE
8
0
6
CONTINUOUS
10
-28.111610
20
137.344495
30
0.0
11
-27.010080
21
136.783245
31
0.0
0
LINE
8
0
6
CONTINUOUS
10
-28.028560
20
138.358635
30
0.0
11
-28.111610
21
137.344495
31
0.0
0
LINE
8
0
6
CONTINUOUS
10
-26.843990
20
138.811565
30
0.0
11
-28.028560
21
138.358635
31
0.0
0
LINE
8
0
6
CONTINUOUS
10
-25.742450
20
138.250355
30
0.0
11
-26.843990
21
138.811565
31
0.0
0
LINE
8
0
6
CONTINUOUS
10
-25.825500
20
137.236165
30
0.0
11
-25.742450
21
138.250355
31
0.0
0
LINE
8
0
6
CONTINUOUS
10
-27.010080
20
136.783245
30
0.0
11
-25.825500
21
137.236165
31
0.0
0
LINE
8
0
6
CONTINUOUS
10
-21.620710
20
133.218585
30
0.0
11
-21.537660
21
134.232735
31
0.0
0
LINE
8
0
6
CONTINUOUS
10
-20.353080
20
134.685655
30
0.0
11
-19.251560
21
134.124425
31
0.0
0
LINE
8
0
6
CONTINUOUS
10
-21.537660
20
134.232735
30
0.0
11
-20.353080
21
134.685655
31
0.0
0
LINE
8
0
6
CONTINUOUS
10
-21.620710
20
133.218585
30
0.0
11
-20.519180
21
132.657325
31
0.0
0
LINE
8
0
6
CONTINUOUS
10
-21.537660
20
134.232735
30
0.0
11
-21.620710
21
133.218585
31
0.0
0
LINE
8
0
6
CONTINUOUS
10
-20.353080
20
134.685655
30
0.0
11
-21.537660
21
134.232735
31
0.0
0
LINE
8
0
6
CONTINUOUS
10
-19.251560
20
134.124425
30
0.0
11
-20.353080
21
134.685655
31
0.0
0
LINE
8
0
6
CONTINUOUS
10
-19.334600
20
133.110245
30
0.0
11
-19.251560
21
134.124425
31
0.0
0
LINE
8
0
6
CONTINUOUS
10
-20.519180
20
132.657325
30
0.0
11
-19.334600
21
133.110245
31
0.0
0
LINE
8
0
6
CONTINUOUS
10
10.236120
20
155.331045
30
0.0
11
10.238360
21
154.108205
31
0.0
0
LINE
8
0
6
CONTINUOUS
10
8.856640
20
155.939655
30
0.0
11
10.236120
21
155.331045
31
0.0
0
LINE
8
0
6
CONTINUOUS
10
7.479370
20
155.325445
30
0.0
11
8.856640
21
155.939655
31
0.0
0
LINE
8
0
6
CONTINUOUS
10
8.861090
20
153.494025
30
0.0
11
10.238360
21
154.108205
31
0.0
0
LINE
8
0
6
CONTINUOUS
10
7.481580
20
154.102655
30
0.0
11
8.861090
21
153.494025
31
0.0
0
LINE
8
0
6
CONTINUOUS
10
7.479370
20
155.325445
30
0.0
11
7.481580
21
154.102655
31
0.0
0
LINE
8
0
6
CONTINUOUS
10
8.856640
20
155.939655
30
0.0
11
7.479370
21
155.325445
31
0.0
0
LINE
8
0
6
CONTINUOUS
10
10.236120
20
155.331045
30
0.0
11
8.856640
21
155.939655
31
0.0
0
LINE
8
0
6
CONTINUOUS
10
10.238360
20
154.108205
30
0.0
11
10.236120
21
155.331045
31
0.0
0
LINE
8
0
6
CONTINUOUS
10
-8.510480
20
160.655435
30
0.0
11
-7.571500
21
161.643625
31
0.0
0
LINE
8
0
6
CONTINUOUS
10
-7.571500
20
161.643625
30
0.0
11
-5.989060
21
161.513995
31
0.0
0
LINE
8
0
6
CONTINUOUS
10
-5.989060
20
161.513995
30
0.0
11
-5.345590
21
160.396145
31
0.0
0
LINE
8
0
6
CONTINUOUS
10
-5.989060
20
161.513995
30
0.0
11
-7.571500
21
161.643625
31
0.0
0
LINE
8
0
6
CONTINUOUS
10
-5.345590
20
160.396145
30
0.0
11
-5.989060
21
161.513995
31
0.0
0
LINE
8
0
6
CONTINUOUS
10
-6.284570
20
159.407945
30
0.0
11
-5.345590
21
160.396145
31
0.0
0
LINE
8
0
6
CONTINUOUS
10
-7.867020
20
159.537575
30
0.0
11
-6.284570
21
159.407945
31
0.0
0
LINE
8
0
6
CONTINUOUS
10
-8.510480
20
160.655435
30
0.0
11
-7.867020
21
159.537575
31
0.0
0
LINE
8
0
6
CONTINUOUS
10
-7.571500
20
161.643625
30
0.0
11
-8.510480
21
160.655435
31
0.0
0
LINE
8
0
6
CONTINUOUS
10
8.339700
20
161.450815
30
0.0
11
8.663860
21
160.253875
31
0.0
0
LINE
8
0
6
CONTINUOUS
10
6.828170
20
161.832305
30
0.0
11
8.339700
21
161.450815
31
0.0
0
LINE
8
0
6
CONTINUOUS
10
5.640810
20
161.016905
30
0.0
11
6.828170
21
161.832305
31
0.0
0
LINE
8
0
6
CONTINUOUS
10
8.663860
20
160.253875
30
0.0
11
8.339700
21
161.450815
31
0.0
0
LINE
8
0
6
CONTINUOUS
10
7.476480
20
159.438455
30
0.0
11
8.663860
21
160.253875
31
0.0
0
LINE
8
0
6
CONTINUOUS
10
5.964970
20
159.819985
30
0.0
11
7.476480
21
159.438455
31
0.0
0
LINE
8
0
6
CONTINUOUS
10
5.640810
20
161.016905
30
0.0
11
5.964970
21
159.819985
31
0.0
0
LINE
8
0
6
CONTINUOUS
10
6.828170
20
161.832305
30
0.0
11
5.640810
21
161.016905
31
0.0
0
LINE
8
0
6
CONTINUOUS
10
8.339700
20
161.450815
30
0.0
11
6.828170
21
161.832305
31
0.0
0
LINE
8
0
6
CONTINUOUS
10
-10.336800
20
154.515955
30
0.0
11
-9.689560
21
155.633715
31
0.0
0
LINE
8
0
6
CONTINUOUS
10
-9.689560
20
155.633715
30
0.0
11
-8.106690
21
155.763165
31
0.0
0
LINE
8
0
6
CONTINUOUS
10
-8.106690
20
155.763165
30
0.0
11
-7.171080
21
154.774815
31
0.0
0
LINE
8
0
6
CONTINUOUS
10
-9.689560
20
155.633715
30
0.0
11
-10.336800
21
154.515955
31
0.0
0
LINE
8
0
6
CONTINUOUS
10
-8.106690
20
155.763165
30
0.0
11
-9.689560
21
155.633715
31
0.0
0
LINE
8
0
6
CONTINUOUS
10
-7.171080
20
154.774815
30
0.0
11
-8.106690
21
155.763165
31
0.0
0
LINE
8
0
6
CONTINUOUS
10
-7.818320
20
153.657045
30
0.0
11
-7.171080
21
154.774815
31
0.0
0
LINE
8
0
6
CONTINUOUS
10
-9.401170
20
153.527615
30
0.0
11
-7.818320
21
153.657045
31
0.0
0
LINE
8
0
6
CONTINUOUS
10
-10.336800
20
154.515955
30
0.0
11
-9.401170
21
153.527615
31
0.0
0
LINE
8
0
6
CONTINUOUS
10
2.449100
20
149.699475
30
0.0
11
2.780410
21
150.895865
31
0.0
0
LINE
8
0
6
CONTINUOUS
10
2.780410
20
150.895865
30
0.0
11
4.294200
21
151.274825
31
0.0
0
LINE
8
0
6
CONTINUOUS
10
4.294200
20
151.274825
30
0.0
11
5.476720
21
150.457425
31
0.0
0
LINE
8
0
6
CONTINUOUS
10
2.449100
20
149.699475
30
0.0
11
3.631610
21
148.882105
31
0.0
0
LINE
8
0
6
CONTINUOUS
10
2.780410
20
150.895865
30
0.0
11
2.449100
21
149.699475
31
0.0
0
LINE
8
0
6
CONTINUOUS
10
4.294200
20
151.274825
30
0.0
11
2.780410
21
150.895865
31
0.0
0
LINE
8
0
6
CONTINUOUS
10
5.476720
20
150.457425
30
0.0
11
4.294200
21
151.274825
31
0.0
0
LINE
8
0
6
CONTINUOUS
10
5.145420
20
149.261065
30
0.0
11
5.476720
21
150.457425
31
0.0
0
LINE
8
0
6
CONTINUOUS
10
3.631610
20
148.882105
30
0.0
11
5.145420
21
149.261065
31
0.0
0
LINE
8
0
6
CONTINUOUS
10
-5.396110
20
149.810455
30
0.0
11
-4.748870
21
150.928245
31
0.0
0
LINE
8
0
6
CONTINUOUS
10
-4.748870
20
150.928245
30
0.0
11
-3.165990
21
151.057675
31
0.0
0
LINE
8
0
6
CONTINUOUS
10
-3.165990
20
151.057675
30
0.0
11
-2.230390
21
150.069345
31
0.0
0
LINE
8
0
6
CONTINUOUS
10
-4.748870
20
150.928245
30
0.0
11
-5.396110
21
149.810455
31
0.0
0
LINE
8
0
6
CONTINUOUS
10
-3.165990
20
151.057675
30
0.0
11
-4.748870
21
150.928245
31
0.0
0
LINE
8
0
6
CONTINUOUS
10
-2.230390
20
150.069345
30
0.0
11
-3.165990
21
151.057675
31
0.0
0
LINE
8
0
6
CONTINUOUS
10
-2.877630
20
148.951555
30
0.0
11
-2.230390
21
150.069345
31
0.0
0
LINE
8
0
6
CONTINUOUS
10
-4.460480
20
148.822135
30
0.0
11
-2.877630
21
148.951555
31
0.0
0
LINE
8
0
6
CONTINUOUS
10
-5.396110
20
149.810455
30
0.0
11
-4.460480
21
148.822135
31
0.0
0
LINE
8
0
6
CONTINUOUS
10
-1.556470
20
163.077915
30
0.0
11
-0.909230
21
164.195705
31
0.0
0
LINE
8
0
6
CONTINUOUS
10
-0.909230
20
164.195705
30
0.0
11
0.673650
21
164.325135
31
0.0
0
LINE
8
0
6
CONTINUOUS
10
0.673650
20
164.325135
30
0.0
11
1.609250
21
163.336805
31
0.0
0
LINE
8
0
6
CONTINUOUS
10
-0.909230
20
164.195705
30
0.0
11
-1.556470
21
163.077915
31
0.0
0
LINE
8
0
6
CONTINUOUS
10
0.673650
20
164.325135
30
0.0
11
-0.909230
21
164.195705
31
0.0
0
LINE
8
0
6
CONTINUOUS
10
1.609250
20
163.336805
30
0.0
11
0.673650
21
164.325135
31
0.0
0
LINE
8
0
6
CONTINUOUS
10
0.962010
20
162.219015
30
0.0
11
1.609250
21
163.336805
31
0.0
0
LINE
8
0
6
CONTINUOUS
10
-0.620840
20
162.089585
30
0.0
11
0.962010
21
162.219015
31
0.0
0
LINE
8
0
6
CONTINUOUS
10
-1.556470
20
163.077915
30
0.0
11
-0.620840
21
162.089585
31
0.0
0
LINE
8
0
6
CONTINUOUS
10
17.413430
20
158.514815
30
0.0
11
17.415670
21
157.291995
31
0.0
0
LINE
8
0
6
CONTINUOUS
10
16.033940
20
159.123445
30
0.0
11
17.413430
21
158.514815
31
0.0
0
LINE
8
0
6
CONTINUOUS
10
14.656680
20
158.509245
30
0.0
11
16.033940
21
159.123445
31
0.0
0
LINE
8
0
6
CONTINUOUS
10
16.038390
20
156.677795
30
0.0
11
17.415670
21
157.291995
31
0.0
0
LINE
8
0
6
CONTINUOUS
10
14.658890
20
157.286445
30
0.0
11
16.038390
21
156.677795
31
0.0
0
LINE
8
0
6
CONTINUOUS
10
14.656680
20
158.509245
30
0.0
11
14.658890
21
157.286445
31
0.0
0
LINE
8
0
6
CONTINUOUS
10
16.033940
20
159.123445
30
0.0
11
14.656680
21
158.509245
31
0.0
0
LINE
8
0
6
CONTINUOUS
10
17.413430
20
158.514815
30
0.0
11
16.033940
21
159.123445
31
0.0
0
LINE
8
0
6
CONTINUOUS
10
17.415670
20
157.291995
30
0.0
11
17.413430
21
158.514815
31
0.0
0
LINE
8
0
6
CONTINUOUS
10
24.302540
20
159.031155
30
0.0
11
24.304710
21
157.846745
31
0.0
0
LINE
8
0
6
CONTINUOUS
10
22.966390
20
159.620645
30
0.0
11
24.302540
21
159.031155
31
0.0
0
LINE
8
0
6
CONTINUOUS
10
21.632390
20
159.025775
30
0.0
11
22.966390
21
159.620645
31
0.0
0
LINE
8
0
6
CONTINUOUS
10
22.970700
20
157.251845
30
0.0
11
24.304710
21
157.846745
31
0.0
0
LINE
8
0
6
CONTINUOUS
10
21.634530
20
157.841375
30
0.0
11
22.970700
21
157.251845
31
0.0
0
LINE
8
0
6
CONTINUOUS
10
21.632390
20
159.025775
30
0.0
11
21.634530
21
157.841375
31
0.0
0
LINE
8
0
6
CONTINUOUS
10
22.966390
20
159.620645
30
0.0
11
21.632390
21
159.025775
31
0.0
0
LINE
8
0
6
CONTINUOUS
10
24.302540
20
159.031155
30
0.0
11
22.966390
21
159.620645
31
0.0
0
LINE
8
0
6
CONTINUOUS
10
24.304710
20
157.846745
30
0.0
11
24.302540
21
159.031155
31
0.0
0
LINE
8
0
6
CONTINUOUS
10
31.217830
20
157.156445
30
0.0
11
31.219700
21
156.140395
31
0.0
0
LINE
8
0
6
CONTINUOUS
10
30.071580
20
157.662195
30
0.0
11
31.217830
21
157.156445
31
0.0
0
LINE
8
0
6
CONTINUOUS
10
28.927180
20
157.151825
30
0.0
11
30.071580
21
157.662195
31
0.0
0
LINE
8
0
6
CONTINUOUS
10
28.927561
20
157.749444
30
0.0
11
28.927180
21
157.151825
31
0.0
0
LINE
8
0
6
CONTINUOUS
10
30.075280
20
155.630045
30
0.0
11
31.219700
21
156.140395
31
0.0
0
LINE
8
0
6
CONTINUOUS
10
28.929020
20
156.135765
30
0.0
11
30.075280
21
155.630045
31
0.0
0
LINE
8
0
6
CONTINUOUS
10
28.927180
20
157.151825
30
0.0
11
28.929020
21
156.135765
31
0.0
0
LINE
8
0
6
CONTINUOUS
10
30.071580
20
157.662195
30
0.0
11
28.927180
21
157.151825
31
0.0
0
LINE
8
0
6
CONTINUOUS
10
31.217830
20
157.156445
30
0.0
11
30.071580
21
157.662195
31
0.0
0
LINE
8
0
6
CONTINUOUS
10
31.219700
20
156.140395
30
0.0
11
31.217830
21
157.156445
31
0.0
0
LINE
8
0
6
CONTINUOUS
10
38.236730
20
156.186235
30
0.0
11
38.238590
21
155.170165
31
0.0
0
LINE
8
0
6
CONTINUOUS
10
38.062568
20
156.263073
30
0.0
11
38.236730
21
156.186235
31
0.0
0
LINE
8
0
6
CONTINUOUS
10
37.094180
20
154.659815
30
0.0
11
38.238590
21
155.170165
31
0.0
0
LINE
8
0
6
CONTINUOUS
10
38.236730
20
156.186235
30
0.0
11
38.062568
21
156.263073
31
0.0
0
LINE
8
0
6
CONTINUOUS
10
38.238590
20
155.170165
30
0.0
11
38.236730
21
156.186235
31
0.0
0
LINE
8
0
6
CONTINUOUS
10
38.062540
20
156.264815
30
0.0
11
38.064400
21
155.248735
31
0.0
0
LINE
8
0
6
CONTINUOUS
10
36.916290
20
156.770535
30
0.0
11
38.062540
21
156.264815
31
0.0
0
LINE
8
0
6
CONTINUOUS
10
35.771890
20
156.260175
30
0.0
11
36.916290
21
156.770535
31
0.0
0
LINE
8
0
6
CONTINUOUS
10
35.772264
20
156.849534
30
0.0
11
35.771890
21
156.260175
31
0.0
0
LINE
8
0
6
CONTINUOUS
10
36.919990
20
154.738395
30
0.0
11
38.064400
21
155.248735
31
0.0
0
LINE
8
0
6
CONTINUOUS
10
35.773730
20
155.244125
30
0.0
11
36.919990
21
154.738395
31
0.0
0
LINE
8
0
6
CONTINUOUS
10
35.771890
20
156.260175
30
0.0
11
35.773730
21
155.244125
31
0.0
0
LINE
8
0
6
CONTINUOUS
10
36.916290
20
156.770535
30
0.0
11
35.771890
21
156.260175
31
0.0
0
LINE
8
0
6
CONTINUOUS
10
38.062540
20
156.264815
30
0.0
11
36.916290
21
156.770535
31
0.0
0
LINE
8
0
6
CONTINUOUS
10
38.064400
20
155.248735
30
0.0
11
38.062540
21
156.264815
31
0.0
0
LINE
8
0
6
CONTINUOUS
10
31.217830
20
157.156465
30
0.0
11
31.219700
21
156.140395
31
0.0
0
LINE
8
0
6
CONTINUOUS
10
30.071580
20
157.662195
30
0.0
11
31.217830
21
157.156465
31
0.0
0
LINE
8
0
6
CONTINUOUS
10
28.927180
20
157.151825
30
0.0
11
30.071580
21
157.662195
31
0.0
0
LINE
8
0
6
CONTINUOUS
10
28.927561
20
157.749444
30
0.0
11
28.927180
21
157.151825
31
0.0
0
LINE
8
0
6
CONTINUOUS
10
30.075280
20
155.630045
30
0.0
11
31.219700
21
156.140395
31
0.0
0
LINE
8
0
6
CONTINUOUS
10
28.929020
20
156.135765
30
0.0
11
30.075280
21
155.630045
31
0.0
0
LINE
8
0
6
CONTINUOUS
10
28.927180
20
157.151825
30
0.0
11
28.929020
21
156.135765
31
0.0
0
LINE
8
0
6
CONTINUOUS
10
30.071580
20
157.662195
30
0.0
11
28.927180
21
157.151825
31
0.0
0
LINE
8
0
6
CONTINUOUS
10
31.217830
20
157.156465
30
0.0
11
30.071580
21
157.662195
31
0.0
0
LINE
8
0
6
CONTINUOUS
10
31.219700
20
156.140395
30
0.0
11
31.217830
21
157.156465
31
0.0
0
LINE
8
0
6
CONTINUOUS
10
24.302540
20
159.031155
30
0.0
11
24.304710
21
157.846745
31
0.0
0
LINE
8
0
6
CONTINUOUS
10
22.966390
20
159.620645
30
0.0
11
24.302540
21
159.031155
31
0.0
0
LINE
8
0
6
CONTINUOUS
10
21.632390
20
159.025775
30
0.0
11
22.966390
21
159.620645
31
0.0
0
LINE
8
0
6
CONTINUOUS
10
22.970700
20
157.251845
30
0.0
11
24.304710
21
157.846745
31
0.0
0
LINE
8
0
6
CONTINUOUS
10
21.634530
20
157.841375
30
0.0
11
22.970700
21
157.251845
31
0.0
0
LINE
8
0
6
CONTINUOUS
10
21.632390
20
159.025775
30
0.0
11
21.634530
21
157.841375
31
0.0
0
LINE
8
0
6
CONTINUOUS
10
22.966390
20
159.620645
30
0.0
11
21.632390
21
159.025775
31
0.0
0
LINE
8
0
6
CONTINUOUS
10
24.302540
20
159.031155
30
0.0
11
22.966390
21
159.620645
31
0.0
0
LINE
8
0
6
CONTINUOUS
10
24.304710
20
157.846745
30
0.0
11
24.302540
21
159.031155
31
0.0
0
LINE
8
0
6
CONTINUOUS
10
17.413430
20
158.514815
30
0.0
11
17.415670
21
157.291995
31
0.0
0
LINE
8
0
6
CONTINUOUS
10
16.033940
20
159.123445
30
0.0
11
17.413430
21
158.514815
31
0.0
0
LINE
8
0
6
CONTINUOUS
10
14.656680
20
158.509245
30
0.0
11
16.033940
21
159.123445
31
0.0
0
LINE
8
0
6
CONTINUOUS
10
16.038400
20
156.677795
30
0.0
11
17.415670
21
157.291995
31
0.0
0
LINE
8
0
6
CONTINUOUS
10
14.658890
20
157.286445
30
0.0
11
16.038400
21
156.677795
31
0.0
0
LINE
8
0
6
CONTINUOUS
10
14.656680
20
158.509245
30
0.0
11
14.658890
21
157.286445
31
0.0
0
LINE
8
0
6
CONTINUOUS
10
16.033940
20
159.123445
30
0.0
11
14.656680
21
158.509245
31
0.0
0
LINE
8
0
6
CONTINUOUS
10
17.413430
20
158.514815
30
0.0
11
16.033940
21
159.123445
31
0.0
0
LINE
8
0
6
CONTINUOUS
10
17.415670
20
157.291995
30
0.0
11
17.413430
21
158.514815
31
0.0
0
LINE
8
0
6
CONTINUOUS
10
14.218690
20
164.499895
30
0.0
11
14.220920
21
163.277075
31
0.0
0
LINE
8
0
6
CONTINUOUS
10
12.839200
20
165.108525
30
0.0
11
14.218690
21
164.499895
31
0.0
0
LINE
8
0
6
CONTINUOUS
10
11.461930
20
164.494315
30
0.0
11
12.839200
21
165.108525
31
0.0
0
LINE
8
0
6
CONTINUOUS
10
12.843650
20
162.662875
30
0.0
11
14.220920
21
163.277075
31
0.0
0
LINE
8
0
6
CONTINUOUS
10
11.464140
20
163.271515
30
0.0
11
12.843650
21
162.662875
31
0.0
0
LINE
8
0
6
CONTINUOUS
10
11.461930
20
164.494315
30
0.0
11
11.464140
21
163.271515
31
0.0
0
LINE
8
0
6
CONTINUOUS
10
12.839200
20
165.108525
30
0.0
11
11.461930
21
164.494315
31
0.0
0
LINE
8
0
6
CONTINUOUS
10
14.218690
20
164.499895
30
0.0
11
12.839200
21
165.108525
31
0.0
0
LINE
8
0
6
CONTINUOUS
10
14.220920
20
163.277075
30
0.0
11
14.218690
21
164.499895
31
0.0
0
LINE
8
0
6
CONTINUOUS
10
21.884950
20
165.328005
30
0.0
11
21.887110
21
164.143585
31
0.0
0
LINE
8
0
6
CONTINUOUS
10
20.548790
20
165.917505
30
0.0
11
21.884950
21
165.328005
31
0.0
0
LINE
8
0
6
CONTINUOUS
10
19.214790
20
165.322605
30
0.0
11
20.548790
21
165.917505
31
0.0
0
LINE
8
0
6
CONTINUOUS
10
20.553110
20
163.548695
30
0.0
11
21.887110
21
164.143585
31
0.0
0
LINE
8
0
6
CONTINUOUS
10
19.216940
20
164.138215
30
0.0
11
20.553110
21
163.548695
31
0.0
0
LINE
8
0
6
CONTINUOUS
10
19.214790
20
165.322605
30
0.0
11
19.216940
21
164.138215
31
0.0
0
LINE
8
0
6
CONTINUOUS
10
20.548790
20
165.917505
30
0.0
11
19.214790
21
165.322605
31
0.0
0
LINE
8
0
6
CONTINUOUS
10
21.884950
20
165.328005
30
0.0
11
20.548790
21
165.917505
31
0.0
0
LINE
8
0
6
CONTINUOUS
10
21.887110
20
164.143585
30
0.0
11
21.884950
21
165.328005
31
0.0
0
LINE
8
0
6
CONTINUOUS
10
16.827670
20
170.493185
30
0.0
11
16.829840
21
169.308785
31
0.0
0
LINE
8
0
6
CONTINUOUS
10
15.491520
20
171.082695
30
0.0
11
16.827670
21
170.493185
31
0.0
0
LINE
8
0
6
CONTINUOUS
10
14.157520
20
170.487805
30
0.0
11
15.491520
21
171.082695
31
0.0
0
LINE
8
0
6
CONTINUOUS
10
15.495830
20
168.713885
30
0.0
11
16.829840
21
169.308785
31
0.0
0
LINE
8
0
6
CONTINUOUS
10
14.159660
20
169.303395
30
0.0
11
15.495830
21
168.713885
31
0.0
0
LINE
8
0
6
CONTINUOUS
10
14.157520
20
170.487805
30
0.0
11
14.159660
21
169.303395
31
0.0
0
LINE
8
0
6
CONTINUOUS
10
15.491520
20
171.082695
30
0.0
11
14.157520
21
170.487805
31
0.0
0
LINE
8
0
6
CONTINUOUS
10
16.827670
20
170.493185
30
0.0
11
15.491520
21
171.082695
31
0.0
0
LINE
8
0
6
CONTINUOUS
10
16.829840
20
169.308785
30
0.0
11
16.827670
21
170.493185
31
0.0
0
LINE
8
0
6
CONTINUOUS
10
30.044150
20
163.657545
30
0.0
11
30.046010
21
162.641485
31
0.0
0
LINE
8
0
6
CONTINUOUS
10
28.897900
20
164.163265
30
0.0
11
30.044150
21
163.657545
31
0.0
0
LINE
8
0
6
CONTINUOUS
10
27.753500
20
163.652915
30
0.0
11
28.897900
21
164.163265
31
0.0
0
LINE
8
0
6
CONTINUOUS
10
27.753888
20
164.264285
30
0.0
11
27.753500
21
163.652915
31
0.0
0
LINE
8
0
6
CONTINUOUS
10
28.901600
20
162.131115
30
0.0
11
30.046010
21
162.641485
31
0.0
0
LINE
8
0
6
CONTINUOUS
10
27.755340
20
162.636825
30
0.0
11
28.901600
21
162.131115
31
0.0
0
LINE
8
0
6
CONTINUOUS
10
27.753500
20
163.652915
30
0.0
11
27.755340
21
162.636825
31
0.0
0
LINE
8
0
6
CONTINUOUS
10
28.897900
20
164.163265
30
0.0
11
27.753500
21
163.652915
31
0.0
0
LINE
8
0
6
CONTINUOUS
10
30.044150
20
163.657545
30
0.0
11
28.897900
21
164.163265
31
0.0
0
LINE
8
0
6
CONTINUOUS
10
30.046010
20
162.641485
30
0.0
11
30.044150
21
163.657545
31
0.0
0
LINE
8
0
6
CONTINUOUS
10
26.725170
20
169.718205
30
0.0
11
26.727040
21
168.702135
31
0.0
0
LINE
8
0
6
CONTINUOUS
10
25.578930
20
170.223895
30
0.0
11
26.725170
21
169.718205
31
0.0
0
LINE
8
0
6
CONTINUOUS
10
24.434520
20
169.713575
30
0.0
11
25.578930
21
170.223895
31
0.0
0
LINE
8
0
6
CONTINUOUS
10
24.434916
20
170.334791
30
0.0
11
24.434520
21
169.713575
31
0.0
0
LINE
8
0
6
CONTINUOUS
10
25.582620
20
168.191775
30
0.0
11
26.727040
21
168.702135
31
0.0
0
LINE
8
0
6
CONTINUOUS
10
24.436360
20
168.697515
30
0.0
11
25.582620
21
168.191775
31
0.0
0
LINE
8
0
6
CONTINUOUS
10
24.434520
20
169.713575
30
0.0
11
24.436360
21
168.697515
31
0.0
0
LINE
8
0
6
CONTINUOUS
10
25.578930
20
170.223895
30
0.0
11
24.434520
21
169.713575
31
0.0
0
LINE
8
0
6
CONTINUOUS
10
26.725170
20
169.718205
30
0.0
11
25.578930
21
170.223895
31
0.0
0
LINE
8
0
6
CONTINUOUS
10
26.727040
20
168.702135
30
0.0
11
26.725170
21
169.718205
31
0.0
0
LINE
8
0
6
CONTINUOUS
10
21.146160
20
174.737155
30
0.0
11
21.148020
21
173.721075
31
0.0
0
LINE
8
0
6
CONTINUOUS
10
19.999910
20
175.242875
30
0.0
11
21.146160
21
174.737155
31
0.0
0
LINE
8
0
6
CONTINUOUS
10
18.855510
20
174.732525
30
0.0
11
19.999910
21
175.242875
31
0.0
0
LINE
8
0
6
CONTINUOUS
10
20.003610
20
173.210725
30
0.0
11
21.148020
21
173.721075
31
0.0
0
LINE
8
0
6
CONTINUOUS
10
18.857340
20
173.716465
30
0.0
11
20.003610
21
173.210725
31
0.0
0
LINE
8
0
6
CONTINUOUS
10
18.855510
20
174.732525
30
0.0
11
18.857340
21
173.716465
31
0.0
0
LINE
8
0
6
CONTINUOUS
10
19.999910
20
175.242875
30
0.0
11
18.855510
21
174.732525
31
0.0
0
LINE
8
0
6
CONTINUOUS
10
21.146160
20
174.737155
30
0.0
11
19.999910
21
175.242875
31
0.0
0
LINE
8
0
6
CONTINUOUS
10
21.148020
20
173.721075
30
0.0
11
21.146160
21
174.737155
31
0.0
0
LINE
8
0
6
CONTINUOUS
10
24.748330
20
179.829735
30
0.0
11
24.970840
21
178.828335
31
0.0
0
LINE
8
0
6
CONTINUOUS
10
23.508070
20
180.181275
30
0.0
11
24.748330
21
179.829735
31
0.0
0
LINE
8
0
6
CONTINUOUS
10
22.490340
20
179.531465
30
0.0
11
23.508070
21
180.181275
31
0.0
0
LINE
8
0
6
CONTINUOUS
10
23.953100
20
178.178525
30
0.0
11
24.970840
21
178.828335
31
0.0
0
LINE
8
0
6
CONTINUOUS
10
22.712830
20
178.530105
30
0.0
11
23.953100
21
178.178525
31
0.0
0
LINE
8
0
6
CONTINUOUS
10
22.490340
20
179.531465
30
0.0
11
22.712830
21
178.530105
31
0.0
0
LINE
8
0
6
CONTINUOUS
10
23.508070
20
180.181275
30
0.0
11
22.490340
21
179.531465
31
0.0
0
LINE
8
0
6
CONTINUOUS
10
24.748330
20
179.829735
30
0.0
11
23.508070
21
180.181275
31
0.0
0
LINE
8
0
6
CONTINUOUS
10
24.970840
20
178.828335
30
0.0
11
24.748330
21
179.829735
31
0.0
0
LINE
8
0
6
CONTINUOUS
10
30.646570
20
175.010995
30
0.0
11
30.869090
21
174.009605
31
0.0
0
LINE
8
0
6
CONTINUOUS
10
29.406330
20
175.362545
30
0.0
11
30.646570
21
175.010995
31
0.0
0
LINE
8
0
6
CONTINUOUS
10
28.388580
20
174.712695
30
0.0
11
29.406330
21
175.362545
31
0.0
0
LINE
8
0
6
CONTINUOUS
10
28.390019
20
175.321344
30
0.0
11
28.388580
21
174.712695
31
0.0
0
LINE
8
0
6
CONTINUOUS
10
29.851340
20
173.359785
30
0.0
11
30.869090
21
174.009605
31
0.0
0
LINE
8
0
6
CONTINUOUS
10
28.611080
20
173.711335
30
0.0
11
29.851340
21
173.359785
31
0.0
0
LINE
8
0
6
CONTINUOUS
10
28.388580
20
174.712695
30
0.0
11
28.611080
21
173.711335
31
0.0
0
LINE
8
0
6
CONTINUOUS
10
29.406330
20
175.362545
30
0.0
11
28.388580
21
174.712695
31
0.0
0
LINE
8
0
6
CONTINUOUS
10
30.646570
20
175.010995
30
0.0
11
29.406330
21
175.362545
31
0.0
0
LINE
8
0
6
CONTINUOUS
10
30.869090
20
174.009605
30
0.0
11
30.646570
21
175.010995
31
0.0
0
LINE
8
0
6
CONTINUOUS
10
35.002970
20
169.248915
30
0.0
11
35.225480
21
168.247555
31
0.0
0
LINE
8
0
6
CONTINUOUS
10
33.762720
20
169.600505
30
0.0
11
35.002970
21
169.248915
31
0.0
0
LINE
8
0
6
CONTINUOUS
10
32.744980
20
168.950695
30
0.0
11
33.762720
21
169.600505
31
0.0
0
LINE
8
0
6
CONTINUOUS
10
32.746393
20
169.549222
30
0.0
11
32.744980
21
168.950695
31
0.0
0
LINE
8
0
6
CONTINUOUS
10
34.207740
20
167.597775
30
0.0
11
35.225480
21
168.247555
31
0.0
0
LINE
8
0
6
CONTINUOUS
10
32.967480
20
167.949335
30
0.0
11
34.207740
21
167.597775
31
0.0
0
LINE
8
0
6
CONTINUOUS
10
32.744980
20
168.950695
30
0.0
11
32.967480
21
167.949335
31
0.0
0
LINE
8
0
6
CONTINUOUS
10
33.762720
20
169.600505
30
0.0
11
32.744980
21
168.950695
31
0.0
0
LINE
8
0
6
CONTINUOUS
10
35.002970
20
169.248915
30
0.0
11
33.762720
21
169.600505
31
0.0
0
LINE
8
0
6
CONTINUOUS
10
35.225480
20
168.247555
30
0.0
11
35.002970
21
169.248915
31
0.0
0
LINE
8
0
6
CONTINUOUS
10
37.573100
20
162.996215
30
0.0
11
37.795620
21
161.994825
31
0.0
0
LINE
8
0
6
CONTINUOUS
10
36.332850
20
163.347755
30
0.0
11
37.573100
21
162.996215
31
0.0
0
LINE
8
0
6
CONTINUOUS
10
35.315100
20
162.697945
30
0.0
11
36.332850
21
163.347755
31
0.0
0
LINE
8
0
6
CONTINUOUS
10
35.316494
20
163.287460
30
0.0
11
35.315100
21
162.697945
31
0.0
0
LINE
8
0
6
CONTINUOUS
10
36.777870
20
161.345025
30
0.0
11
37.795620
21
161.994825
31
0.0
0
LINE
8
0
6
CONTINUOUS
10
35.537610
20
161.696585
30
0.0
11
36.777870
21
161.345025
31
0.0
0
LINE
8
0
6
CONTINUOUS
10
35.315100
20
162.697945
30
0.0
11
35.537610
21
161.696585
31
0.0
0
LINE
8
0
6
CONTINUOUS
10
36.332850
20
163.347755
30
0.0
11
35.315100
21
162.697945
31
0.0
0
LINE
8
0
6
CONTINUOUS
10
37.573100
20
162.996215
30
0.0
11
36.332850
21
163.347755
31
0.0
0
LINE
8
0
6
CONTINUOUS
10
37.795620
20
161.994825
30
0.0
11
37.573100
21
162.996215
31
0.0
0
LINE
8
0
6
CONTINUOUS
10
0.636300
20
144.958305
30
0.0
11
2.094280
21
145.450045
31
0.0
0
LINE
8
0
6
CONTINUOUS
10
2.094280
20
145.450045
30
0.0
11
3.376070
21
144.726295
31
0.0
0
LINE
8
0
6
CONTINUOUS
10
0.460100
20
143.742795
30
0.0
11
0.636300
21
144.958305
31
0.0
0
LINE
8
0
6
CONTINUOUS
10
0.460100
20
143.742795
30
0.0
11
1.741880
21
143.019075
31
0.0
0
LINE
8
0
6
CONTINUOUS
10
0.636300
20
144.958305
30
0.0
11
0.460100
21
143.742795
31
0.0
0
LINE
8
0
6
CONTINUOUS
10
2.094280
20
145.450045
30
0.0
11
0.636300
21
144.958305
31
0.0
0
LINE
8
0
6
CONTINUOUS
10
3.376070
20
144.726295
30
0.0
11
2.094280
21
145.450045
31
0.0
0
LINE
8
0
6
CONTINUOUS
10
3.199870
20
143.510815
30
0.0
11
3.376070
21
144.726295
31
0.0
0
LINE
8
0
6
CONTINUOUS
10
1.741880
20
143.019075
30
0.0
11
3.199870
21
143.510815
31
0.0
0
LINE
8
0
6
CONTINUOUS
10
3.333500
20
129.587125
30
0.0
11
4.544960
21
129.995715
31
0.0
0
LINE
8
0
6
CONTINUOUS
10
4.544960
20
129.995715
30
0.0
11
5.610030
21
129.394345
31
0.0
0
LINE
8
0
6
CONTINUOUS
10
3.187080
20
128.577145
30
0.0
11
3.333500
21
129.587125
31
0.0
0
LINE
8
0
6
CONTINUOUS
10
3.187080
20
128.577145
30
0.0
11
4.252150
21
127.975755
31
0.0
0
LINE
8
0
6
CONTINUOUS
10
3.333500
20
129.587125
30
0.0
11
3.187080
21
128.577145
31
0.0
0
LINE
8
0
6
CONTINUOUS
10
4.544960
20
129.995715
30
0.0
11
3.333500
21
129.587125
31
0.0
0
LINE
8
0
6
CONTINUOUS
10
5.610030
20
129.394345
30
0.0
11
4.544960
21
129.995715
31
0.0
0
LINE
8
0
6
CONTINUOUS
10
5.463620
20
128.384385
30
0.0
11
5.610030
21
129.394345
31
0.0
0
LINE
8
0
6
CONTINUOUS
10
4.252150
20
127.975755
30
0.0
11
5.463620
21
128.384385
31
0.0
0
LINE
8
0
6
CONTINUOUS
10
2.513520
20
134.770265
30
0.0
11
3.724980
21
135.178835
31
0.0
0
LINE
8
0
6
CONTINUOUS
10
3.724980
20
135.178835
30
0.0
11
4.790050
21
134.577455
31
0.0
0
LINE
8
0
6
CONTINUOUS
10
2.367100
20
133.760255
30
0.0
11
2.513520
21
134.770265
31
0.0
0
LINE
8
0
6
CONTINUOUS
10
2.367100
20
133.760255
30
0.0
11
3.432170
21
133.158885
31
0.0
0
LINE
8
0
6
CONTINUOUS
10
2.513520
20
134.770265
30
0.0
11
2.367100
21
133.760255
31
0.0
0
LINE
8
0
6
CONTINUOUS
10
3.724980
20
135.178835
30
0.0
11
2.513520
21
134.770265
31
0.0
0
LINE
8
0
6
CONTINUOUS
10
4.790050
20
134.577455
30
0.0
11
3.724980
21
135.178835
31
0.0
0
LINE
8
0
6
CONTINUOUS
10
4.643640
20
133.567485
30
0.0
11
4.790050
21
134.577455
31
0.0
0
LINE
8
0
6
CONTINUOUS
10
3.432170
20
133.158885
30
0.0
11
4.643640
21
133.567485
31
0.0
0
LINE
8
0
6
CONTINUOUS
10
2.935720
20
140.075465
30
0.0
11
4.347890
21
140.551755
31
0.0
0
LINE
8
0
6
CONTINUOUS
10
4.347890
20
140.551755
30
0.0
11
5.589410
21
139.850745
31
0.0
0
LINE
8
0
6
CONTINUOUS
10
2.765050
20
138.898155
30
0.0
11
2.935720
21
140.075465
31
0.0
0
LINE
8
0
6
CONTINUOUS
10
2.765050
20
138.898155
30
0.0
11
4.006570
21
138.197145
31
0.0
0
LINE
8
0
6
CONTINUOUS
10
2.935720
20
140.075465
30
0.0
11
2.765050
21
138.898155
31
0.0
0
LINE
8
0
6
CONTINUOUS
10
4.347890
20
140.551755
30
0.0
11
2.935720
21
140.075465
31
0.0
0
LINE
8
0
6
CONTINUOUS
10
5.589410
20
139.850745
30
0.0
11
4.347890
21
140.551755
31
0.0
0
LINE
8
0
6
CONTINUOUS
10
5.418740
20
138.673445
30
0.0
11
5.589410
21
139.850745
31
0.0
0
LINE
8
0
6
CONTINUOUS
10
4.006570
20
138.197145
30
0.0
11
5.418740
21
138.673445
31
0.0
0
LINE
8
0
6
CONTINUOUS
10
11.766100
20
131.323705
30
0.0
11
12.977560
21
131.732315
31
0.0
0
LINE
8
0
6
CONTINUOUS
10
12.977560
20
131.732315
30
0.0
11
14.042630
21
131.130935
31
0.0
0
LINE
8
0
6
CONTINUOUS
10
11.619690
20
130.313745
30
0.0
11
11.766100
21
131.323705
31
0.0
0
LINE
8
0
6
CONTINUOUS
10
11.619690
20
130.313745
30
0.0
11
12.684750
21
129.712345
31
0.0
0
LINE
8
0
6
CONTINUOUS
10
11.766100
20
131.323705
30
0.0
11
11.619690
21
130.313745
31
0.0
0
LINE
8
0
6
CONTINUOUS
10
12.977560
20
131.732315
30
0.0
11
11.766100
21
131.323705
31
0.0
0
LINE
8
0
6
CONTINUOUS
10
14.042630
20
131.130935
30
0.0
11
12.977560
21
131.732315
31
0.0
0
LINE
8
0
6
CONTINUOUS
10
13.896220
20
130.120955
30
0.0
11
14.042630
21
131.130935
31
0.0
0
LINE
8
0
6
CONTINUOUS
10
12.684750
20
129.712345
30
0.0
11
13.896220
21
130.120955
31
0.0
0
LINE
8
0
6
CONTINUOUS
10
10.946100
20
136.518665
30
0.0
11
12.157560
21
136.927245
31
0.0
0
LINE
8
0
6
CONTINUOUS
10
12.157560
20
136.927245
30
0.0
11
13.222620
21
136.325885
31
0.0
0
LINE
8
0
6
CONTINUOUS
10
10.799680
20
135.508675
30
0.0
11
10.946100
21
136.518665
31
0.0
0
LINE
8
0
6
CONTINUOUS
10
10.799680
20
135.508675
30
0.0
11
11.864750
21
134.907315
31
0.0
0
LINE
8
0
6
CONTINUOUS
10
10.946100
20
136.518665
30
0.0
11
10.799680
21
135.508675
31
0.0
0
LINE
8
0
6
CONTINUOUS
10
12.157560
20
136.927245
30
0.0
11
10.946100
21
136.518665
31
0.0
0
LINE
8
0
6
CONTINUOUS
10
13.222620
20
136.325885
30
0.0
11
12.157560
21
136.927245
31
0.0
0
LINE
8
0
6
CONTINUOUS
10
13.076220
20
135.315905
30
0.0
11
13.222620
21
136.325885
31
0.0
0
LINE
8
0
6
CONTINUOUS
10
11.864750
20
134.907315
30
0.0
11
13.076220
21
135.315905
31
0.0
0
LINE
8
0
6
CONTINUOUS
10
10.865910
20
142.406755
30
0.0
11
12.278090
21
142.883045
31
0.0
0
LINE
8
0
6
CONTINUOUS
10
12.278090
20
142.883045
30
0.0
11
13.519610
21
142.182045
31
0.0
0
LINE
8
0
6
CONTINUOUS
10
10.695240
20
141.229445
30
0.0
11
10.865910
21
142.406755
31
0.0
0
LINE
8
0
6
CONTINUOUS
10
10.695240
20
141.229445
30
0.0
11
11.936760
21
140.528435
31
0.0
0
LINE
8
0
6
CONTINUOUS
10
10.865910
20
142.406755
30
0.0
11
10.695240
21
141.229445
31
0.0
0
LINE
8
0
6
CONTINUOUS
10
12.278090
20
142.883045
30
0.0
11
10.865910
21
142.406755
31
0.0
0
LINE
8
0
6
CONTINUOUS
10
13.519610
20
142.182045
30
0.0
11
12.278090
21
142.883045
31
0.0
0
LINE
8
0
6
CONTINUOUS
10
13.348940
20
141.004745
30
0.0
11
13.519610
21
142.182045
31
0.0
0
LINE
8
0
6
CONTINUOUS
10
11.936760
20
140.528435
30
0.0
11
13.348940
21
141.004745
31
0.0
0
LINE
8
0
6
CONTINUOUS
10
8.399450
20
147.286155
30
0.0
11
9.857430
21
147.777905
31
0.0
0
LINE
8
0
6
CONTINUOUS
10
9.857430
20
147.777905
30
0.0
11
11.139220
21
147.054165
31
0.0
0
LINE
8
0
6
CONTINUOUS
10
8.223250
20
146.070685
30
0.0
11
8.399450
21
147.286155
31
0.0
0
LINE
8
0
6
CONTINUOUS
10
8.223250
20
146.070685
30
0.0
11
9.505040
21
145.346905
31
0.0
0
LINE
8
0
6
CONTINUOUS
10
8.399450
20
147.286155
30
0.0
11
8.223250
21
146.070685
31
0.0
0
LINE
8
0
6
CONTINUOUS
10
9.857430
20
147.777905
30
0.0
11
8.399450
21
147.286155
31
0.0
0
LINE
8
0
6
CONTINUOUS
10
11.139220
20
147.054165
30
0.0
11
9.857430
21
147.777905
31
0.0
0
LINE
8
0
6
CONTINUOUS
10
10.963020
20
145.838695
30
0.0
11
11.139220
21
147.054165
31
0.0
0
LINE
8
0
6
CONTINUOUS
10
9.505040
20
145.346905
30
0.0
11
10.963020
21
145.838695
31
0.0
0
LINE
8
0
6
CONTINUOUS
10
13.432880
20
152.445065
30
0.0
11
14.890850
21
152.936835
31
0.0
0
LINE
8
0
6
CONTINUOUS
10
14.890850
20
152.936835
30
0.0
11
16.172640
21
152.213075
31
0.0
0
LINE
8
0
6
CONTINUOUS
10
13.256680
20
151.229575
30
0.0
11
13.432880
21
152.445065
31
0.0
0
LINE
8
0
6
CONTINUOUS
10
13.256680
20
151.229575
30
0.0
11
14.538470
21
150.505835
31
0.0
0
LINE
8
0
6
CONTINUOUS
10
13.432880
20
152.445065
30
0.0
11
13.256680
21
151.229575
31
0.0
0
LINE
8
0
6
CONTINUOUS
10
14.890850
20
152.936835
30
0.0
11
13.432880
21
152.445065
31
0.0
0
LINE
8
0
6
CONTINUOUS
10
16.172640
20
152.213075
30
0.0
11
14.890850
21
152.936835
31
0.0
0
LINE
8
0
6
CONTINUOUS
10
15.996440
20
150.997585
30
0.0
11
16.172640
21
152.213075
31
0.0
0
LINE
8
0
6
CONTINUOUS
10
14.538470
20
150.505835
30
0.0
11
15.996440
21
150.997585
31
0.0
0
LINE
8
0
6
CONTINUOUS
10
17.172280
20
146.948045
30
0.0
11
18.584450
21
147.424355
31
0.0
0
LINE
8
0
6
CONTINUOUS
10
18.584450
20
147.424355
30
0.0
11
19.825970
21
146.723355
31
0.0
0
LINE
8
0
6
CONTINUOUS
10
17.001600
20
145.770735
30
0.0
11
17.172280
21
146.948045
31
0.0
0
LINE
8
0
6
CONTINUOUS
10
16.994131
20
146.381525
30
0.0
11
17.001600
21
145.770735
31
0.0
0
LINE
8
0
6
CONTINUOUS
10
17.001600
20
145.770735
30
0.0
11
18.243120
21
145.069745
31
0.0
0
LINE
8
0
6
CONTINUOUS
10
17.172280
20
146.948045
30
0.0
11
17.001600
21
145.770735
31
0.0
0
LINE
8
0
6
CONTINUOUS
10
18.584450
20
147.424355
30
0.0
11
17.172280
21
146.948045
31
0.0
0
LINE
8
0
6
CONTINUOUS
10
19.825970
20
146.723355
30
0.0
11
18.584450
21
147.424355
31
0.0
0
LINE
8
0
6
CONTINUOUS
10
19.655310
20
145.546035
30
0.0
11
19.825970
21
146.723355
31
0.0
0
LINE
8
0
6
CONTINUOUS
10
18.243120
20
145.069745
30
0.0
11
19.655310
21
145.546035
31
0.0
0
LINE
8
0
6
CONTINUOUS
10
21.060100
20
152.654005
30
0.0
11
22.472270
21
153.130305
31
0.0
0
LINE
8
0
6
CONTINUOUS
10
22.472270
20
153.130305
30
0.0
11
23.713790
21
152.429285
31
0.0
0
LINE
8
0
6
CONTINUOUS
10
20.889430
20
151.476695
30
0.0
11
21.060100
21
152.654005
31
0.0
0
LINE
8
0
6
CONTINUOUS
10
20.889430
20
151.476695
30
0.0
11
22.130950
21
150.775685
31
0.0
0
LINE
8
0
6
CONTINUOUS
10
21.060100
20
152.654005
30
0.0
11
20.889430
21
151.476695
31
0.0
0
LINE
8
0
6
CONTINUOUS
10
22.472270
20
153.130305
30
0.0
11
21.060100
21
152.654005
31
0.0
0
LINE
8
0
6
CONTINUOUS
10
23.713790
20
152.429285
30
0.0
11
22.472270
21
153.130305
31
0.0
0
LINE
8
0
6
CONTINUOUS
10
23.543130
20
151.251995
30
0.0
11
23.713790
21
152.429285
31
0.0
0
LINE
8
0
6
CONTINUOUS
10
22.130950
20
150.775685
30
0.0
11
23.543130
21
151.251995
31
0.0
0
LINE
8
0
6
CONTINUOUS
10
18.070850
20
139.946945
30
0.0
11
19.282320
21
140.355535
31
0.0
0
LINE
8
0
6
CONTINUOUS
10
19.282320
20
140.355535
30
0.0
11
20.347390
21
139.754145
31
0.0
0
LINE
8
0
6
CONTINUOUS
10
17.924440
20
138.936955
30
0.0
11
18.070850
21
139.946945
31
0.0
0
LINE
8
0
6
CONTINUOUS
10
17.924440
20
138.936955
30
0.0
11
18.989510
21
138.335575
31
0.0
0
LINE
8
0
6
CONTINUOUS
10
18.070850
20
139.946945
30
0.0
11
17.924440
21
138.936955
31
0.0
0
LINE
8
0
6
CONTINUOUS
10
19.282320
20
140.355535
30
0.0
11
18.070850
21
139.946945
31
0.0
0
LINE
8
0
6
CONTINUOUS
10
20.347390
20
139.754145
30
0.0
11
19.282320
21
140.355535
31
0.0
0
LINE
8
0
6
CONTINUOUS
10
20.200980
20
138.744185
30
0.0
11
20.347390
21
139.754145
31
0.0
0
LINE
8
0
6
CONTINUOUS
10
18.989510
20
138.335575
30
0.0
11
20.200980
21
138.744185
31
0.0
0
LINE
8
0
6
CONTINUOUS
10
23.803040
20
144.780655
30
0.0
11
25.014510
21
145.189265
31
0.0
0
LINE
8
0
6
CONTINUOUS
10
25.014510
20
145.189265
30
0.0
11
26.079570
21
144.587885
31
0.0
0
LINE
8
0
6
CONTINUOUS
10
25.007755
20
145.814015
30
0.0
11
25.014510
21
145.189265
31
0.0
0
LINE
8
0
6
CONTINUOUS
10
23.656630
20
143.770685
30
0.0
11
23.803040
21
144.780655
31
0.0
0
LINE
8
0
6
CONTINUOUS
10
23.649952
20
144.388568
30
0.0
11
23.656630
21
143.770685
31
0.0
0
LINE
8
0
6
CONTINUOUS
10
23.656630
20
143.770685
30
0.0
11
24.721690
21
143.169295
31
0.0
0
LINE
8
0
6
CONTINUOUS
10
23.803040
20
144.780655
30
0.0
11
23.656630
21
143.770685
31
0.0
0
LINE
8
0
6
CONTINUOUS
10
25.014510
20
145.189265
30
0.0
11
23.803040
21
144.780655
31
0.0
0
LINE
8
0
6
CONTINUOUS
10
26.079570
20
144.587885
30
0.0
11
25.014510
21
145.189265
31
0.0
0
LINE
8
0
6
CONTINUOUS
10
25.933170
20
143.577905
30
0.0
11
26.079570
21
144.587885
31
0.0
0
LINE
8
0
6
CONTINUOUS
10
24.721690
20
143.169295
30
0.0
11
25.933170
21
143.577905
31
0.0
0
LINE
8
0
6
CONTINUOUS
10
27.739660
20
150.794625
30
0.0
11
28.951120
21
151.203235
31
0.0
0
LINE
8
0
6
CONTINUOUS
10
28.951120
20
151.203235
30
0.0
11
30.016190
21
150.601855
31
0.0
0
LINE
8
0
6
CONTINUOUS
10
28.944246
20
151.839224
30
0.0
11
28.951120
21
151.203235
31
0.0
0
LINE
8
0
6
CONTINUOUS
10
27.593250
20
149.784645
30
0.0
11
27.739660
21
150.794625
31
0.0
0
LINE
8
0
6
CONTINUOUS
10
27.586668
20
150.393643
30
0.0
11
27.593250
21
149.784645
31
0.0
0
LINE
8
0
6
CONTINUOUS
10
27.593250
20
149.784645
30
0.0
11
28.658310
21
149.183265
31
0.0
0
LINE
8
0
6
CONTINUOUS
10
27.739660
20
150.794625
30
0.0
11
27.593250
21
149.784645
31
0.0
0
LINE
8
0
6
CONTINUOUS
10
28.951120
20
151.203235
30
0.0
11
27.739660
21
150.794625
31
0.0
0
LINE
8
0
6
CONTINUOUS
10
30.016190
20
150.601855
30
0.0
11
28.951120
21
151.203235
31
0.0
0
LINE
8
0
6
CONTINUOUS
10
29.869780
20
149.591875
30
0.0
11
30.016190
21
150.601855
31
0.0
0
LINE
8
0
6
CONTINUOUS
10
28.658310
20
149.183265
30
0.0
11
29.869780
21
149.591875
31
0.0
0
LINE
8
0
6
CONTINUOUS
10
36.633130
20
149.954765
30
0.0
11
36.708110
21
148.940375
31
0.0
0
LINE
8
0
6
CONTINUOUS
10
34.346180
20
149.852915
30
0.0
11
35.452160
21
150.411025
31
0.0
0
LINE
8
0
6
CONTINUOUS
10
34.340564
20
150.441290
30
0.0
11
34.346180
21
149.852915
31
0.0
0
LINE
8
0
6
CONTINUOUS
10
35.452160
20
150.411025
30
0.0
11
36.633130
21
149.954765
31
0.0
0
LINE
8
0
6
CONTINUOUS
10
35.446229
20
151.032163
30
0.0
11
35.452160
21
150.411025
31
0.0
0
LINE
8
0
6
CONTINUOUS
10
34.421160
20
148.838535
30
0.0
11
35.602120
21
148.382245
31
0.0
0
LINE
8
0
6
CONTINUOUS
10
34.346180
20
149.852915
30
0.0
11
34.421160
21
148.838535
31
0.0
0
LINE
8
0
6
CONTINUOUS
10
35.452160
20
150.411025
30
0.0
11
34.346180
21
149.852915
31
0.0
0
LINE
8
0
6
CONTINUOUS
10
36.633130
20
149.954765
30
0.0
11
35.452160
21
150.411025
31
0.0
0
LINE
8
0
6
CONTINUOUS
10
36.708110
20
148.940375
30
0.0
11
36.633130
21
149.954765
31
0.0
0
LINE
8
0
6
CONTINUOUS
10
35.602120
20
148.382245
30
0.0
11
36.708110
21
148.940375
31
0.0
0
LINE
8
0
6
CONTINUOUS
10
33.236300
20
143.868745
30
0.0
11
33.311280
21
142.854365
31
0.0
0
LINE
8
0
6
CONTINUOUS
10
30.949360
20
143.766905
30
0.0
11
32.055340
21
144.325015
31
0.0
0
LINE
8
0
6
CONTINUOUS
10
30.943744
20
144.355097
30
0.0
11
30.949360
21
143.766905
31
0.0
0
LINE
8
0
6
CONTINUOUS
10
32.055340
20
144.325015
30
0.0
11
33.236300
21
143.868745
31
0.0
0
LINE
8
0
6
CONTINUOUS
10
32.049514
20
144.935254
30
0.0
11
32.055340
21
144.325015
31
0.0
0
LINE
8
0
6
CONTINUOUS
10
31.024330
20
142.752525
30
0.0
11
32.205300
21
142.296255
31
0.0
0
LINE
8
0
6
CONTINUOUS
10
30.949360
20
143.766905
30
0.0
11
31.024330
21
142.752525
31
0.0
0
LINE
8
0
6
CONTINUOUS
10
32.055340
20
144.325015
30
0.0
11
30.949360
21
143.766905
31
0.0
0
LINE
8
0
6
CONTINUOUS
10
33.236300
20
143.868745
30
0.0
11
32.055340
21
144.325015
31
0.0
0
LINE
8
0
6
CONTINUOUS
10
33.311280
20
142.854365
30
0.0
11
33.236300
21
143.868745
31
0.0
0
LINE
8
0
6
CONTINUOUS
10
32.205300
20
142.296255
30
0.0
11
33.311280
21
142.854365
31
0.0
0
LINE
8
0
6
CONTINUOUS
10
28.094430
20
138.496605
30
0.0
11
28.169400
21
137.482255
31
0.0
0
LINE
8
0
6
CONTINUOUS
10
25.807480
20
138.394775
30
0.0
11
26.913460
21
138.952885
31
0.0
0
LINE
8
0
6
CONTINUOUS
10
26.913460
20
138.952885
30
0.0
11
28.094430
21
138.496605
31
0.0
0
LINE
8
0
6
CONTINUOUS
10
25.882460
20
137.380395
30
0.0
11
27.063430
21
136.924125
31
0.0
0
LINE
8
0
6
CONTINUOUS
10
25.807480
20
138.394775
30
0.0
11
25.882460
21
137.380395
31
0.0
0
LINE
8
0
6
CONTINUOUS
10
26.913460
20
138.952885
30
0.0
11
25.807480
21
138.394775
31
0.0
0
LINE
8
0
6
CONTINUOUS
10
28.094430
20
138.496605
30
0.0
11
26.913460
21
138.952885
31
0.0
0
LINE
8
0
6
CONTINUOUS
10
28.169400
20
137.482255
30
0.0
11
28.094430
21
138.496605
31
0.0
0
LINE
8
0
6
CONTINUOUS
10
27.063430
20
136.924125
30
0.0
11
28.169400
21
137.482255
31
0.0
0
LINE
8
0
6
CONTINUOUS
10
21.649190
20
134.184685
30
0.0
11
21.724160
21
133.170305
31
0.0
0
LINE
8
0
6
CONTINUOUS
10
19.362240
20
134.082845
30
0.0
11
20.468220
21
134.640935
31
0.0
0
LINE
8
0
6
CONTINUOUS
10
20.468220
20
134.640935
30
0.0
11
21.649190
21
134.184685
31
0.0
0
LINE
8
0
6
CONTINUOUS
10
19.437220
20
133.068445
30
0.0
11
20.618180
21
132.612175
31
0.0
0
LINE
8
0
6
CONTINUOUS
10
19.362240
20
134.082845
30
0.0
11
19.437220
21
133.068445
31
0.0
0
LINE
8
0
6
CONTINUOUS
10
20.468220
20
134.640935
30
0.0
11
19.362240
21
134.082845
31
0.0
0
LINE
8
0
6
CONTINUOUS
10
21.649190
20
134.184685
30
0.0
11
20.468220
21
134.640935
31
0.0
0
LINE
8
0
6
CONTINUOUS
10
21.724160
20
133.170305
30
0.0
11
21.649190
21
134.184685
31
0.0
0
LINE
8
0
6
CONTINUOUS
10
20.618180
20
132.612175
30
0.0
11
21.724160
21
133.170305
31
0.0
0
LINE
8
0
6
CONTINUOUS
10
5.742870
20
169.049755
30
0.0
11
7.311260
21
168.843215
31
0.0
0
LINE
8
0
6
CONTINUOUS
10
4.724260
20
168.109185
30
0.0
11
5.742870
21
169.049755
31
0.0
0
LINE
8
0
6
CONTINUOUS
10
7.311260
20
168.843215
30
0.0
11
7.861020
21
167.696125
31
0.0
0
LINE
8
0
6
CONTINUOUS
10
7.861020
20
167.696125
30
0.0
11
7.311260
21
168.843215
31
0.0
0
LINE
8
0
6
CONTINUOUS
10
6.842390
20
166.755565
30
0.0
11
7.861020
21
167.696125
31
0.0
0
LINE
8
0
6
CONTINUOUS
10
5.274030
20
166.962095
30
0.0
11
6.842390
21
166.755565
31
0.0
0
LINE
8
0
6
CONTINUOUS
10
4.724260
20
168.109185
30
0.0
11
5.274030
21
166.962095
31
0.0
0
LINE
8
0
6
CONTINUOUS
10
5.742870
20
169.049755
30
0.0
11
4.724260
21
168.109185
31
0.0
0
LINE
8
0
6
CONTINUOUS
10
7.311260
20
168.843215
30
0.0
11
5.742870
21
169.049755
31
0.0
0
LINE
8
0
6
CONTINUOUS
10
16.254550
20
183.855405
30
0.0
11
17.557760
21
183.683775
31
0.0
0
LINE
8
0
6
CONTINUOUS
10
15.408160
20
183.073905
30
0.0
11
16.254550
21
183.855405
31
0.0
0
LINE
8
0
6
CONTINUOUS
10
17.557760
20
183.683775
30
0.0
11
18.014570
21
182.730655
31
0.0
0
LINE
8
0
6
CONTINUOUS
10
18.014570
20
182.730655
30
0.0
11
17.557760
21
183.683775
31
0.0
0
LINE
8
0
6
CONTINUOUS
10
17.168170
20
181.949135
30
0.0
11
18.014570
21
182.730655
31
0.0
0
LINE
8
0
6
CONTINUOUS
10
15.864980
20
182.120725
30
0.0
11
17.168170
21
181.949135
31
0.0
0
LINE
8
0
6
CONTINUOUS
10
15.408160
20
183.073905
30
0.0
11
15.864980
21
182.120725
31
0.0
0
LINE
8
0
6
CONTINUOUS
10
16.254550
20
183.855405
30
0.0
11
15.408160
21
183.073905
31
0.0
0
LINE
8
0
6
CONTINUOUS
10
17.557760
20
183.683775
30
0.0
11
16.254550
21
183.855405
31
0.0
0
LINE
8
0
6
CONTINUOUS
10
12.568500
20
178.969305
30
0.0
11
13.871710
21
178.797725
31
0.0
0
LINE
8
0
6
CONTINUOUS
10
11.722110
20
178.187805
30
0.0
11
12.568500
21
178.969305
31
0.0
0
LINE
8
0
6
CONTINUOUS
10
13.871710
20
178.797725
30
0.0
11
14.328520
21
177.844605
31
0.0
0
LINE
8
0
6
CONTINUOUS
10
14.328520
20
177.844605
30
0.0
11
13.871710
21
178.797725
31
0.0
0
LINE
8
0
6
CONTINUOUS
10
13.482120
20
177.063055
30
0.0
11
14.328520
21
177.844605
31
0.0
0
LINE
8
0
6
CONTINUOUS
10
12.178930
20
177.234675
30
0.0
11
13.482120
21
177.063055
31
0.0
0
LINE
8
0
6
CONTINUOUS
10
11.722110
20
178.187805
30
0.0
11
12.178930
21
177.234675
31
0.0
0
LINE
8
0
6
CONTINUOUS
10
12.568500
20
178.969305
30
0.0
11
11.722110
21
178.187805
31
0.0
0
LINE
8
0
6
CONTINUOUS
10
13.871710
20
178.797725
30
0.0
11
12.568500
21
178.969305
31
0.0
0
LINE
8
0
6
CONTINUOUS
10
7.739990
20
174.367925
30
0.0
11
9.259110
21
174.167865
31
0.0
0
LINE
8
0
6
CONTINUOUS
10
6.753380
20
173.456905
30
0.0
11
7.739990
21
174.367925
31
0.0
0
LINE
8
0
6
CONTINUOUS
10
9.259110
20
174.167865
30
0.0
11
9.791600
21
173.056825
31
0.0
0
LINE
8
0
6
CONTINUOUS
10
9.791600
20
173.056825
30
0.0
11
9.259110
21
174.167865
31
0.0
0
LINE
8
0
6
CONTINUOUS
10
8.804970
20
172.145805
30
0.0
11
9.791600
21
173.056825
31
0.0
0
LINE
8
0
6
CONTINUOUS
10
7.285880
20
172.345865
30
0.0
11
8.804970
21
172.145805
31
0.0
0
LINE
8
0
6
CONTINUOUS
10
6.753380
20
173.456905
30
0.0
11
7.285880
21
172.345865
31
0.0
0
LINE
8
0
6
CONTINUOUS
10
7.739990
20
174.367925
30
0.0
11
6.753380
21
173.456905
31
0.0
0
LINE
8
0
6
CONTINUOUS
10
9.259110
20
174.167865
30
0.0
11
7.739990
21
174.367925
31
0.0
0
LINE
8
0
6
CONTINUOUS
10
7.967460
20
185.951995
30
0.0
11
9.270670
21
185.780375
31
0.0
0
LINE
8
0
6
CONTINUOUS
10
7.121070
20
185.170465
30
0.0
11
7.967460
21
185.951995
31
0.0
0
LINE
8
0
6
CONTINUOUS
10
9.270670
20
185.780375
30
0.0
11
9.727480
21
184.827255
31
0.0
0
LINE
8
0
6
CONTINUOUS
10
9.727480
20
184.827255
30
0.0
11
9.270670
21
185.780375
31
0.0
0
LINE
8
0
6
CONTINUOUS
10
8.881080
20
184.045695
30
0.0
11
9.727480
21
184.827255
31
0.0
0
LINE
8
0
6
CONTINUOUS
10
7.577890
20
184.217325
30
0.0
11
8.881080
21
184.045695
31
0.0
0
LINE
8
0
6
CONTINUOUS
10
7.121070
20
185.170465
30
0.0
11
7.577890
21
184.217325
31
0.0
0
LINE
8
0
6
CONTINUOUS
10
7.967460
20
185.951995
30
0.0
11
7.121070
21
185.170465
31
0.0
0
LINE
8
0
6
CONTINUOUS
10
9.270670
20
185.780375
30
0.0
11
7.967460
21
185.951995
31
0.0
0
LINE
8
0
6
CONTINUOUS
10
4.717120
20
180.741175
30
0.0
11
6.020320
21
180.569595
31
0.0
0
LINE
8
0
6
CONTINUOUS
10
3.870730
20
179.959665
30
0.0
11
4.717120
21
180.741175
31
0.0
0
LINE
8
0
6
CONTINUOUS
10
6.020320
20
180.569595
30
0.0
11
6.477140
21
179.616455
31
0.0
0
LINE
8
0
6
CONTINUOUS
10
6.477140
20
179.616455
30
0.0
11
6.020320
21
180.569595
31
0.0
0
LINE
8
0
6
CONTINUOUS
10
5.630730
20
178.834915
30
0.0
11
6.477140
21
179.616455
31
0.0
0
LINE
8
0
6
CONTINUOUS
10
4.327540
20
179.006535
30
0.0
11
5.630730
21
178.834915
31
0.0
0
LINE
8
0
6
CONTINUOUS
10
3.870730
20
179.959665
30
0.0
11
4.327540
21
179.006535
31
0.0
0
LINE
8
0
6
CONTINUOUS
10
4.717120
20
180.741175
30
0.0
11
3.870730
21
179.959665
31
0.0
0
LINE
8
0
6
CONTINUOUS
10
6.020320
20
180.569595
30
0.0
11
4.717120
21
180.741175
31
0.0
0
LINE
8
0
6
CONTINUOUS
10
-0.541100
20
175.513445
30
0.0
11
0.978010
21
175.313425
31
0.0
0
LINE
8
0
6
CONTINUOUS
10
-1.527710
20
174.602435
30
0.0
11
-0.541100
21
175.513445
31
0.0
0
LINE
8
0
6
CONTINUOUS
10
0.978010
20
175.313425
30
0.0
11
1.510510
21
174.202385
31
0.0
0
LINE
8
0
6
CONTINUOUS
10
1.510510
20
174.202385
30
0.0
11
0.978010
21
175.313425
31
0.0
0
LINE
8
0
6
CONTINUOUS
10
0.523880
20
173.291365
30
0.0
11
1.510510
21
174.202385
31
0.0
0
LINE
8
0
6
CONTINUOUS
10
-0.995210
20
173.491395
30
0.0
11
0.523880
21
173.291365
31
0.0
0
LINE
8
0
6
CONTINUOUS
10
-1.527710
20
174.602435
30
0.0
11
-0.995210
21
173.491395
31
0.0
0
LINE
8
0
6
CONTINUOUS
10
-0.541100
20
175.513445
30
0.0
11
-1.527710
21
174.602435
31
0.0
0
LINE
8
0
6
CONTINUOUS
10
0.978010
20
175.313425
30
0.0
11
-0.541100
21
175.513445
31
0.0
0
LINE
8
0
6
CONTINUOUS
10
-2.542750
20
169.680835
30
0.0
11
-0.974360
21
169.474325
31
0.0
0
LINE
8
0
6
CONTINUOUS
10
-3.561360
20
168.740275
30
0.0
11
-2.542750
21
169.680835
31
0.0
0
LINE
8
0
6
CONTINUOUS
10
-0.974360
20
169.474325
30
0.0
11
-0.424600
21
168.327225
31
0.0
0
LINE
8
0
6
CONTINUOUS
10
-0.424600
20
168.327225
30
0.0
11
-0.974360
21
169.474325
31
0.0
0
LINE
8
0
6
CONTINUOUS
10
-1.443230
20
167.386675
30
0.0
11
-0.424600
21
168.327225
31
0.0
0
LINE
8
0
6
CONTINUOUS
10
-3.011590
20
167.593225
30
0.0
11
-1.443230
21
167.386675
31
0.0
0
LINE
8
0
6
CONTINUOUS
10
-3.561360
20
168.740275
30
0.0
11
-3.011590
21
167.593225
31
0.0
0
LINE
8
0
6
CONTINUOUS
10
-2.542750
20
169.680835
30
0.0
11
-3.561360
21
168.740275
31
0.0
0
LINE
8
0
6
CONTINUOUS
10
-0.974360
20
169.474325
30
0.0
11
-2.542750
21
169.680835
31
0.0
0
LINE
8
0
6
CONTINUOUS
10
-10.344610
20
167.392805
30
0.0
11
-8.776230
21
167.186315
31
0.0
0
LINE
8
0
6
CONTINUOUS
10
-11.363220
20
166.452265
30
0.0
11
-10.344610
21
167.392805
31
0.0
0
LINE
8
0
6
CONTINUOUS
10
-8.776230
20
167.186315
30
0.0
11
-8.226460
21
166.039215
31
0.0
0
LINE
8
0
6
CONTINUOUS
10
-8.226460
20
166.039215
30
0.0
11
-8.776230
21
167.186315
31
0.0
0
LINE
8
0
6
CONTINUOUS
10
-9.245090
20
165.098665
30
0.0
11
-8.226460
21
166.039215
31
0.0
0
LINE
8
0
6
CONTINUOUS
10
-10.813450
20
165.305175
30
0.0
11
-9.245090
21
165.098665
31
0.0
0
LINE
8
0
6
CONTINUOUS
10
-11.363220
20
166.452265
30
0.0
11
-10.813450
21
165.305175
31
0.0
0
LINE
8
0
6
CONTINUOUS
10
-10.344610
20
167.392805
30
0.0
11
-11.363220
21
166.452265
31
0.0
0
LINE
8
0
6
CONTINUOUS
10
-8.776230
20
167.186315
30
0.0
11
-10.344610
21
167.392805
31
0.0
0
LINE
8
0
6
CONTINUOUS
10
-8.821040
20
174.394075
30
0.0
11
-7.301930
21
174.194055
31
0.0
0
LINE
8
0
6
CONTINUOUS
10
-9.807660
20
173.483055
30
0.0
11
-8.821040
21
174.394075
31
0.0
0
LINE
8
0
6
CONTINUOUS
10
-7.301930
20
174.194055
30
0.0
11
-6.769430
21
173.082975
31
0.0
0
LINE
8
0
6
CONTINUOUS
10
-6.769430
20
173.082975
30
0.0
11
-7.301930
21
174.194055
31
0.0
0
LINE
8
0
6
CONTINUOUS
10
-7.756060
20
172.171955
30
0.0
11
-6.769430
21
173.082975
31
0.0
0
LINE
8
0
6
CONTINUOUS
10
-9.275160
20
172.372015
30
0.0
11
-7.756060
21
172.171955
31
0.0
0
LINE
8
0
6
CONTINUOUS
10
-9.807660
20
173.483055
30
0.0
11
-9.275160
21
172.372015
31
0.0
0
LINE
8
0
6
CONTINUOUS
10
-8.821040
20
174.394075
30
0.0
11
-9.807660
21
173.483055
31
0.0
0
LINE
8
0
6
CONTINUOUS
10
-7.301930
20
174.194055
30
0.0
11
-8.821040
21
174.394075
31
0.0
0
LINE
8
0
6
CONTINUOUS
10
-16.148840
20
170.910815
30
0.0
11
-14.629730
21
170.710795
31
0.0
0
LINE
8
0
6
CONTINUOUS
10
-17.135450
20
169.999845
30
0.0
11
-16.148840
21
170.910815
31
0.0
0
LINE
8
0
6
CONTINUOUS
10
-14.629730
20
170.710795
30
0.0
11
-14.097230
21
169.599765
31
0.0
0
LINE
8
0
6
CONTINUOUS
10
-14.097230
20
169.599765
30
0.0
11
-14.629730
21
170.710795
31
0.0
0
LINE
8
0
6
CONTINUOUS
10
-15.083860
20
168.688765
30
0.0
11
-14.097230
21
169.599765
31
0.0
0
LINE
8
0
6
CONTINUOUS
10
-16.602960
20
168.888785
30
0.0
11
-15.083860
21
168.688765
31
0.0
0
LINE
8
0
6
CONTINUOUS
10
-17.135450
20
169.999845
30
0.0
11
-16.602960
21
168.888785
31
0.0
0
LINE
8
0
6
CONTINUOUS
10
-16.148840
20
170.910815
30
0.0
11
-17.135450
21
169.999845
31
0.0
0
LINE
8
0
6
CONTINUOUS
10
-14.629730
20
170.710795
30
0.0
11
-16.148840
21
170.910815
31
0.0
0
LINE
8
0
6
CONTINUOUS
10
-4.217800
20
180.890565
30
0.0
11
-2.914590
21
180.718935
31
0.0
0
LINE
8
0
6
CONTINUOUS
10
-5.064190
20
180.109025
30
0.0
11
-4.217800
21
180.890565
31
0.0
0
LINE
8
0
6
CONTINUOUS
10
-2.914590
20
180.718935
30
0.0
11
-2.457780
21
179.765815
31
0.0
0
LINE
8
0
6
CONTINUOUS
10
-2.457780
20
179.765815
30
0.0
11
-2.914590
21
180.718935
31
0.0
0
LINE
8
0
6
CONTINUOUS
10
-3.304180
20
178.984265
30
0.0
11
-2.457780
21
179.765815
31
0.0
0
LINE
8
0
6
CONTINUOUS
10
-4.607370
20
179.155885
30
0.0
11
-3.304180
21
178.984265
31
0.0
0
LINE
8
0
6
CONTINUOUS
10
-5.064190
20
180.109025
30
0.0
11
-4.607370
21
179.155885
31
0.0
0
LINE
8
0
6
CONTINUOUS
10
-4.217800
20
180.890565
30
0.0
11
-5.064190
21
180.109025
31
0.0
0
LINE
8
0
6
CONTINUOUS
10
-2.914590
20
180.718935
30
0.0
11
-4.217800
21
180.890565
31
0.0
0
LINE
8
0
6
CONTINUOUS
10
-12.554660
20
179.290045
30
0.0
11
-11.251450
21
179.118425
31
0.0
0
LINE
8
0
6
CONTINUOUS
10
-13.401050
20
178.508545
30
0.0
11
-12.554660
21
179.290045
31
0.0
0
LINE
8
0
6
CONTINUOUS
10
-11.251450
20
179.118425
30
0.0
11
-10.794640
21
178.165305
31
0.0
0
LINE
8
0
6
CONTINUOUS
10
-10.794640
20
178.165305
30
0.0
11
-11.251450
21
179.118425
31
0.0
0
LINE
8
0
6
CONTINUOUS
10
-11.641040
20
177.383795
30
0.0
11
-10.794640
21
178.165305
31
0.0
0
LINE
8
0
6
CONTINUOUS
10
-12.944230
20
177.555385
30
0.0
11
-11.641040
21
177.383795
31
0.0
0
LINE
8
0
6
CONTINUOUS
10
-13.401050
20
178.508545
30
0.0
11
-12.944230
21
177.555385
31
0.0
0
LINE
8
0
6
CONTINUOUS
10
-12.554660
20
179.290045
30
0.0
11
-13.401050
21
178.508545
31
0.0
0
LINE
8
0
6
CONTINUOUS
10
-11.251450
20
179.118425
30
0.0
11
-12.554660
21
179.290045
31
0.0
0
LINE
8
0
6
CONTINUOUS
10
-19.796980
20
175.719625
30
0.0
11
-18.493780
21
175.548035
31
0.0
0
LINE
8
0
6
CONTINUOUS
10
-20.643370
20
174.938115
30
0.0
11
-19.796980
21
175.719625
31
0.0
0
LINE
8
0
6
CONTINUOUS
10
-18.493780
20
175.548035
30
0.0
11
-18.036960
21
174.594875
31
0.0
0
LINE
8
0
6
CONTINUOUS
10
-18.036960
20
174.594875
30
0.0
11
-18.493780
21
175.548035
31
0.0
0
LINE
8
0
6
CONTINUOUS
10
-18.883360
20
173.813365
30
0.0
11
-18.036960
21
174.594875
31
0.0
0
LINE
8
0
6
CONTINUOUS
10
-20.186550
20
173.984985
30
0.0
11
-18.883360
21
173.813365
31
0.0
0
LINE
8
0
6
CONTINUOUS
10
-20.643370
20
174.938115
30
0.0
11
-20.186550
21
173.984985
31
0.0
0
LINE
8
0
6
CONTINUOUS
10
-19.796980
20
175.719625
30
0.0
11
-20.643370
21
174.938115
31
0.0
0
LINE
8
0
6
CONTINUOUS
10
-18.493780
20
175.548035
30
0.0
11
-19.796980
21
175.719625
31
0.0
0
LINE
8
0
6
CONTINUOUS
10
-17.357730
20
183.533345
30
0.0
11
-16.035260
21
183.531285
31
0.0
0
LINE
8
0
6
CONTINUOUS
10
-18.022680
20
182.654415
30
0.0
11
-17.357730
21
183.533345
31
0.0
0
LINE
8
0
6
CONTINUOUS
10
-16.035260
20
183.531285
30
0.0
11
-15.377750
21
182.650265
31
0.0
0
LINE
8
0
6
CONTINUOUS
10
-15.377750
20
182.650265
30
0.0
11
-16.035260
21
183.531285
31
0.0
0
LINE
8
0
6
CONTINUOUS
10
-16.042710
20
181.771335
30
0.0
11
-15.377750
21
182.650265
31
0.0
0
LINE
8
0
6
CONTINUOUS
10
-17.365160
20
181.773435
30
0.0
11
-16.042710
21
181.771335
31
0.0
0
LINE
8
0
6
CONTINUOUS
10
-18.022680
20
182.654415
30
0.0
11
-17.365160
21
181.773435
31
0.0
0
LINE
8
0
6
CONTINUOUS
10
-17.357730
20
183.533345
30
0.0
11
-18.022680
21
182.654415
31
0.0
0
LINE
8
0
6
CONTINUOUS
10
-16.035260
20
183.531285
30
0.0
11
-17.357730
21
183.533345
31
0.0
0
LINE
8
0
6
CONTINUOUS
10
-9.212540
20
185.847415
30
0.0
11
-7.890070
21
185.845355
31
0.0
0
LINE
8
0
6
CONTINUOUS
10
-9.877490
20
184.968495
30
0.0
11
-9.212540
21
185.847415
31
0.0
0
LINE
8
0
6
CONTINUOUS
10
-7.890070
20
185.845355
30
0.0
11
-7.232550
21
184.964335
31
0.0
0
LINE
8
0
6
CONTINUOUS
10
-7.232550
20
184.964335
30
0.0
11
-7.890070
21
185.845355
31
0.0
0
LINE
8
0
6
CONTINUOUS
10
-7.897510
20
184.085405
30
0.0
11
-7.232550
21
184.964335
31
0.0
0
LINE
8
0
6
CONTINUOUS
10
-9.219970
20
184.087505
30
0.0
11
-7.897510
21
184.085405
31
0.0
0
LINE
8
0
6
CONTINUOUS
10
-9.877490
20
184.968495
30
0.0
11
-9.219970
21
184.087505
31
0.0
0
LINE
8
0
6
CONTINUOUS
10
-9.212540
20
185.847415
30
0.0
11
-9.877490
21
184.968495
31
0.0
0
LINE
8
0
6
CONTINUOUS
10
-7.890070
20
185.845355
30
0.0
11
-9.212540
21
185.847415
31
0.0
0
LINE
8
0
6
CONTINUOUS
10
-0.740260
20
186.733095
30
0.0
11
0.582200
21
186.730995
31
0.0
0
LINE
8
0
6
CONTINUOUS
10
-1.405210
20
185.854165
30
0.0
11
-0.740260
21
186.733095
31
0.0
0
LINE
8
0
6
CONTINUOUS
10
0.582200
20
186.730995
30
0.0
11
1.239720
21
185.850015
31
0.0
0
LINE
8
0
6
CONTINUOUS
10
1.239720
20
185.850015
30
0.0
11
0.582200
21
186.730995
31
0.0
0
LINE
8
0
6
CONTINUOUS
10
0.574760
20
184.971025
30
0.0
11
1.239720
21
185.850015
31
0.0
0
LINE
8
0
6
CONTINUOUS
10
-0.747690
20
184.973125
30
0.0
11
0.574760
21
184.971025
31
0.0
0
LINE
8
0
6
CONTINUOUS
10
-1.405210
20
185.854165
30
0.0
11
-0.747690
21
184.973125
31
0.0
0
LINE
8
0
6
CONTINUOUS
10
-0.740260
20
186.733095
30
0.0
11
-1.405210
21
185.854165
31
0.0
0
LINE
8
0
6
CONTINUOUS
10
0.582200
20
186.730995
30
0.0
11
-0.740260
21
186.733095
31
0.0
0
LINE
8
0
6
CONTINUOUS
10
-16.189160
20
160.653715
30
0.0
11
-16.177190
21
161.876535
31
0.0
0
LINE
8
0
6
CONTINUOUS
10
-16.177190
20
161.876535
30
0.0
11
-14.792880
21
162.481245
31
0.0
0
LINE
8
0
6
CONTINUOUS
10
-14.792880
20
162.481245
30
0.0
11
-13.420520
21
161.863135
31
0.0
0
LINE
8
0
6
CONTINUOUS
10
-16.177190
20
161.876535
30
0.0
11
-16.189160
21
160.653715
31
0.0
0
LINE
8
0
6
CONTINUOUS
10
-14.792880
20
162.481245
30
0.0
11
-16.177190
21
161.876535
31
0.0
0
LINE
8
0
6
CONTINUOUS
10
-13.420520
20
161.863135
30
0.0
11
-14.792880
21
162.481245
31
0.0
0
LINE
8
0
6
CONTINUOUS
10
-13.432450
20
160.640375
30
0.0
11
-13.420520
21
161.863135
31
0.0
0
LINE
8
0
6
CONTINUOUS
10
-14.816780
20
160.035645
30
0.0
11
-13.432450
21
160.640375
31
0.0
0
LINE
8
0
6
CONTINUOUS
10
-16.189160
20
160.653715
30
0.0
11
-14.816780
21
160.035645
31
0.0
0
LINE
8
0
6
CONTINUOUS
10
11.946744
20
7.731053
30
0.0
11
12.051050
21
9.736945
31
0.0
0
LINE
8
0
6
CONTINUOUS
10
-6.767440
20
-19.716615
30
0.0
11
-4.664020
21
-20.126355
31
0.0
0
LINE
8
0
6
CONTINUOUS
10
3.054290
20
-20.363145
30
0.0
11
5.510630
21
-20.093295
31
0.0
0
LINE
8
0
6
CONTINUOUS
10
-8.306496
20
-19.203246
30
0.0
11
-6.767440
21
-19.716615
31
0.0
0
LINE
8
0
6
CONTINUOUS
10
0.420070
20
-20.461045
30
0.0
11
3.054290
21
-20.363145
31
0.0
0
LINE
8
0
6
CONTINUOUS
10
-2.212500
20
-20.380275
30
0.0
11
0.420070
21
-20.461045
31
0.0
0
LINE
8
0
6
CONTINUOUS
10
7.621700
20
-19.669835
30
0.0
11
8.412802
21
-19.402458
31
0.0
0
LINE
8
0
6
CONTINUOUS
10
-4.664020
20
-20.126355
30
0.0
11
-2.212500
21
-20.380275
31
0.0
0
LINE
8
0
6
CONTINUOUS
10
5.510630
20
-20.093295
30
0.0
11
7.621700
21
-19.669835
31
0.0
0
LINE
8
0
6
CONTINUOUS
10
-6.338415
20
-19.800188
30
0.0
11
-6.669110
21
-44.006765
31
0.0
0
LINE
8
0
6
CONTINUOUS
10
-4.743590
20
-45.134155
30
0.0
11
-4.402322
21
-20.153461
31
0.0
0
LINE
8
0
6
CONTINUOUS
10
6.529960
20
-44.162385
30
0.0
11
6.862485
21
-19.822126
31
0.0
0
LINE
8
0
6
CONTINUOUS
10
4.589560
20
-45.244195
30
0.0
11
4.932288
21
-20.156831
31
0.0
0
LINE
8
0
6
CONTINUOUS
10
0.264027
20
-20.456257
30
0.0
11
-0.080100
21
-45.646715
31
0.0
0
LINE
8
0
6
CONTINUOUS
10
-6.669110
20
-44.006765
30
0.0
11
-6.949240
21
-70.564115
31
0.0
0
LINE
8
0
6
CONTINUOUS
10
-5.020110
20
-71.351085
30
0.0
11
-4.743590
21
-45.134155
31
0.0
0
LINE
8
0
6
CONTINUOUS
10
6.250220
20
-70.683505
30
0.0
11
6.529960
21
-44.162385
31
0.0
0
LINE
8
0
6
CONTINUOUS
10
4.313310
20
-71.435515
30
0.0
11
4.589560
21
-45.244195
31
0.0
0
LINE
8
0
6
CONTINUOUS
10
-0.080100
20
-45.646715
30
0.0
11
-0.355010
21
-71.712035
31
0.0
0
LINE
8
0
6
CONTINUOUS
10
-6.949240
20
-70.564115
30
0.0
11
-7.149960
21
-96.354775
31
0.0
0
LINE
8
0
6
CONTINUOUS
10
-5.218580
20
-96.856245
30
0.0
11
-5.020110
21
-71.351085
31
0.0
0
LINE
8
0
6
CONTINUOUS
10
6.049760
20
-96.441165
30
0.0
11
6.250220
21
-70.683505
31
0.0
0
LINE
8
0
6
CONTINUOUS
10
-0.355010
20
-71.712035
30
0.0
11
-0.552470
21
-97.089275
31
0.0
0
LINE
8
0
6
CONTINUOUS
10
4.115030
20
-96.917335
30
0.0
11
4.313310
21
-71.435515
31
0.0
0
LINE
8
0
6
CONTINUOUS
10
-7.149960
20
-96.354775
30
0.0
11
-7.284500
21
-121.341565
31
0.0
0
LINE
8
0
6
CONTINUOUS
10
-5.351930
20
-121.625895
30
0.0
11
-5.218580
21
-96.856245
31
0.0
0
LINE
8
0
6
CONTINUOUS
10
5.915380
20
-121.399255
30
0.0
11
6.049760
21
-96.441165
31
0.0
0
LINE
8
0
6
CONTINUOUS
10
-0.552470
20
-97.089275
30
0.0
11
-0.685280
21
-121.760565
31
0.0
0
LINE
8
0
6
CONTINUOUS
10
3.981790
20
-121.666685
30
0.0
11
4.115030
21
-96.917335
31
0.0
0
LINE
8
0
6
CONTINUOUS
10
-7.284500
20
-121.341565
30
0.0
11
-7.366100
21
-145.487405
31
0.0
0
LINE
8
0
6
CONTINUOUS
10
-5.433050
20
-145.633835
30
0.0
11
-5.351930
21
-121.625895
31
0.0
0
LINE
8
0
6
CONTINUOUS
10
5.833860
20
-145.521565
30
0.0
11
5.915380
21
-121.399255
31
0.0
0
LINE
8
0
6
CONTINUOUS
10
-0.685280
20
-121.760565
30
0.0
11
-0.766180
21
-145.704515
31
0.0
0
LINE
8
0
6
CONTINUOUS
10
3.900730
20
-145.657995
30
0.0
11
3.981790
21
-121.666685
31
0.0
0
LINE
8
0
6
CONTINUOUS
10
-7.366100
20
-145.487405
30
0.0
11
-7.407990
21
-168.755325
31
0.0
0
LINE
8
0
6
CONTINUOUS
10
-5.474850
20
-168.853225
30
0.0
11
-5.433050
21
-145.633835
31
0.0
0
LINE
8
0
6
CONTINUOUS
10
5.792000
20
-168.771745
30
0.0
11
5.833860
21
-145.521565
31
0.0
0
LINE
8
0
6
CONTINUOUS
10
-0.766180
20
-145.704515
30
0.0
11
-0.807930
21
-168.898565
31
0.0
0
LINE
8
0
6
CONTINUOUS
10
3.858950
20
-168.864845
30
0.0
11
3.900730
21
-145.657995
31
0.0
0
LINE
8
0
6
CONTINUOUS
10
-7.407990
20
-168.755325
30
0.0
11
-7.423430
21
-191.108265
31
0.0
0
LINE
8
0
6
CONTINUOUS
10
-5.490330
20
-191.258045
30
0.0
11
-5.474850
21
-168.853225
31
0.0
0
LINE
8
0
6
CONTINUOUS
10
5.776570
20
-191.113505
30
0.0
11
5.792000
21
-168.771745
31
0.0
0
LINE
8
0
6
CONTINUOUS
10
-0.807930
20
-168.898565
30
0.0
11
-0.823420
21
-191.321635
31
0.0
0
LINE
8
0
6
CONTINUOUS
10
3.843480
20
-191.261785
30
0.0
11
3.858950
21
-168.864845
31
0.0
0
LINE
8
0
6
CONTINUOUS
10
-5.492560
20
-212.804645
30
0.0
11
-0.825670
21
-212.926735
31
0.0
0
LINE
8
0
6
CONTINUOUS
10
-7.425630
20
-212.509935
30
0.0
11
-5.492560
21
-212.804645
31
0.0
0
LINE
8
0
6
CONTINUOUS
10
-7.423430
20
-191.108265
30
0.0
11
-7.425630
21
-212.509935
31
0.0
0
LINE
8
0
6
CONTINUOUS
10
-5.492560
20
-212.804645
30
0.0
11
-5.490330
21
-191.258045
31
0.0
0
LINE
8
0
6
CONTINUOUS
10
3.841250
20
-212.804645
30
0.0
11
5.774370
21
-212.509955
31
0.0
0
LINE
8
0
6
CONTINUOUS
10
5.774370
20
-212.509955
30
0.0
11
5.776570
21
-191.113505
31
0.0
0
LINE
8
0
6
CONTINUOUS
10
-0.825670
20
-212.926735
30
0.0
11
3.841250
21
-212.804645
31
0.0
0
LINE
8
0
6
CONTINUOUS
10
-0.823420
20
-191.321635
30
0.0
11
-0.825670
21
-212.926735
31
0.0
0
LINE
8
0
6
CONTINUOUS
10
3.841250
20
-212.804645
30
0.0
11
3.843480
21
-191.261785
31
0.0
0
LINE
8
0
6
CONTINUOUS
10
15.917660
20
-38.067325
30
0.0
11
16.129970
21
-36.864175
31
0.0
0
LINE
8
0
6
CONTINUOUS
10
15.705350
20
-39.270475
30
0.0
11
15.917660
21
-38.067325
31
0.0
0
LINE
8
0
6
CONTINUOUS
10
15.493040
20
-40.473635
30
0.0
11
15.705350
21
-39.270475
31
0.0
0
LINE
8
0
6
CONTINUOUS
10
15.280730
20
-41.676785
30
0.0
11
15.493040
21
-40.473635
31
0.0
0
LINE
8
0
6
CONTINUOUS
10
17.750720
20
13.805995
30
0.0
11
18.083700
21
15.804575
31
0.0
0
LINE
8
0
6
CONTINUOUS
10
17.417730
20
11.807405
30
0.0
11
17.750720
21
13.805995
31
0.0
0
LINE
8
0
6
CONTINUOUS
10
17.084740
20
9.808815
30
0.0
11
17.417730
21
11.807405
31
0.0
0
LINE
8
0
6
CONTINUOUS
10
16.751750
20
7.810225
30
0.0
11
17.084740
21
9.808815
31
0.0
0
LINE
8
0
6
CONTINUOUS
10
8.866890
20
-44.085175
30
0.0
11
10.260860
21
-44.107475
31
0.0
0
LINE
8
0
6
CONTINUOUS
10
8.520720
20
4.602965
30
0.0
11
10.269590
21
4.571425
31
0.0
0
LINE
8
0
6
CONTINUOUS
10
8.242090
20
4.607985
30
0.0
11
8.247860
21
3.796745
31
0.0
0
LINE
8
0
6
CONTINUOUS
10
8.247860
20
3.796745
30
0.0
11
8.581470
21
-43.125845
31
0.0
0
LINE
8
0
6
CONTINUOUS
10
10.538790
20
-44.111925
30
0.0
11
10.842780
21
-44.076445
31
0.0
0
LINE
8
0
6
CONTINUOUS
10
8.581470
20
-43.125845
30
0.0
11
8.588260
21
-44.080715
31
0.0
0
LINE
8
0
6
CONTINUOUS
10
8.588260
20
-44.080715
30
0.0
11
8.866890
21
-44.085175
31
0.0
0
LINE
8
0
6
CONTINUOUS
10
10.547520
20
4.566415
30
0.0
11
10.823480
21
4.616555
31
0.0
0
LINE
8
0
6
CONTINUOUS
10
8.271006
20
5.567482
30
0.0
11
8.244720
21
4.694985
31
0.0
0
LINE
8
0
6
CONTINUOUS
10
17.932130
20
17.937615
30
0.0
11
14.937299
21
17.938367
31
0.0
0
LINE
8
0
6
CONTINUOUS
10
8.244720
20
4.694985
30
0.0
11
8.242090
21
4.607985
31
0.0
0
LINE
8
0
6
CONTINUOUS
10
18.439070
20
17.937485
30
0.0
11
17.932130
21
17.937615
31
0.0
0
LINE
8
0
6
CONTINUOUS
10
16.129970
20
-36.864175
30
0.0
11
16.342280
21
-35.661015
31
0.0
0
LINE
8
0
6
CONTINUOUS
10
18.416690
20
17.803165
30
0.0
11
18.083700
21
15.804575
31
0.0
0
LINE
8
0
6
CONTINUOUS
10
16.405080
20
-34.487035
30
0.0
11
18.404500
21
17.046525
31
0.0
0
LINE
8
0
6
CONTINUOUS
10
12.801400
20
-42.889595
30
0.0
11
13.340470
21
4.260425
31
0.0
0
LINE
8
0
6
CONTINUOUS
10
10.538790
20
-44.111925
30
0.0
11
10.538960
21
-43.157255
31
0.0
0
LINE
8
0
6
CONTINUOUS
10
10.260860
20
-44.107475
30
0.0
11
10.538790
21
-44.111925
31
0.0
0
LINE
8
0
6
CONTINUOUS
10
18.439070
20
17.937485
30
0.0
11
18.416690
21
17.803165
31
0.0
0
LINE
8
0
6
CONTINUOUS
10
18.404500
20
17.046525
30
0.0
11
18.439070
21
17.937485
31
0.0
0
LINE
8
0
6
CONTINUOUS
10
14.987040
20
5.857295
30
0.0
11
13.349790
21
5.075595
31
0.0
0
LINE
8
0
6
CONTINUOUS
10
16.292340
20
6.684665
30
0.0
11
14.987040
21
5.857295
31
0.0
0
LINE
8
0
6
CONTINUOUS
10
16.751750
20
7.810225
30
0.0
11
16.292340
21
6.684665
31
0.0
0
LINE
8
0
6
CONTINUOUS
10
10.538960
20
-43.157255
30
0.0
11
10.547370
21
3.755335
31
0.0
0
LINE
8
0
6
CONTINUOUS
10
13.349790
20
5.075595
30
0.0
11
10.823480
21
4.616555
31
0.0
0
LINE
8
0
6
CONTINUOUS
10
13.340470
20
4.260425
30
0.0
11
13.349790
21
5.075595
31
0.0
0
LINE
8
0
6
CONTINUOUS
10
8.242090
20
4.607985
30
0.0
11
8.520720
21
4.602965
31
0.0
0
LINE
8
0
6
CONTINUOUS
10
10.842780
20
-44.076445
30
0.0
11
12.790430
21
-43.849105
31
0.0
0
LINE
8
0
6
CONTINUOUS
10
10.547520
20
4.566415
30
0.0
11
10.269590
21
4.571425
31
0.0
0
LINE
8
0
6
CONTINUOUS
10
10.547370
20
3.755335
30
0.0
11
10.547520
21
4.566415
31
0.0
0
LINE
8
0
6
CONTINUOUS
10
14.651560
20
-42.716685
30
0.0
11
15.280730
21
-41.676785
31
0.0
0
LINE
8
0
6
CONTINUOUS
10
13.824410
20
-43.289685
30
0.0
11
14.651560
21
-42.716685
31
0.0
0
LINE
8
0
6
CONTINUOUS
10
12.790430
20
-43.849105
30
0.0
11
13.824410
21
-43.289685
31
0.0
0
LINE
8
0
6
CONTINUOUS
10
12.801400
20
-42.889595
30
0.0
11
12.790430
21
-43.849105
31
0.0
0
LINE
8
0
6
CONTINUOUS
10
6.595076
20
-39.396020
30
0.0
11
8.276560
21
-39.704425
31
0.0
0
LINE
8
0
6
CONTINUOUS
10
8.276560
20
-39.704425
30
0.0
11
8.557768
21
-39.792165
31
0.0
0
LINE
8
0
6
CONTINUOUS
10
16.364390
20
-35.535735
30
0.0
11
16.405080
21
-34.487035
31
0.0
0
LINE
8
0
6
CONTINUOUS
10
16.342280
20
-35.661015
30
0.0
11
16.364390
21
-35.535735
31
0.0
0
LINE
8
0
6
CONTINUOUS
10
-16.019240
20
-36.863815
30
0.0
11
-15.807770
21
-38.066975
31
0.0
0
LINE
8
0
6
CONTINUOUS
10
-15.807770
20
-38.066975
30
0.0
11
-15.596310
21
-39.270135
31
0.0
0
LINE
8
0
6
CONTINUOUS
10
-15.596310
20
-39.270135
30
0.0
11
-15.384840
21
-40.473295
31
0.0
0
LINE
8
0
6
CONTINUOUS
10
-15.384840
20
-40.473295
30
0.0
11
-15.173380
21
-41.676445
31
0.0
0
LINE
8
0
6
CONTINUOUS
10
-17.972260
20
15.804975
30
0.0
11
-17.640570
21
13.806375
31
0.0
0
LINE
8
0
6
CONTINUOUS
10
-17.640570
20
13.806375
30
0.0
11
-17.308890
21
11.807785
31
0.0
0
LINE
8
0
6
CONTINUOUS
10
-17.308890
20
11.807785
30
0.0
11
-16.977210
21
9.809185
31
0.0
0
LINE
8
0
6
CONTINUOUS
10
-16.977210
20
9.809185
30
0.0
11
-16.645520
21
7.810595
31
0.0
0
LINE
8
0
6
CONTINUOUS
10
-10.155210
20
-44.107255
30
0.0
11
-8.761220
21
-44.084985
31
0.0
0
LINE
8
0
6
CONTINUOUS
10
-10.165470
20
4.571645
30
0.0
11
-8.416580
21
4.603145
31
0.0
0
LINE
8
0
6
CONTINUOUS
10
-8.143690
20
3.796925
30
0.0
11
-8.137950
21
4.608165
31
0.0
0
LINE
8
0
6
CONTINUOUS
10
-8.475830
20
-43.125665
30
0.0
11
-8.143690
21
3.796925
31
0.0
0
LINE
8
0
6
CONTINUOUS
10
-10.737110
20
-44.076205
30
0.0
11
-10.433140
21
-44.111695
31
0.0
0
LINE
8
0
6
CONTINUOUS
10
-8.761220
20
-44.084985
30
0.0
11
-8.482590
21
-44.080535
31
0.0
0
LINE
8
0
6
CONTINUOUS
10
-8.482590
20
-44.080535
30
0.0
11
-8.475830
21
-43.125665
31
0.0
0
LINE
8
0
6
CONTINUOUS
10
-10.719330
20
4.616795
30
0.0
11
-10.443400
21
4.566645
31
0.0
0
LINE
8
0
6
CONTINUOUS
10
-8.140510
20
4.695165
30
0.0
11
-8.169770
21
5.687615
31
0.0
0
LINE
8
0
6
CONTINUOUS
10
-14.319106
20
17.938808
30
0.0
11
-17.819290
21
17.938005
31
0.0
0
LINE
8
0
6
CONTINUOUS
10
-8.137950
20
4.608165
30
0.0
11
-8.140510
21
4.695165
31
0.0
0
LINE
8
0
6
CONTINUOUS
10
-11.178860
20
7.030705
30
0.0
11
-11.574820
21
7.806125
31
0.0
0
LINE
8
0
6
CONTINUOUS
10
-10.017460
20
6.308115
30
0.0
11
-11.178860
21
7.030705
31
0.0
0
LINE
8
0
6
CONTINUOUS
10
-8.169770
20
5.687615
30
0.0
11
-10.017460
21
6.308115
31
0.0
0
LINE
8
0
6
CONTINUOUS
10
-17.819290
20
17.938005
30
0.0
11
-18.326230
21
17.937885
31
0.0
0
LINE
8
0
6
CONTINUOUS
10
-16.230700
20
-35.660665
30
0.0
11
-16.019240
21
-36.863815
31
0.0
0
LINE
8
0
6
CONTINUOUS
10
-17.972260
20
15.804975
30
0.0
11
-18.303940
21
17.803575
31
0.0
0
LINE
8
0
6
CONTINUOUS
10
-18.291680
20
17.046925
30
0.0
11
-16.293390
21
-34.486675
31
0.0
0
LINE
8
0
6
CONTINUOUS
10
-13.235990
20
4.260715
30
0.0
11
-12.695590
21
-42.889325
31
0.0
0
LINE
8
0
6
CONTINUOUS
10
-10.433140
20
-44.111695
30
0.0
11
-10.155210
21
-44.107255
31
0.0
0
LINE
8
0
6
CONTINUOUS
10
-10.433340
20
-43.157025
30
0.0
11
-10.433140
21
-44.111695
31
0.0
0
LINE
8
0
6
CONTINUOUS
10
-18.326230
20
17.937885
30
0.0
11
-18.291680
21
17.046925
31
0.0
0
LINE
8
0
6
CONTINUOUS
10
-18.303940
20
17.803575
30
0.0
11
-18.326230
21
17.937885
31
0.0
0
LINE
8
0
6
CONTINUOUS
10
-11.309871
20
8.324309
30
0.0
11
-11.574820
21
7.806125
31
0.0
0
LINE
8
0
6
CONTINUOUS
10
-13.245340
20
5.075895
30
0.0
11
-14.882080
21
5.857625
31
0.0
0
LINE
8
0
6
CONTINUOUS
10
-14.882080
20
5.857625
30
0.0
11
-16.186840
21
6.685025
31
0.0
0
LINE
8
0
6
CONTINUOUS
10
-16.186840
20
6.685025
30
0.0
11
-16.645520
21
7.810595
31
0.0
0
LINE
8
0
6
CONTINUOUS
10
-10.443230
20
3.755565
30
0.0
11
-10.433340
21
-43.157025
31
0.0
0
LINE
8
0
6
CONTINUOUS
10
-13.245340
20
5.075895
30
0.0
11
-13.235990
21
4.260715
31
0.0
0
LINE
8
0
6
CONTINUOUS
10
-10.719330
20
4.616795
30
0.0
11
-13.245340
21
5.075895
31
0.0
0
LINE
8
0
6
CONTINUOUS
10
-8.416580
20
4.603145
30
0.0
11
-8.137950
21
4.608165
31
0.0
0
LINE
8
0
6
CONTINUOUS
10
-12.684600
20
-43.848815
30
0.0
11
-10.737110
21
-44.076205
31
0.0
0
LINE
8
0
6
CONTINUOUS
10
-10.443400
20
4.566645
30
0.0
11
-10.443230
21
3.755565
31
0.0
0
LINE
8
0
6
CONTINUOUS
10
-10.165470
20
4.571645
30
0.0
11
-10.443400
21
4.566645
31
0.0
0
LINE
8
0
6
CONTINUOUS
10
-15.173380
20
-41.676445
30
0.0
11
-14.544940
21
-42.716355
31
0.0
0
LINE
8
0
6
CONTINUOUS
10
-14.544940
20
-42.716355
30
0.0
11
-13.718180
21
-43.289385
31
0.0
0
LINE
8
0
6
CONTINUOUS
10
-12.684600
20
-43.848815
30
0.0
11
-12.695590
21
-42.889325
31
0.0
0
LINE
8
0
6
CONTINUOUS
10
-13.718180
20
-43.289385
30
0.0
11
-12.684600
21
-43.848815
31
0.0
0
LINE
8
0
6
CONTINUOUS
10
-8.167810
20
-39.704245
30
0.0
11
-6.606420
21
-39.417935
31
0.0
0
LINE
8
0
6
CONTINUOUS
10
-8.452240
20
-39.792963
30
0.0
11
-8.167810
21
-39.704245
31
0.0
0
LINE
8
0
6
CONTINUOUS
10
-16.252720
20
-35.535375
30
0.0
11
-16.230700
21
-35.660665
31
0.0
0
LINE
8
0
6
CONTINUOUS
10
-16.293390
20
-34.486675
30
0.0
11
-16.252720
21
-35.535375
31
0.0
0
LINE
8
0
6
CONTINUOUS
10
-21.187006
20
140.993053
30
0.0
11
-20.117487
21
141.539251
31
0.0
0
LINE
8
0
6
CONTINUOUS
10
30.943744
20
144.355097
30
0.0
11
32.049514
21
144.935254
31
0.0
0
LINE
8
0
6
CONTINUOUS
10
10.378067
20
6.236444
30
0.0
11
10.421711
21
6.263417
31
0.0
0
LINE
8
0
6
CONTINUOUS
10
11.544166
20
6.957189
30
0.0
11
11.571986
21
7.010655
31
0.0
0
ENDSEC
0
EOF
