  0
SECTION
  2
HEADER
  9
$ACADVER
  1
AC1014
  9
$ACADMAINTVER
 70
     9
  9
$DWGCODEPAGE
  3
ANSI_1252
  9
$INSBASE
 10
0.0
 20
0.0
 30
0.0
  9
$EXTMIN
 10
0.0000000000000006
 20
0.0926999999999783
 30
0.0
  9
$EXTMAX
 10
85.0
 20
165.9073
 30
0.0
  9
$LIMMIN
 10
0.0
 20
0.0
  9
$LIMMAX
 10
12.0
 20
9.0
  9
$ORTHOMODE
 70
     0
  9
$REGENMODE
 70
     1
  9
$FILLMODE
 70
     1
  9
$QTEXTMODE
 70
     0
  9
$MIRRTEXT
 70
     1
  9
$DRAGMODE
 70
     2
  9
$LTSCALE
 40
1.0
  9
$OSMODE
 70
    37
  9
$ATTMODE
 70
     1
  9
$TEXTSIZE
 40
0.2
  9
$TRACEWID
 40
0.05
  9
$TEXTSTYLE
  7
STANDARD
  9
$CLAYER
  8
0
  9
$CELTYPE
  6
CONTINUOUS
  9
$CECOLOR
 62
   256
  9
$CELTSCALE
 40
1.0
  9
$DELOBJ
 70
     1
  9
$DISPSILH
 70
     0
  9
$DIMSCALE
 40
1.0
  9
$DIMASZ
 40
0.18
  9
$DIMEXO
 40
0.0625
  9
$DIMDLI
 40
0.38
  9
$DIMRND
 40
0.0
  9
$DIMDLE
 40
0.0
  9
$DIMEXE
 40
0.18
  9
$DIMTP
 40
0.0
  9
$DIMTM
 40
0.0
  9
$DIMTXT
 40
0.18
  9
$DIMCEN
 40
0.09
  9
$DIMTSZ
 40
0.0
  9
$DIMTOL
 70
     0
  9
$DIMLIM
 70
     0
  9
$DIMTIH
 70
     1
  9
$DIMTOH
 70
     1
  9
$DIMSE1
 70
     0
  9
$DIMSE2
 70
     0
  9
$DIMTAD
 70
     0
  9
$DIMZIN
 70
     0
  9
$DIMBLK
  1

  9
$DIMASO
 70
     1
  9
$DIMSHO
 70
     1
  9
$DIMPOST
  1

  9
$DIMAPOST
  1

  9
$DIMALT
 70
     0
  9
$DIMALTD
 70
     2
  9
$DIMALTF
 40
25.4
  9
$DIMLFAC
 40
1.0
  9
$DIMTOFL
 70
     0
  9
$DIMTVP
 40
0.0
  9
$DIMTIX
 70
     0
  9
$DIMSOXD
 70
     0
  9
$DIMSAH
 70
     0
  9
$DIMBLK1
  1

  9
$DIMBLK2
  1

  9
$DIMSTYLE
  2
STANDARD
  9
$DIMCLRD
 70
     0
  9
$DIMCLRE
 70
     0
  9
$DIMCLRT
 70
     0
  9
$DIMTFAC
 40
1.0
  9
$DIMGAP
 40
0.09
  9
$DIMJUST
 70
     0
  9
$DIMSD1
 70
     0
  9
$DIMSD2
 70
     0
  9
$DIMTOLJ
 70
     1
  9
$DIMTZIN
 70
     0
  9
$DIMALTZ
 70
     0
  9
$DIMALTTZ
 70
     0
  9
$DIMFIT
 70
     3
  9
$DIMUPT
 70
     0
  9
$DIMUNIT
 70
     2
  9
$DIMDEC
 70
     4
  9
$DIMTDEC
 70
     4
  9
$DIMALTU
 70
     2
  9
$DIMALTTD
 70
     2
  9
$DIMTXSTY
  7
STANDARD
  9
$DIMAUNIT
 70
     0
  9
$LUNITS
 70
     2
  9
$LUPREC
 70
     4
  9
$SKETCHINC
 40
0.1
  9
$FILLETRAD
 40
0.0
  9
$AUNITS
 70
     0
  9
$AUPREC
 70
     0
  9
$MENU
  1
.
  9
$ELEVATION
 40
0.0
  9
$PELEVATION
 40
0.0
  9
$THICKNESS
 40
0.0
  9
$LIMCHECK
 70
     0
  9
$BLIPMODE
 70
     0
  9
$CHAMFERA
 40
0.0
  9
$CHAMFERB
 40
0.0
  9
$CHAMFERC
 40
0.0
  9
$CHAMFERD
 40
0.0
  9
$SKPOLY
 70
     0
  9
$TDCREATE
 40
2454699.399042604
  9
$TDUPDATE
 40
2454699.404063402
  9
$TDINDWG
 40
0.0050207986
  9
$TDUSRTIMER
 40
0.0050207986
  9
$USRTIMER
 70
     1
  9
$ANGBASE
 50
0.0
  9
$ANGDIR
 70
     0
  9
$PDMODE
 70
     0
  9
$PDSIZE
 40
0.0
  9
$PLINEWID
 40
0.0
  9
$COORDS
 70
     1
  9
$SPLFRAME
 70
     0
  9
$SPLINETYPE
 70
     6
  9
$SPLINESEGS
 70
     8
  9
$ATTDIA
 70
     0
  9
$ATTREQ
 70
     1
  9
$HANDLING
 70
 22529
  9
$HANDSEED
  5
4D2
  9
$SURFTAB1
 70
     6
  9
$SURFTAB2
 70
     6
  9
$SURFTYPE
 70
     6
  9
$SURFU
 70
     6
  9
$SURFV
 70
     6
  9
$UCSNAME
  2

  9
$UCSORG
 10
0.0
 20
0.0
 30
0.0
  9
$UCSXDIR
 10
1.0
 20
0.0
 30
0.0
  9
$UCSYDIR
 10
0.0
 20
1.0
 30
0.0
  9
$PUCSNAME
  2

  9
$PUCSORG
 10
0.0
 20
0.0
 30
0.0
  9
$PUCSXDIR
 10
1.0
 20
0.0
 30
0.0
  9
$PUCSYDIR
 10
0.0
 20
1.0
 30
0.0
  9
$USERI1
 70
     0
  9
$USERI2
 70
     0
  9
$USERI3
 70
     0
  9
$USERI4
 70
     0
  9
$USERI5
 70
     0
  9
$USERR1
 40
0.0
  9
$USERR2
 40
0.0
  9
$USERR3
 40
0.0
  9
$USERR4
 40
0.0
  9
$USERR5
 40
0.0
  9
$WORLDVIEW
 70
     1
  9
$SHADEDGE
 70
     3
  9
$SHADEDIF
 70
    70
  9
$TILEMODE
 70
     1
  9
$MAXACTVP
 70
    64
  9
$PINSBASE
 10
0.0
 20
0.0
 30
0.0
  9
$PLIMCHECK
 70
     0
  9
$PEXTMIN
 10
1.000000000000000E+20
 20
1.000000000000000E+20
 30
1.000000000000000E+20
  9
$PEXTMAX
 10
-1.000000000000000E+20
 20
-1.000000000000000E+20
 30
-1.000000000000000E+20
  9
$PLIMMIN
 10
0.0
 20
0.0
  9
$PLIMMAX
 10
12.0
 20
9.0
  9
$UNITMODE
 70
     0
  9
$VISRETAIN
 70
     1
  9
$PLINEGEN
 70
     0
  9
$PSLTSCALE
 70
     1
  9
$TREEDEPTH
 70
  3020
  9
$PICKSTYLE
 70
     1
  9
$CMLSTYLE
  2
STANDARD
  9
$CMLJUST
 70
     0
  9
$CMLSCALE
 40
1.0
  9
$PROXYGRAPHICS
 70
     1
  9
$MEASUREMENT
 70
     0
  0
ENDSEC
  0
SECTION
  2
CLASSES
  0
CLASS
  1
ACDBDICTIONARYWDFLT
  2
AcDbDictionaryWithDefault
  3
AutoCAD 2000
 90
        0
280
     0
281
     0
  0
CLASS
  1
ACDBPLACEHOLDER
  2
AcDbPlaceHolder
  3
AutoCAD 2000
 90
        0
280
     0
281
     0
  0
CLASS
  1
LAYOUT
  2
AcDbLayout
  3
AutoCAD 2000
 90
        0
280
     0
281
     0
  0
CLASS
  1
DICTIONARYVAR
  2
AcDbDictionaryVar
  3
AutoCAD 2000
 90
        0
280
     0
281
     0
  0
CLASS
  1
LONG_TRANSACTION
  2
AcDbLongTransaction
  3
AutoCAD 2000
 90
        0
280
     0
281
     0
  0
CLASS
  1
LWPOLYLINE
  2
AcDbPolyline
  3
AutoCAD 2000
 90
        0
280
     0
281
     1
  0
CLASS
  1
HATCH
  2
AcDbHatch
  3
AutoCAD 2000
 90
        0
280
     0
281
     1
  0
CLASS
  1
XRECORD
  2
AcDbXrecord
  3
AutoCAD 2000
 90
        0
280
     0
281
     0
  0
ENDSEC
  0
SECTION
  2
TABLES
  0
TABLE
  2
VPORT
  5
8
330
0
100
AcDbSymbolTable
 70
     4
  0
VPORT
  5
4AD
330
8
100
AcDbSymbolTableRecord
100
AcDbViewportTableRecord
  2
*ACTIVE
 70
     0
 10
0.0
 20
0.0
 11
1.0
 21
1.0
 12
42.5
 22
82.99999999999998
 13
0.0
 23
0.0
 14
1.0
 24
1.0
 15
0.0
 25
0.0
 16
0.0
 26
0.0
 36
1.0
 17
0.0
 27
0.0
 37
0.0
 40
167.0868347826087
 41
2.078104993597951
 42
50.0
 43
0.0
 44
0.0
 50
0.0
 51
0.0
 71
     0
 72
   100
 73
     1
 74
     3
 75
     0
 76
     0
 77
     0
 78
     0
  0
ENDTAB
  0
TABLE
  2
LTYPE
  5
5
330
0
100
AcDbSymbolTable
 70
     1
  0
LTYPE
  5
13
330
5
100
AcDbSymbolTableRecord
100
AcDbLinetypeTableRecord
  2
BYBLOCK
 70
     0
  3

 72
    65
 73
     0
 40
0.0
  0
LTYPE
  5
14
330
5
100
AcDbSymbolTableRecord
100
AcDbLinetypeTableRecord
  2
BYLAYER
 70
     0
  3

 72
    65
 73
     0
 40
0.0
  0
LTYPE
  5
15
330
5
100
AcDbSymbolTableRecord
100
AcDbLinetypeTableRecord
  2
CONTINUOUS
 70
     0
  3
Solid line
 72
    65
 73
     0
 40
0.0
  0
ENDTAB
  0
TABLE
  2
LAYER
  5
2
330
0
100
AcDbSymbolTable
 70
     1
  0
LAYER
  5
10
330
2
100
AcDbSymbolTableRecord
100
AcDbLayerTableRecord
  2
0
 70
     0
 62
     7
  6
CONTINUOUS
  0
ENDTAB
  0
TABLE
  2
STYLE
  5
3
330
0
100
AcDbSymbolTable
 70
     1
  0
STYLE
  5
11
330
3
100
AcDbSymbolTableRecord
100
AcDbTextStyleTableRecord
  2
STANDARD
 70
     0
 40
0.0
 41
1.0
 50
0.0
 71
     0
 42
0.2
  3
txt
  4

  0
ENDTAB
  0
TABLE
  2
VIEW
  5
6
330
0
100
AcDbSymbolTable
 70
     0
  0
ENDTAB
  0
TABLE
  2
UCS
  5
7
330
0
100
AcDbSymbolTable
 70
     0
  0
ENDTAB
  0
TABLE
  2
APPID
  5
9
330
0
100
AcDbSymbolTable
 70
     1
  0
APPID
  5
12
330
9
100
AcDbSymbolTableRecord
100
AcDbRegAppTableRecord
  2
ACAD
 70
     0
  0
ENDTAB
  0
TABLE
  2
DIMSTYLE
  5
A
330
0
100
AcDbSymbolTable
 70
     1
  0
DIMSTYLE
105
45C
330
A
100
AcDbSymbolTableRecord
100
AcDbDimStyleTableRecord
  2
STANDARD
 70
     0
  3

  4

  5

  6

  7

 40
1.0
 41
0.18
 42
0.0625
 43
0.38
 44
0.18
 45
0.0
 46
0.0
 47
0.0
 48
0.0
140
0.18
141
0.09
142
0.0
143
25.4
144
1.0
145
0.0
146
1.0
147
0.09
 71
     0
 72
     0
 73
     1
 74
     1
 75
     0
 76
     0
 77
     0
 78
     0
170
     0
171
     2
172
     0
173
     0
174
     0
175
     0
176
     0
177
     0
178
     0
270
     2
271
     4
272
     4
273
     2
274
     2
340
11
275
     0
280
     0
281
     0
282
     0
283
     1
284
     0
285
     0
286
     0
287
     3
288
     0
  0
ENDTAB
  0
TABLE
  2
BLOCK_RECORD
  5
1
330
0
100
AcDbSymbolTable
 70
     0
  0
BLOCK_RECORD
  5
1E
102
{ACAD_XDICTIONARY
360
4D0
102
}
330
1
100
AcDbSymbolTableRecord
100
AcDbBlockTableRecord
  2
*MODEL_SPACE
  0
BLOCK_RECORD
  5
1A
102
{ACAD_XDICTIONARY
360
4CE
102
}
330
1
100
AcDbSymbolTableRecord
100
AcDbBlockTableRecord
  2
*PAPER_SPACE
  0
ENDTAB
  0
ENDSEC
  0
SECTION
  2
BLOCKS
  0
BLOCK
  5
1F
330
1E
100
AcDbEntity
  8
0
100
AcDbBlockBegin
  2
*MODEL_SPACE
 70
     0
 10
0.0
 20
0.0
 30
0.0
  3
*MODEL_SPACE
  1

  0
ENDBLK
  5
20
330
1E
100
AcDbEntity
  8
0
100
AcDbBlockEnd
  0
BLOCK
  5
1B
330
1A
100
AcDbEntity
 67
     1
  8
0
100
AcDbBlockBegin
  2
*PAPER_SPACE
 70
     0
 10
0.0
 20
0.0
 30
0.0
  3
*PAPER_SPACE
  1

  0
ENDBLK
  5
1C
330
1A
100
AcDbEntity
 67
     1
  8
0
100
AcDbBlockEnd
  0
ENDSEC
  0
SECTION
  2
ENTITIES
  0
LINE
  5
22
330
1E
100
AcDbEntity
  8
0
100
AcDbLine
 10
0.0000000000000006
 20
131.6303
 30
0.0
 11
1.5
 21
137.0802999999999
 31
0.0
  0
LINE
  5
23
330
1E
100
AcDbEntity
  8
0
100
AcDbLine
 10
0.0000000000000006
 20
131.6303
 30
0.0
 11
0.788372093023251
 21
128.7658813953489
 31
0.0
  0
LINE
  5
24
330
1E
100
AcDbEntity
  8
0
100
AcDbLine
 10
0.0000000000000006
 20
131.6303
 30
0.0
 11
0.0000000000000006
 21
135.9602999999999
 31
0.0
  0
LINE
  5
25
330
1E
100
AcDbEntity
  8
0
100
AcDbLine
 10
0.0000000000000006
 20
135.9602999999999
 30
0.0
 11
1.5
 21
141.4103
 31
0.0
  0
LINE
  5
26
330
1E
100
AcDbEntity
  8
0
100
AcDbLine
 10
0.0000000000000006
 20
135.9602999999999
 30
0.0
 11
0.0000000000000006
 21
131.6303
 31
0.0
  0
LINE
  5
27
330
1E
100
AcDbEntity
  8
0
100
AcDbLine
 10
1.0
 20
127.2993
 30
0.0
 11
2.5
 21
121.9492999999999
 31
0.0
  0
LINE
  5
28
330
1E
100
AcDbEntity
  8
0
100
AcDbLine
 10
0.500000000000001
 20
130.7642999999999
 30
0.0
 11
2.0
 21
136.1642999999999
 31
0.0
  0
LINE
  5
29
330
1E
100
AcDbEntity
  8
0
100
AcDbLine
 10
0.500000000000001
 20
130.7642999999999
 30
0.0
 11
1.0
 21
127.2993
 31
0.0
  0
LINE
  5
2A
330
1E
100
AcDbEntity
  8
0
100
AcDbLine
 10
1.5
 20
137.0802999999999
 30
0.0
 11
5.7
 21
142.1802999999999
 31
0.0
  0
LINE
  5
2B
330
1E
100
AcDbEntity
  8
0
100
AcDbLine
 10
27.4743
 20
60.0541
 30
0.0
 11
27.6978
 21
49.28309999999999
 31
0.0
  0
LINE
  5
2C
330
1E
100
AcDbEntity
  8
0
100
AcDbLine
 10
3.5
 20
119.9343
 30
0.0
 11
7.4
 21
115.1343
 31
0.0
  0
LINE
  5
2D
330
1E
100
AcDbEntity
  8
0
100
AcDbLine
 10
5.9
 20
120.8913
 30
0.0
 11
7.299999999999999
 21
125.5913
 31
0.0
  0
LINE
  5
2E
330
1E
100
AcDbEntity
  8
0
100
AcDbLine
 10
5.9
 20
120.8913
 30
0.0
 11
6.0
 21
121.2373
 31
0.0
  0
LINE
  5
2F
330
1E
100
AcDbEntity
  8
0
100
AcDbLine
 10
5.9
 20
120.8913
 30
0.0
 11
7.299999999999999
 21
116.1912999999999
 31
0.0
  0
LINE
  5
30
330
1E
100
AcDbEntity
  8
0
100
AcDbLine
 10
10.9
 20
111.8413
 30
0.0
 11
13.2
 21
110.1393
 31
0.0
  0
LINE
  5
31
330
1E
100
AcDbEntity
  8
0
100
AcDbLine
 10
10.5
 20
112.0373
 30
0.0
 11
11.643410852713
 21
111.291175968992
 31
0.0
  0
LINE
  5
32
330
1E
100
AcDbEntity
  8
0
100
AcDbLine
 10
9.599999999999999
 20
112.6033
 30
0.0
 11
10.5
 21
112.0373
 31
0.0
  0
LINE
  5
33
330
1E
100
AcDbEntity
  8
0
100
AcDbLine
 10
7.299999999999999
 20
116.1912999999999
 30
0.0
 11
10.9
 21
111.8413
 31
0.0
  0
LINE
  5
34
330
1E
100
AcDbEntity
  8
0
100
AcDbLine
 10
6.799999999999999
 20
116.4873
 30
0.0
 11
10.5
 21
112.0373
 31
0.0
  0
LINE
  5
35
330
1E
100
AcDbEntity
  8
0
100
AcDbLine
 10
7.4
 20
115.1343
 30
0.0
 11
9.599999999999999
 21
112.6033
 31
0.0
  0
LINE
  5
36
330
1E
100
AcDbEntity
  8
0
100
AcDbLine
 10
6.0
 20
121.2373
 30
0.0
 11
7.2
 21
125.9372999999999
 31
0.0
  0
LINE
  5
37
330
1E
100
AcDbEntity
  8
0
100
AcDbLine
 10
2.5
 20
121.9492999999999
 30
0.0
 11
3.5
 21
119.9343
 31
0.0
  0
LINE
  5
38
330
1E
100
AcDbEntity
  8
0
100
AcDbLine
 10
5.5
 20
121.2373
 30
0.0
 11
6.799999999999999
 21
125.9873
 31
0.0
  0
LINE
  5
39
330
1E
100
AcDbEntity
  8
0
100
AcDbLine
 10
5.5
 20
121.2373
 30
0.0
 11
6.799999999999999
 21
116.4873
 31
0.0
  0
LINE
  5
3A
330
1E
100
AcDbEntity
  8
0
100
AcDbLine
 10
11.5134
 20
115.7772999999999
 30
0.0
 11
12.102
 21
115.2993
 31
0.0
  0
LINE
  5
3B
330
1E
100
AcDbEntity
  8
0
100
AcDbLine
 10
12.102
 20
115.2993
 30
0.0
 11
12.6905
 21
115.1213
 31
0.0
  0
LINE
  5
3C
330
1E
100
AcDbEntity
  8
0
100
AcDbLine
 10
12.3857
 20
112.4643
 30
0.0
 11
12.8766
 21
112.3572999999999
 31
0.0
  0
LINE
  5
3E
330
1E
100
AcDbEntity
  8
0
100
AcDbLine
 10
12.3233
 20
112.2343
 30
0.0
 11
12.7481
 21
111.7883
 31
0.0
  0
LINE
  5
3F
330
1E
100
AcDbEntity
  8
0
100
AcDbLine
 10
12.3233
 20
112.2343
 30
0.0
 11
12.3857
 21
112.4643
 31
0.0
  0
LINE
  5
40
330
1E
100
AcDbEntity
  8
0
100
AcDbLine
 10
13.2
 20
110.1393
 30
0.0
 11
15.3316458585972
 21
108.7316093386619
 31
0.0
  0
LINE
  5
41
330
1E
100
AcDbEntity
  8
0
100
AcDbLine
 10
13.2
 20
110.1393
 30
0.0
 11
15.3316458585972
 21
108.7316093386619
 31
0.0
  0
LINE
  5
42
330
1E
100
AcDbEntity
  8
0
100
AcDbLine
 10
16.32959999999999
 20
108.3302999999999
 30
0.0
 11
16.89799999999999
 21
107.9493
 31
0.0
  0
LINE
  5
44
330
1E
100
AcDbEntity
  8
0
100
AcDbLine
 10
16.6699
 20
107.7752999999999
 30
0.0
 11
17.0296
 21
107.7242999999999
 31
0.0
  0
LINE
  5
45
330
1E
100
AcDbEntity
  8
0
100
AcDbLine
 10
16.0103
 20
108.0862999999999
 30
0.0
 11
16.6699
 21
107.7752999999999
 31
0.0
  0
LINE
  5
46
330
1E
100
AcDbEntity
  8
0
100
AcDbLine
 10
15.3103
 20
108.6923
 30
0.0
 11
15.6699
 21
108.6413
 31
0.0
  0
LINE
  5
47
330
1E
100
AcDbEntity
  8
0
100
AcDbLine
 10
15.3103
 20
108.6923
 30
0.0
 11
15.4418
 21
108.4672999999999
 31
0.0
  0
LINE
  5
49
330
1E
100
AcDbEntity
  8
0
100
AcDbLine
 10
15.6699
 20
108.6413
 30
0.0
 11
16.32959999999999
 21
108.3302999999999
 31
0.0
  0
LINE
  5
4B
330
1E
100
AcDbEntity
  8
0
100
AcDbLine
 10
15.4418
 20
108.4672999999999
 30
0.0
 11
16.0103
 21
108.0862999999999
 31
0.0
  0
LINE
  5
4C
330
1E
100
AcDbEntity
  8
0
100
AcDbLine
 10
13.885
 20
111.2843
 30
0.0
 11
13.9475
 21
111.5142999999999
 31
0.0
  0
LINE
  5
4E
330
1E
100
AcDbEntity
  8
0
100
AcDbLine
 10
12.8766
 20
112.3572999999999
 30
0.0
 11
13.5227
 21
111.9603
 31
0.0
  0
LINE
  5
51
330
1E
100
AcDbEntity
  8
0
100
AcDbLine
 10
13.5227
 20
111.9603
 30
0.0
 11
13.9475
 21
111.5142999999999
 31
0.0
  0
LINE
  5
53
330
1E
100
AcDbEntity
  8
0
100
AcDbLine
 10
13.3942
 20
111.3912999999999
 30
0.0
 11
13.885
 21
111.2843
 31
0.0
  0
LINE
  5
54
330
1E
100
AcDbEntity
  8
0
100
AcDbLine
 10
12.7481
 20
111.7883
 30
0.0
 11
13.3942
 21
111.3912999999999
 31
0.0
  0
LINE
  5
55
330
1E
100
AcDbEntity
  8
0
100
AcDbLine
 10
12.9427
 20
115.3302999999999
 30
0.0
 11
13.3967279471326
 21
115.9407577440439
 31
0.0
  0
LINE
  5
56
330
1E
100
AcDbEntity
  8
0
100
AcDbLine
 10
12.6905
 20
115.1213
 30
0.0
 11
12.9427
 21
115.3302999999999
 31
0.0
  0
LINE
  5
57
330
1E
100
AcDbEntity
  8
0
100
AcDbLine
 10
12.6905
 20
115.8212999999999
 30
0.0
 11
12.9427
 21
115.3302999999999
 31
0.0
  0
LINE
  5
58
330
1E
100
AcDbEntity
  8
0
100
AcDbLine
 10
12.6905
 20
115.8212999999999
 30
0.0
 11
13.3552301896333
 21
116.715054876818
 31
0.0
  0
LINE
  5
59
330
1E
100
AcDbEntity
  8
0
100
AcDbLine
 10
12.102
 20
116.2992999999999
 30
0.0
 11
12.6905
 21
115.8212999999999
 31
0.0
  0
LINE
  5
5A
330
1E
100
AcDbEntity
  8
0
100
AcDbLine
 10
12.102
 20
116.2992999999999
 30
0.0
 11
12.2892451552648
 21
116.5510814426169
 31
0.0
  0
LINE
  5
5B
330
1E
100
AcDbEntity
  8
0
100
AcDbLine
 10
12.3857
 20
119.7993
 30
0.0
 11
12.8766
 21
119.2503
 31
0.0
  0
LINE
  5
5C
330
1E
100
AcDbEntity
  8
0
100
AcDbLine
 10
12.8766
 20
119.2503
 30
0.0
 11
13.5227
 21
118.9903
 31
0.0
  0
LINE
  5
5E
330
1E
100
AcDbEntity
  8
0
100
AcDbLine
 10
13.5227
 20
118.9903
 30
0.0
 11
13.9475
 21
119.1553
 31
0.0
  0
LINE
  5
5F
330
1E
100
AcDbEntity
  8
0
100
AcDbLine
 10
13.885
 20
119.6673
 30
0.0
 11
13.9475
 21
119.1553
 31
0.0
  0
LINE
  5
61
330
1E
100
AcDbEntity
  8
0
100
AcDbLine
 10
13.3942
 20
120.2163
 30
0.0
 11
13.885
 21
119.6673
 31
0.0
  0
LINE
  5
63
330
1E
100
AcDbEntity
  8
0
100
AcDbLine
 10
12.7481
 20
120.4752999999999
 30
0.0
 11
13.3942
 21
120.2163
 31
0.0
  0
LINE
  5
65
330
1E
100
AcDbEntity
  8
0
100
AcDbLine
 10
12.3233
 20
120.3113
 30
0.0
 11
12.7481
 21
120.4752999999999
 31
0.0
  0
LINE
  5
66
330
1E
100
AcDbEntity
  8
0
100
AcDbLine
 10
12.3233
 20
120.3113
 30
0.0
 11
12.3857
 21
119.7993
 31
0.0
  0
LINE
  5
68
330
1E
100
AcDbEntity
  8
0
100
AcDbLine
 10
11.5134
 20
116.4773
 30
0.0
 11
12.102
 21
116.2992999999999
 31
0.0
  0
LINE
  5
69
330
1E
100
AcDbEntity
  8
0
100
AcDbLine
 10
11.5134
 20
116.4773
 30
0.0
 11
11.7778730205555
 21
116.832893977217
 31
0.0
  0
LINE
  5
6A
330
1E
100
AcDbEntity
  8
0
100
AcDbLine
 10
11.2612
 20
116.2682999999999
 30
0.0
 11
11.5134
 21
116.4773
 31
0.0
  0
LINE
  5
6B
330
1E
100
AcDbEntity
  8
0
100
AcDbLine
 10
11.2612
 20
116.2682999999999
 30
0.0
 11
11.5134
 21
115.7772999999999
 31
0.0
  0
LINE
  5
6C
330
1E
100
AcDbEntity
  8
0
100
AcDbLine
 10
11.2612
 20
116.2682999999999
 30
0.0
 11
11.70924542733919
 21
116.8707140199519
 31
0.0
  0
LINE
  5
6D
330
1E
100
AcDbEntity
  8
0
100
AcDbLine
 10
15.3103
 20
123.5713
 30
0.0
 11
15.6699
 21
122.9663
 31
0.0
  0
LINE
  5
6E
330
1E
100
AcDbEntity
  8
0
100
AcDbLine
 10
15.3103
 20
123.5713
 30
0.0
 11
15.4418
 21
124.0782999999999
 31
0.0
  0
LINE
  5
6F
330
1E
100
AcDbEntity
  8
0
100
AcDbLine
 10
15.6699
 20
122.9663
 30
0.0
 11
16.32959999999999
 21
122.6212999999999
 31
0.0
  0
LINE
  5
70
330
1E
100
AcDbEntity
  8
0
100
AcDbLine
 10
16.32959999999999
 20
122.6212999999999
 30
0.0
 11
16.89799999999999
 21
122.7203
 31
0.0
  0
LINE
  5
71
330
1E
100
AcDbEntity
  8
0
100
AcDbLine
 10
16.80981062054319
 20
107.7554627977549
 30
0.0
 11
18.5
 21
106.6393
 31
0.0
  0
LINE
  5
73
330
1E
100
AcDbEntity
  8
0
100
AcDbLine
 10
16.89799999999999
 20
107.9493
 30
0.0
 11
17.0296
 21
107.7242999999999
 31
0.0
  0
LINE
  5
74
330
1E
100
AcDbEntity
  8
0
100
AcDbLine
 10
16.89799999999999
 20
107.9493
 30
0.0
 11
17.2981703573868
 21
108.6862313363269
 31
0.0
  0
LINE
  5
75
330
1E
100
AcDbEntity
  8
0
100
AcDbLine
 10
17.3636
 20
112.0033
 30
0.0
 11
17.7279
 21
111.5712999999999
 31
0.0
  0
LINE
  5
76
330
1E
100
AcDbEntity
  8
0
100
AcDbLine
 10
17.3636
 20
112.0033
 30
0.0
 11
17.5452
 21
112.2652999999999
 31
0.0
  0
LINE
  5
78
330
1E
100
AcDbEntity
  8
0
100
AcDbLine
 10
17.5452
 20
112.2652999999999
 30
0.0
 11
18.143
 21
112.2152999999999
 31
0.0
  0
LINE
  5
7A
330
1E
100
AcDbEntity
  8
0
100
AcDbLine
 10
18.143
 20
112.2152999999999
 30
0.0
 11
18.81909999999999
 21
111.8673
 31
0.0
  0
LINE
  5
7B
330
1E
100
AcDbEntity
  8
0
100
AcDbLine
 10
18.40399999999999
 20
111.2233
 30
0.0
 11
19.00179999999999
 21
111.1733
 31
0.0
  0
LINE
  5
7C
330
1E
100
AcDbEntity
  8
0
100
AcDbLine
 10
17.7279
 20
111.5712999999999
 30
0.0
 11
18.40399999999999
 21
111.2233
 31
0.0
  0
LINE
  5
7D
330
1E
100
AcDbEntity
  8
0
100
AcDbLine
 10
17.5452
 20
114.8352999999999
 30
0.0
 11
18.143
 21
114.4033
 31
0.0
  0
LINE
  5
7E
330
1E
100
AcDbEntity
  8
0
100
AcDbLine
 10
18.143
 20
114.4033
 30
0.0
 11
18.81909999999999
 21
114.2692999999999
 31
0.0
  0
LINE
  5
7F
330
1E
100
AcDbEntity
  8
0
100
AcDbLine
 10
18.5
 20
106.6393
 30
0.0
 11
20.3074648059336
 21
105.955045466325
 31
0.0
  0
LINE
  5
80
330
1E
100
AcDbEntity
  8
0
100
AcDbLine
 10
18.81909999999999
 20
111.8673
 30
0.0
 11
19.18339999999999
 21
111.4352999999999
 31
0.0
  0
LINE
  5
82
330
1E
100
AcDbEntity
  8
0
100
AcDbLine
 10
19.00179999999999
 20
111.1733
 30
0.0
 11
19.18339999999999
 21
111.4352999999999
 31
0.0
  0
LINE
  5
83
330
1E
100
AcDbEntity
  8
0
100
AcDbLine
 10
19.0607
 20
109.0793
 30
0.0
 11
19.5394
 21
109.1003
 31
0.0
  0
LINE
  5
84
330
1E
100
AcDbEntity
  8
0
100
AcDbLine
 10
19.0607
 20
109.0793
 30
0.0
 11
19.0742
 21
108.8063
 31
0.0
  0
LINE
  5
86
330
1E
100
AcDbEntity
  8
0
100
AcDbLine
 10
19.0742
 20
108.8063
 30
0.0
 11
19.59649999999999
 21
108.4322999999999
 31
0.0
  0
LINE
  5
87
330
1E
100
AcDbEntity
  8
0
100
AcDbLine
 10
18.81909999999999
 20
114.2692999999999
 30
0.0
 11
19.18339999999999
 21
114.4953
 31
0.0
  0
LINE
  5
88
330
1E
100
AcDbEntity
  8
0
100
AcDbLine
 10
19.00179999999999
 20
114.9633
 30
0.0
 11
19.18339999999999
 21
114.4953
 31
0.0
  0
LINE
  5
89
330
1E
100
AcDbEntity
  8
0
100
AcDbLine
 10
18.40399999999999
 20
115.3953
 30
0.0
 11
19.00179999999999
 21
114.9633
 31
0.0
  0
LINE
  5
8A
330
1E
100
AcDbEntity
  8
0
100
AcDbLine
 10
17.7279
 20
115.5293
 30
0.0
 11
18.40399999999999
 21
115.3953
 31
0.0
  0
LINE
  5
8B
330
1E
100
AcDbEntity
  8
0
100
AcDbLine
 10
17.3636
 20
115.3032999999999
 30
0.0
 11
17.7279
 21
115.5293
 31
0.0
  0
LINE
  5
8C
330
1E
100
AcDbEntity
  8
0
100
AcDbLine
 10
17.3636
 20
115.3032999999999
 30
0.0
 11
17.5452
 21
114.8352999999999
 31
0.0
  0
LINE
  5
8E
330
1E
100
AcDbEntity
  8
0
100
AcDbLine
 10
19.0607
 20
118.0203
 30
0.0
 11
19.5394
 21
117.5183
 31
0.0
  0
LINE
  5
8F
330
1E
100
AcDbEntity
  8
0
100
AcDbLine
 10
19.0607
 20
118.0203
 30
0.0
 11
19.0742
 21
118.5003
 31
0.0
  0
LINE
  5
91
330
1E
100
AcDbEntity
  8
0
100
AcDbLine
 10
20.0877
 20
105.4273
 30
0.0
 11
20.2917
 21
105.4132999999999
 31
0.0
  0
LINE
  5
92
330
1E
100
AcDbEntity
  8
0
100
AcDbLine
 10
20.0877
 20
105.4273
 30
0.0
 11
20.40439999999999
 21
105.2313
 31
0.0
  0
LINE
  5
93
330
1E
100
AcDbEntity
  8
0
100
AcDbLine
 10
20.0877
 20
105.4273
 30
0.0
 11
20.37588228711709
 21
106.1193439096479
 31
0.0
  0
LINE
  5
94
330
1E
100
AcDbEntity
  8
0
100
AcDbLine
 10
20.2917
 20
105.4132999999999
 30
0.0
 11
20.92
 21
105.1873
 31
0.0
  0
LINE
  5
96
330
1E
100
AcDbEntity
  8
0
100
AcDbLine
 10
20.3048
 20
108.1763
 30
0.0
 11
20.78349999999999
 21
108.1973
 31
0.0
  0
LINE
  5
97
330
1E
100
AcDbEntity
  8
0
100
AcDbLine
 10
19.5394
 20
109.1003
 30
0.0
 11
20.2478
 21
108.8432999999999
 31
0.0
  0
LINE
  5
99
330
1E
100
AcDbEntity
  8
0
100
AcDbLine
 10
20.2478
 20
108.8432999999999
 30
0.0
 11
20.76999999999999
 21
108.4702999999999
 31
0.0
  0
LINE
  5
9B
330
1E
100
AcDbEntity
  8
0
100
AcDbLine
 10
19.59649999999999
 20
108.4322999999999
 30
0.0
 11
20.3048
 21
108.1763
 31
0.0
  0
LINE
  5
9D
330
1E
100
AcDbEntity
  8
0
100
AcDbLine
 10
19.5394
 20
117.5183
 30
0.0
 11
20.2478
 21
117.2933
 31
0.0
  0
LINE
  5
9E
330
1E
100
AcDbEntity
  8
0
100
AcDbLine
 10
20.2478
 20
117.2933
 30
0.0
 11
20.76999999999999
 21
117.4603
 31
0.0
  0
LINE
  5
9F
330
1E
100
AcDbEntity
  8
0
100
AcDbLine
 10
20.40439999999999
 20
105.2313
 30
0.0
 11
21.07769999999999
 21
104.9323
 31
0.0
  0
LINE
  5
A0
330
1E
100
AcDbEntity
  8
0
100
AcDbLine
 10
20.92
 20
105.1873
 30
0.0
 11
21.5933
 21
104.8883
 31
0.0
  0
LINE
  5
A3
330
1E
100
AcDbEntity
  8
0
100
AcDbLine
 10
20.76999999999999
 20
108.4702999999999
 30
0.0
 11
20.78349999999999
 21
108.1973
 31
0.0
  0
LINE
  5
A5
330
1E
100
AcDbEntity
  8
0
100
AcDbLine
 10
20.76999999999999
 20
117.4603
 30
0.0
 11
20.78349999999999
 21
117.9402999999999
 31
0.0
  0
LINE
  5
A7
330
1E
100
AcDbEntity
  8
0
100
AcDbLine
 10
20.3048
 20
118.4422999999999
 30
0.0
 11
20.78349999999999
 21
117.9402999999999
 31
0.0
  0
LINE
  5
A9
330
1E
100
AcDbEntity
  8
0
100
AcDbLine
 10
19.59649999999999
 20
118.6673
 30
0.0
 11
20.3048
 21
118.4422999999999
 31
0.0
  0
LINE
  5
AB
330
1E
100
AcDbEntity
  8
0
100
AcDbLine
 10
19.0742
 20
118.5003
 30
0.0
 11
19.59649999999999
 21
118.6673
 31
0.0
  0
LINE
  5
AE
330
1E
100
AcDbEntity
  8
0
100
AcDbLine
 10
16.89799999999999
 20
122.7203
 30
0.0
 11
17.0296
 21
123.2272999999999
 31
0.0
  0
LINE
  5
B0
330
1E
100
AcDbEntity
  8
0
100
AcDbLine
 10
16.6699
 20
123.8323
 30
0.0
 11
17.0296
 21
123.2272999999999
 31
0.0
  0
LINE
  5
B1
330
1E
100
AcDbEntity
  8
0
100
AcDbLine
 10
16.0103
 20
124.1782999999999
 30
0.0
 11
16.6699
 21
123.8323
 31
0.0
  0
LINE
  5
B3
330
1E
100
AcDbEntity
  8
0
100
AcDbLine
 10
15.4418
 20
124.0782999999999
 30
0.0
 11
16.0103
 21
124.1782999999999
 31
0.0
  0
LINE
  5
B5
330
1E
100
AcDbEntity
  8
0
100
AcDbLine
 10
21.5933
 20
104.8883
 30
0.0
 11
21.91
 21
104.6923
 31
0.0
  0
LINE
  5
B7
330
1E
100
AcDbEntity
  8
0
100
AcDbLine
 10
21.70599999999999
 20
104.7063
 30
0.0
 11
21.91
 21
104.6923
 31
0.0
  0
LINE
  5
B8
330
1E
100
AcDbEntity
  8
0
100
AcDbLine
 10
21.07769999999999
 20
104.9323
 30
0.0
 11
21.70599999999999
 21
104.7063
 31
0.0
  0
LINE
  5
B9
330
1E
100
AcDbEntity
  8
0
100
AcDbLine
 10
20.92
 20
125.7643
 30
0.0
 11
21.5933
 21
125.7813
 31
0.0
  0
LINE
  5
BA
330
1E
100
AcDbEntity
  8
0
100
AcDbLine
 10
7.2
 20
125.9372999999999
 30
0.0
 11
10.8
 21
130.3373
 31
0.0
  0
LINE
  5
BB
330
1E
100
AcDbEntity
  8
0
100
AcDbLine
 10
6.799999999999999
 20
125.9873
 30
0.0
 11
10.5
 21
130.4373
 31
0.0
  0
LINE
  5
BC
330
1E
100
AcDbEntity
  8
0
100
AcDbLine
 10
20.0877
 20
126.8362999999999
 30
0.0
 11
20.2917
 21
126.1943
 31
0.0
  0
LINE
  5
BD
330
1E
100
AcDbEntity
  8
0
100
AcDbLine
 10
20.0877
 20
126.8362999999999
 30
0.0
 11
20.40439999999999
 21
127.3143
 31
0.0
  0
LINE
  5
BE
330
1E
100
AcDbEntity
  8
0
100
AcDbLine
 10
20.2917
 20
126.1943
 30
0.0
 11
20.92
 21
125.7643
 31
0.0
  0
LINE
  5
BF
330
1E
100
AcDbEntity
  8
0
100
AcDbLine
 10
21.5933
 20
125.7813
 30
0.0
 11
21.91
 21
126.2593
 31
0.0
  0
LINE
  5
C1
330
1E
100
AcDbEntity
  8
0
100
AcDbLine
 10
22.1459718476014
 20
105.259039229122
 30
0.0
 11
25.5
 21
103.9892999999999
 31
0.0
  0
LINE
  5
C2
330
1E
100
AcDbEntity
  8
0
100
AcDbLine
 10
21.91
 20
104.6923
 30
0.0
 11
22.28396568638519
 21
105.590462331543
 31
0.0
  0
LINE
  5
C3
330
1E
100
AcDbEntity
  8
0
100
AcDbLine
 10
22.1736
 20
106.1983
 30
0.0
 11
22.50059999999999
 21
106.2723
 31
0.0
  0
LINE
  5
C4
330
1E
100
AcDbEntity
  8
0
100
AcDbLine
 10
22.1736
 20
106.1983
 30
0.0
 11
22.38129999999999
 21
105.9402999999999
 31
0.0
  0
LINE
  5
C6
330
1E
100
AcDbEntity
  8
0
100
AcDbLine
 10
22.38129999999999
 20
105.9402999999999
 30
0.0
 11
23.0258
 21
105.6432999999999
 31
0.0
  0
LINE
  5
C7
330
1E
100
AcDbEntity
  8
0
100
AcDbLine
 10
22.1736
 20
120.9013
 30
0.0
 11
22.50059999999999
 21
120.3462999999999
 31
0.0
  0
LINE
  5
C8
330
1E
100
AcDbEntity
  8
0
100
AcDbLine
 10
22.1736
 20
120.9013
 30
0.0
 11
22.38129999999999
 21
121.3662999999999
 31
0.0
  0
LINE
  5
C9
330
1E
100
AcDbEntity
  8
0
100
AcDbLine
 10
22.50059999999999
 20
106.2723
 30
0.0
 11
23.1929
 21
106.1082999999999
 31
0.0
  0
LINE
  5
CB
330
1E
100
AcDbEntity
  8
0
100
AcDbLine
 10
23.1929
 20
106.1082999999999
 30
0.0
 11
23.8375
 21
105.8113
 31
0.0
  0
LINE
  5
CD
330
1E
100
AcDbEntity
  8
0
100
AcDbLine
 10
23.71809999999999
 20
105.4792999999999
 30
0.0
 11
24.0452
 21
105.5522999999999
 31
0.0
  0
LINE
  5
CE
330
1E
100
AcDbEntity
  8
0
100
AcDbLine
 10
23.0258
 20
105.6432999999999
 30
0.0
 11
23.71809999999999
 21
105.4792999999999
 31
0.0
  0
LINE
  5
CF
330
1E
100
AcDbEntity
  8
0
100
AcDbLine
 10
22.50059999999999
 20
120.3462999999999
 30
0.0
 11
23.1929
 21
120.0293
 31
0.0
  0
LINE
  5
D0
330
1E
100
AcDbEntity
  8
0
100
AcDbLine
 10
23.1929
 20
120.0293
 30
0.0
 11
23.8375
 21
120.1192999999999
 31
0.0
  0
LINE
  5
D1
330
1E
100
AcDbEntity
  8
0
100
AcDbLine
 10
23.8219
 20
109.4582999999999
 30
0.0
 11
24.2844
 21
109.0953
 31
0.0
  0
LINE
  5
D2
330
1E
100
AcDbEntity
  8
0
100
AcDbLine
 10
23.8219
 20
109.4582999999999
 30
0.0
 11
23.92209999999999
 21
109.7712999999999
 31
0.0
  0
LINE
  5
D5
330
1E
100
AcDbEntity
  8
0
100
AcDbLine
 10
23.8375
 20
105.8113
 30
0.0
 11
24.0452
 21
105.5522999999999
 31
0.0
  0
LINE
  5
D7
330
1E
100
AcDbEntity
  8
0
100
AcDbLine
 10
23.92209999999999
 20
109.7712999999999
 30
0.0
 11
24.5008
 21
109.8583
 31
0.0
  0
LINE
  5
D9
330
1E
100
AcDbEntity
  8
0
100
AcDbLine
 10
24.5008
 20
109.8583
 30
0.0
 11
25.2348
 21
109.6562999999999
 31
0.0
  0
LINE
  5
DB
330
1E
100
AcDbEntity
  8
0
100
AcDbLine
 10
25.0184
 20
108.8923
 30
0.0
 11
25.5972
 21
108.9803
 31
0.0
  0
LINE
  5
DC
330
1E
100
AcDbEntity
  8
0
100
AcDbLine
 10
24.2844
 20
109.0953
 30
0.0
 11
25.0184
 21
108.8923
 31
0.0
  0
LINE
  5
DD
330
1E
100
AcDbEntity
  8
0
100
AcDbLine
 10
23.92209999999999
 20
114.0152999999999
 30
0.0
 11
24.5008
 21
113.6373
 31
0.0
  0
LINE
  5
DE
330
1E
100
AcDbEntity
  8
0
100
AcDbLine
 10
24.5008
 20
113.6373
 30
0.0
 11
25.2348
 21
113.5483
 31
0.0
  0
LINE
  5
DF
330
1E
100
AcDbEntity
  8
0
100
AcDbLine
 10
25.2348
 20
109.6562999999999
 30
0.0
 11
25.69729999999999
 21
109.2933
 31
0.0
  0
LINE
  5
E1
330
1E
100
AcDbEntity
  8
0
100
AcDbLine
 10
25.5
 20
103.9892999999999
 30
0.0
 11
26.6350352537615
 21
103.692974724822
 31
0.0
  0
LINE
  5
E2
330
1E
100
AcDbEntity
  8
0
100
AcDbLine
 10
26.4429
 20
102.8893
 30
0.0
 11
26.99699999999999
 21
102.7403
 31
0.0
  0
LINE
  5
E4
330
1E
100
AcDbEntity
  8
0
100
AcDbLine
 10
26.4084
 20
102.8872999999999
 30
0.0
 11
26.8886
 21
102.7433
 31
0.0
  0
LINE
  5
E7
330
1E
100
AcDbEntity
  8
0
100
AcDbLine
 10
25.5972
 20
108.9803
 30
0.0
 11
25.69729999999999
 21
109.2933
 31
0.0
  0
LINE
  5
E8
330
1E
100
AcDbEntity
  8
0
100
AcDbLine
 10
26.8886
 20
102.7433
 30
0.0
 11
27.6209
 21
102.5373
 31
0.0
  0
LINE
  5
E9
330
1E
100
AcDbEntity
  8
0
100
AcDbLine
 10
26.99699999999999
 20
102.7403
 30
0.0
 11
27.7293
 21
102.5343
 31
0.0
  0
LINE
  5
EB
330
1E
100
AcDbEntity
  8
0
100
AcDbLine
 10
27.0739
 20
103.5932999999999
 30
0.0
 11
27.7969
 21
103.3862999999999
 31
0.0
  0
LINE
  5
EC
330
1E
100
AcDbEntity
  8
0
100
AcDbLine
 10
27.4683
 20
103.8413
 30
0.0
 11
28.19129999999999
 21
103.6343
 31
0.0
  0
LINE
  5
EE
330
1E
100
AcDbEntity
  8
0
100
AcDbLine
 10
26.8393
 20
103.9182999999999
 30
0.0
 11
27.4683
 21
103.8413
 31
0.0
  0
LINE
  5
F0
330
1E
100
AcDbEntity
  8
0
100
AcDbLine
 10
26.6862
 20
103.8132999999999
 30
0.0
 11
27.0739
 21
103.5932999999999
 31
0.0
  0
LINE
  5
F1
330
1E
100
AcDbEntity
  8
0
100
AcDbLine
 10
26.6862
 20
103.8132999999999
 30
0.0
 11
26.8393
 21
103.9182999999999
 31
0.0
  0
LINE
  5
F4
330
1E
100
AcDbEntity
  8
0
100
AcDbLine
 10
25.2348
 20
113.5483
 30
0.0
 11
25.69729999999999
 21
113.7863
 31
0.0
  0
LINE
  5
F5
330
1E
100
AcDbEntity
  8
0
100
AcDbLine
 10
25.5972
 20
114.2243
 30
0.0
 11
25.69729999999999
 21
113.7863
 31
0.0
  0
LINE
  5
F7
330
1E
100
AcDbEntity
  8
0
100
AcDbLine
 10
25.0184
 20
114.6023
 30
0.0
 11
25.5972
 21
114.2243
 31
0.0
  0
LINE
  5
F9
330
1E
100
AcDbEntity
  8
0
100
AcDbLine
 10
24.2844
 20
114.6913
 30
0.0
 11
25.0184
 21
114.6023
 31
0.0
  0
LINE
  5
FB
330
1E
100
AcDbEntity
  8
0
100
AcDbLine
 10
23.8219
 20
114.4533
 30
0.0
 11
24.2844
 21
114.6913
 31
0.0
  0
LINE
  5
FC
330
1E
100
AcDbEntity
  8
0
100
AcDbLine
 10
23.8219
 20
114.4533
 30
0.0
 11
23.92209999999999
 21
114.0152999999999
 31
0.0
  0
LINE
  5
FF
330
1E
100
AcDbEntity
  8
0
100
AcDbLine
 10
23.8375
 20
120.1192999999999
 30
0.0
 11
24.0452
 21
120.5842999999999
 31
0.0
  0
LINE
  5
101
330
1E
100
AcDbEntity
  8
0
100
AcDbLine
 10
23.71809999999999
 20
121.1393
 30
0.0
 11
24.0452
 21
120.5842999999999
 31
0.0
  0
LINE
  5
102
330
1E
100
AcDbEntity
  8
0
100
AcDbLine
 10
27.4683
 20
122.2963
 30
0.0
 11
28.19129999999999
 21
122.2963
 31
0.0
  0
LINE
  5
103
330
1E
100
AcDbEntity
  8
0
100
AcDbLine
 10
27.0739
 20
123.7122999999999
 30
0.0
 11
27.7969
 21
123.7133
 31
0.0
  0
LINE
  5
104
330
1E
100
AcDbEntity
  8
0
100
AcDbLine
 10
26.8393
 20
122.7003
 30
0.0
 11
27.4683
 21
122.2963
 31
0.0
  0
LINE
  5
105
330
1E
100
AcDbEntity
  8
0
100
AcDbLine
 10
26.6862
 20
123.2873
 30
0.0
 11
27.0739
 21
123.7122999999999
 31
0.0
  0
LINE
  5
106
330
1E
100
AcDbEntity
  8
0
100
AcDbLine
 10
26.6862
 20
123.2873
 30
0.0
 11
26.8393
 21
122.7003
 31
0.0
  0
LINE
  5
107
330
1E
100
AcDbEntity
  8
0
100
AcDbLine
 10
23.0258
 20
121.4573
 30
0.0
 11
23.71809999999999
 21
121.1393
 31
0.0
  0
LINE
  5
108
330
1E
100
AcDbEntity
  8
0
100
AcDbLine
 10
22.38129999999999
 20
121.3662999999999
 30
0.0
 11
23.0258
 21
121.4573
 31
0.0
  0
LINE
  5
109
330
1E
100
AcDbEntity
  8
0
100
AcDbLine
 10
21.70599999999999
 20
126.9013
 30
0.0
 11
21.91
 21
126.2593
 31
0.0
  0
LINE
  5
10A
330
1E
100
AcDbEntity
  8
0
100
AcDbLine
 10
16.69999999999999
 20
134.1373
 30
0.0
 11
24.3
 21
137.0873
 31
0.0
  0
LINE
  5
10B
330
1E
100
AcDbEntity
  8
0
100
AcDbLine
 10
16.39999999999999
 20
134.2872999999999
 30
0.0
 11
24.1
 21
137.2373
 31
0.0
  0
LINE
  5
10C
330
1E
100
AcDbEntity
  8
0
100
AcDbLine
 10
10.8
 20
130.3373
 30
0.0
 11
16.69999999999999
 21
134.1373
 31
0.0
  0
LINE
  5
10D
330
1E
100
AcDbEntity
  8
0
100
AcDbLine
 10
10.5
 20
130.4373
 30
0.0
 11
16.39999999999999
 21
134.2872999999999
 31
0.0
  0
LINE
  5
10E
330
1E
100
AcDbEntity
  8
0
100
AcDbLine
 10
2.0
 20
136.1642999999999
 30
0.0
 11
6.2
 21
141.2642999999999
 31
0.0
  0
LINE
  5
10F
330
1E
100
AcDbEntity
  8
0
100
AcDbLine
 10
26.99699999999999
 20
128.2113
 30
0.0
 11
27.7293
 21
128.1363
 31
0.0
  0
LINE
  5
110
330
1E
100
AcDbEntity
  8
0
100
AcDbLine
 10
26.4429
 20
128.7193
 30
0.0
 11
26.99699999999999
 21
128.2113
 31
0.0
  0
LINE
  5
111
330
1E
100
AcDbEntity
  8
0
100
AcDbLine
 10
26.8886
 20
129.8023
 30
0.0
 11
27.6209
 21
129.7273
 31
0.0
  0
LINE
  5
113
330
1E
100
AcDbEntity
  8
0
100
AcDbLine
 10
26.4084
 20
129.3772999999999
 30
0.0
 11
26.8886
 21
129.8023
 31
0.0
  0
LINE
  5
114
330
1E
100
AcDbEntity
  8
0
100
AcDbLine
 10
26.4084
 20
129.3772999999999
 30
0.0
 11
26.4429
 21
128.7193
 31
0.0
  0
LINE
  5
115
330
1E
100
AcDbEntity
  8
0
100
AcDbLine
 10
21.07769999999999
 20
127.3312999999999
 30
0.0
 11
21.70599999999999
 21
126.9013
 31
0.0
  0
LINE
  5
116
330
1E
100
AcDbEntity
  8
0
100
AcDbLine
 10
20.40439999999999
 20
127.3143
 30
0.0
 11
21.07769999999999
 21
127.3312999999999
 31
0.0
  0
LINE
  5
118
330
1E
100
AcDbEntity
  8
0
100
AcDbLine
 10
27.6209
 20
102.5373
 30
0.0
 11
28.1749
 21
102.3893
 31
0.0
  0
LINE
  5
119
330
1E
100
AcDbEntity
  8
0
100
AcDbLine
 10
27.6209
 20
129.7273
 30
0.0
 11
28.1749
 21
129.2193
 31
0.0
  0
LINE
  5
11A
330
1E
100
AcDbEntity
  8
0
100
AcDbLine
 10
27.4743
 20
78.6275
 30
0.0
 11
27.7723
 21
85.3733
 31
0.0
  0
LINE
  5
11B
330
1E
100
AcDbEntity
  8
0
100
AcDbLine
 10
27.3253
 20
68.5314
 30
0.0
 11
27.4743
 21
78.6275
 31
0.0
  0
LINE
  5
11C
330
1E
100
AcDbEntity
  8
0
100
AcDbLine
 10
27.3253
 20
68.5314
 30
0.0
 11
27.4743
 21
60.0541
 31
0.0
  0
LINE
  5
11D
330
1E
100
AcDbEntity
  8
0
100
AcDbLine
 10
28.2094
 20
102.3903
 30
0.0
 11
28.4452344424613
 21
103.228832142109
 31
0.0
  0
LINE
  5
11E
330
1E
100
AcDbEntity
  8
0
100
AcDbLine
 10
27.9580318303372
 20
103.3475781185799
 30
0.0
 11
28.3
 21
103.2583
 31
0.0
  0
LINE
  5
11F
330
1E
100
AcDbEntity
  8
0
100
AcDbLine
 10
27.7293
 20
102.5343
 30
0.0
 11
28.2094
 21
102.3903
 31
0.0
  0
LINE
  5
121
330
1E
100
AcDbEntity
  8
0
100
AcDbLine
 10
27.7969
 20
103.3862999999999
 30
0.0
 11
28.426
 21
103.3093
 31
0.0
  0
LINE
  5
122
330
1E
100
AcDbEntity
  8
0
100
AcDbLine
 10
28.19129999999999
 20
103.6343
 30
0.0
 11
28.579
 21
103.4153
 31
0.0
  0
LINE
  5
124
330
1E
100
AcDbEntity
  8
0
100
AcDbLine
 10
28.1749
 20
129.2193
 30
0.0
 11
28.2094
 21
128.5612999999999
 31
0.0
  0
LINE
  5
125
330
1E
100
AcDbEntity
  8
0
100
AcDbLine
 10
27.7293
 20
128.1363
 30
0.0
 11
28.2094
 21
128.5612999999999
 31
0.0
  0
LINE
  5
126
330
1E
100
AcDbEntity
  8
0
100
AcDbLine
 10
27.7969
 20
123.7133
 30
0.0
 11
28.426
 21
123.3092999999999
 31
0.0
  0
LINE
  5
127
330
1E
100
AcDbEntity
  8
0
100
AcDbLine
 10
28.3
 20
103.2583
 30
0.0
 11
32.27145524583669
 21
102.452497486352
 31
0.0
  0
LINE
  5
128
330
1E
100
AcDbEntity
  8
0
100
AcDbLine
 10
28.19129999999999
 20
122.2963
 30
0.0
 11
28.579
 21
122.7223
 31
0.0
  0
LINE
  5
129
330
1E
100
AcDbEntity
  8
0
100
AcDbLine
 10
28.1180029433166
 20
102.4044999357199
 30
0.0
 11
28.3683
 21
100.6583
 31
0.0
  0
LINE
  5
12A
330
1E
100
AcDbEntity
  8
0
100
AcDbLine
 10
28.5329
 20
105.4113
 30
0.0
 11
28.8013
 21
105.6123
 31
0.0
  0
LINE
  5
12B
330
1E
100
AcDbEntity
  8
0
100
AcDbLine
 10
28.5329
 20
105.4113
 30
0.0
 11
28.82189999999999
 21
105.1233
 31
0.0
  0
LINE
  5
12E
330
1E
100
AcDbEntity
  8
0
100
AcDbLine
 10
28.426
 20
103.3093
 30
0.0
 11
28.579
 21
103.4153
 31
0.0
  0
LINE
  5
130
330
1E
100
AcDbEntity
  8
0
100
AcDbLine
 10
28.426
 20
123.3092999999999
 30
0.0
 11
28.579
 21
122.7223
 31
0.0
  0
LINE
  5
131
330
1E
100
AcDbEntity
  8
0
100
AcDbLine
 10
28.5329
 20
118.3753
 30
0.0
 11
28.8013
 21
117.8833
 31
0.0
  0
LINE
  5
132
330
1E
100
AcDbEntity
  8
0
100
AcDbLine
 10
28.5329
 20
118.3753
 30
0.0
 11
28.82189999999999
 21
118.7883
 31
0.0
  0
LINE
  5
134
330
1E
100
AcDbEntity
  8
0
100
AcDbLine
 10
28.3683
 20
100.6583
 30
0.0
 11
28.51729999999999
 21
94.2913
 31
0.0
  0
LINE
  5
135
330
1E
100
AcDbEntity
  8
0
100
AcDbLine
 10
27.7723
 20
85.3733
 30
0.0
 11
28.51729999999999
 21
94.2913
 31
0.0
  0
LINE
  5
136
330
1E
100
AcDbEntity
  8
0
100
AcDbLine
 10
27.6978
 20
49.28309999999999
 30
0.0
 11
27.9958
 21
37.77859999999999
 31
0.0
  0
LINE
  5
137
330
1E
100
AcDbEntity
  8
0
100
AcDbLine
 10
27.9958
 20
37.77859999999999
 30
0.0
 11
28.7407
 21
25.7586
 31
0.0
  0
LINE
  5
138
330
1E
100
AcDbEntity
  8
0
100
AcDbLine
 10
32.86
 20
4.67609999999998
 30
0.0
 11
33.1
 21
4.245399999999979
 31
0.0
  0
LINE
  5
139
330
1E
100
AcDbEntity
  8
0
100
AcDbLine
 10
33.1
 20
4.245399999999979
 30
0.0
 11
34.06
 21
2.914699999999979
 31
0.0
  0
LINE
  5
13A
330
1E
100
AcDbEntity
  8
0
100
AcDbLine
 10
34.06
 20
2.914699999999979
 30
0.0
 11
35.61999999999999
 21
1.744599999999979
 31
0.0
  0
LINE
  5
13B
330
1E
100
AcDbEntity
  8
0
100
AcDbLine
 10
35.61999999999999
 20
1.744599999999979
 30
0.0
 11
37.66
 21
0.8497999999999789
 31
0.0
  0
LINE
  5
13C
330
1E
100
AcDbEntity
  8
0
100
AcDbLine
 10
37.66
 20
0.8497999999999789
 30
0.0
 11
39.97999999999999
 21
0.29919999999998
 31
0.0
  0
LINE
  5
13D
330
1E
100
AcDbEntity
  8
0
100
AcDbLine
 10
37.66
 20
0.8497999999999789
 30
0.0
 11
39.97999999999999
 21
0.29919999999998
 31
0.0
  0
LINE
  5
13E
330
1E
100
AcDbEntity
  8
0
100
AcDbLine
 10
32.5
 20
6.144499999999981
 30
0.0
 11
32.86
 21
4.67609999999998
 31
0.0
  0
LINE
  5
13F
330
1E
100
AcDbEntity
  8
0
100
AcDbLine
 10
32.5
 20
6.144499999999981
 30
0.0
 11
32.5
 21
9.209011923076909
 31
0.0
  0
LINE
  5
140
330
1E
100
AcDbEntity
  8
0
100
AcDbLine
 10
42.5
 20
0.0926999999999783
 30
0.0
 11
45.02
 21
0.29919999999998
 31
0.0
  0
LINE
  5
141
330
1E
100
AcDbEntity
  8
0
100
AcDbLine
 10
39.97999999999999
 20
0.29919999999998
 30
0.0
 11
42.5
 21
0.0926999999999783
 31
0.0
  0
LINE
  5
142
330
1E
100
AcDbEntity
  8
0
100
AcDbLine
 10
42.5
 20
6.13059999999998
 30
0.0
 11
45.57199999999999
 21
6.38449999999998
 31
0.0
  0
LINE
  5
143
330
1E
100
AcDbEntity
  8
0
100
AcDbLine
 10
45.02
 20
0.29919999999998
 30
0.0
 11
47.34
 21
0.8497999999999789
 31
0.0
  0
LINE
  5
144
330
1E
100
AcDbEntity
  8
0
100
AcDbLine
 10
50.94
 20
2.914699999999979
 30
0.0
 11
51.9
 21
4.245399999999979
 31
0.0
  0
LINE
  5
145
330
1E
100
AcDbEntity
  8
0
100
AcDbLine
 10
51.9
 20
4.245399999999979
 30
0.0
 11
52.14
 21
4.67609999999998
 31
0.0
  0
LINE
  5
146
330
1E
100
AcDbEntity
  8
0
100
AcDbLine
 10
49.38
 20
1.744599999999979
 30
0.0
 11
50.94
 21
2.914699999999979
 31
0.0
  0
LINE
  5
147
330
1E
100
AcDbEntity
  8
0
100
AcDbLine
 10
47.34
 20
0.8497999999999789
 30
0.0
 11
49.38
 21
1.744599999999979
 31
0.0
  0
LINE
  5
148
330
1E
100
AcDbEntity
  8
0
100
AcDbLine
 10
45.02
 20
0.29919999999998
 30
0.0
 11
47.34
 21
0.8497999999999789
 31
0.0
  0
LINE
  5
149
330
1E
100
AcDbEntity
  8
0
100
AcDbLine
 10
52.5
 20
6.144499999999981
 30
0.0
 11
52.5
 21
9.2090119230769
 31
0.0
  0
LINE
  5
14A
330
1E
100
AcDbEntity
  8
0
100
AcDbLine
 10
52.14
 20
4.67609999999998
 30
0.0
 11
52.5
 21
6.144499999999981
 31
0.0
  0
LINE
  5
14B
330
1E
100
AcDbEntity
  8
0
100
AcDbLine
 10
45.57199999999999
 20
6.38449999999998
 30
0.0
 11
48.452
 21
7.061799999999981
 31
0.0
  0
LINE
  5
14C
330
1E
100
AcDbEntity
  8
0
100
AcDbLine
 10
42.5
 20
6.340399999999981
 30
0.0
 11
45.828
 21
6.61719999999998
 31
0.0
  0
LINE
  5
14D
330
1E
100
AcDbEntity
  8
0
100
AcDbLine
 10
45.828
 20
6.61719999999998
 30
0.0
 11
48.948
 21
7.355199999999981
 31
0.0
  0
LINE
  5
14E
330
1E
100
AcDbEntity
  8
0
100
AcDbLine
 10
39.428
 20
6.38449999999998
 30
0.0
 11
42.5
 21
6.13059999999998
 31
0.0
  0
LINE
  5
14F
330
1E
100
AcDbEntity
  8
0
100
AcDbLine
 10
34.00399999999999
 20
8.19059999999998
 30
0.0
 11
36.548
 21
7.061799999999981
 31
0.0
  0
LINE
  5
150
330
1E
100
AcDbEntity
  8
0
100
AcDbLine
 10
28.8013
 20
105.6123
 30
0.0
 11
29.4939
 21
105.6003
 31
0.0
  0
LINE
  5
152
330
1E
100
AcDbEntity
  8
0
100
AcDbLine
 10
29.3461
 20
110.1412999999999
 30
0.0
 11
29.731
 21
109.7712999999999
 31
0.0
  0
LINE
  5
153
330
1E
100
AcDbEntity
  8
0
100
AcDbLine
 10
29.3461
 20
110.1412999999999
 30
0.0
 11
29.5482
 21
110.4653
 31
0.0
  0
LINE
  5
155
330
1E
100
AcDbEntity
  8
0
100
AcDbLine
 10
29.4939
 20
105.6003
 30
0.0
 11
30.1948
 21
105.3943
 31
0.0
  0
LINE
  5
157
330
1E
100
AcDbEntity
  8
0
100
AcDbLine
 10
28.82189999999999
 20
105.1233
 30
0.0
 11
29.52289999999999
 21
104.9163
 31
0.0
  0
LINE
  5
158
330
1E
100
AcDbEntity
  8
0
100
AcDbLine
 10
28.8013
 20
117.8833
 30
0.0
 11
29.4939
 21
117.6042999999999
 31
0.0
  0
LINE
  5
159
330
1E
100
AcDbEntity
  8
0
100
AcDbLine
 10
29.4939
 20
117.6042999999999
 30
0.0
 11
30.1948
 21
117.6862999999999
 31
0.0
  0
LINE
  5
15A
330
1E
100
AcDbEntity
  8
0
100
AcDbLine
 10
28.82189999999999
 20
118.7883
 30
0.0
 11
29.52289999999999
 21
118.8703
 31
0.0
  0
LINE
  5
15C
330
1E
100
AcDbEntity
  8
0
100
AcDbLine
 10
29.5482
 20
110.4653
 30
0.0
 11
30.19379999999999
 21
110.5603
 31
0.0
  0
LINE
  5
15E
330
1E
100
AcDbEntity
  8
0
100
AcDbLine
 10
30.19379999999999
 20
110.5603
 30
0.0
 11
30.9176
 21
110.3572999999999
 31
0.0
  0
LINE
  5
160
330
1E
100
AcDbEntity
  8
0
100
AcDbLine
 10
29.731
 20
109.7712999999999
 30
0.0
 11
30.45479999999999
 21
109.5682999999999
 31
0.0
  0
LINE
  5
161
330
1E
100
AcDbEntity
  8
0
100
AcDbLine
 10
30.1948
 20
105.3943
 30
0.0
 11
30.48389999999999
 21
105.1053
 31
0.0
  0
LINE
  5
163
330
1E
100
AcDbEntity
  8
0
100
AcDbLine
 10
30.21549999999999
 20
104.9053
 30
0.0
 11
30.48389999999999
 21
105.1053
 31
0.0
  0
LINE
  5
164
330
1E
100
AcDbEntity
  8
0
100
AcDbLine
 10
29.52289999999999
 20
104.9163
 30
0.0
 11
30.21549999999999
 21
104.9053
 31
0.0
  0
LINE
  5
165
330
1E
100
AcDbEntity
  8
0
100
AcDbLine
 10
30.1948
 20
117.6862999999999
 30
0.0
 11
30.48389999999999
 21
118.0992999999999
 31
0.0
  0
LINE
  5
166
330
1E
100
AcDbEntity
  8
0
100
AcDbLine
 10
30.45479999999999
 20
109.5682999999999
 30
0.0
 11
31.1003
 21
109.6633
 31
0.0
  0
LINE
  5
168
330
1E
100
AcDbEntity
  8
0
100
AcDbLine
 10
30.2457
 20
113.1143
 30
0.0
 11
30.769
 21
112.7442999999999
 31
0.0
  0
LINE
  5
169
330
1E
100
AcDbEntity
  8
0
100
AcDbLine
 10
30.9176
 20
110.3572999999999
 30
0.0
 11
31.3024
 21
109.9873
 31
0.0
  0
LINE
  5
16B
330
1E
100
AcDbEntity
  8
0
100
AcDbLine
 10
31.1003
 20
109.6633
 30
0.0
 11
31.3024
 21
109.9873
 31
0.0
  0
LINE
  5
16C
330
1E
100
AcDbEntity
  8
0
100
AcDbLine
 10
30.769
 20
112.7442999999999
 30
0.0
 11
31.52179999999999
 21
112.6522999999999
 31
0.0
  0
LINE
  5
16D
330
1E
100
AcDbEntity
  8
0
100
AcDbLine
 10
30.7815
 20
113.7612999999999
 30
0.0
 11
31.5343
 21
113.6683
 31
0.0
  0
LINE
  5
16F
330
1E
100
AcDbEntity
  8
0
100
AcDbLine
 10
30.2402
 20
113.5362999999999
 30
0.0
 11
30.7815
 21
113.7612999999999
 31
0.0
  0
LINE
  5
170
330
1E
100
AcDbEntity
  8
0
100
AcDbLine
 10
30.2402
 20
113.5362999999999
 30
0.0
 11
30.2457
 21
113.1143
 31
0.0
  0
LINE
  5
173
330
1E
100
AcDbEntity
  8
0
100
AcDbLine
 10
30.21549999999999
 20
118.5902999999999
 30
0.0
 11
30.48389999999999
 21
118.0992999999999
 31
0.0
  0
LINE
  5
175
330
1E
100
AcDbEntity
  8
0
100
AcDbLine
 10
29.52289999999999
 20
118.8703
 30
0.0
 11
30.21549999999999
 21
118.5902999999999
 31
0.0
  0
LINE
  5
177
330
1E
100
AcDbEntity
  8
0
100
AcDbLine
 10
29.5
 20
13.9311
 30
0.0
 11
29.968
 21
12.0602
 31
0.0
  0
LINE
  5
178
330
1E
100
AcDbEntity
  8
0
100
AcDbLine
 10
29.968
 20
12.0602
 30
0.0
 11
31.21599999999999
 21
10.21509999999999
 31
0.0
  0
LINE
  5
179
330
1E
100
AcDbEntity
  8
0
100
AcDbLine
 10
32.5
 20
9.209011923076909
 30
0.0
 11
32.5
 21
6.144499999999981
 31
0.0
  0
LINE
  5
17A
330
1E
100
AcDbEntity
  8
0
100
AcDbLine
 10
31.3024
 20
109.9873
 30
0.0
 11
31.319669533472
 21
110.0795392494799
 31
0.0
  0
LINE
  5
17C
330
1E
100
AcDbEntity
  8
0
100
AcDbLine
 10
31.52179999999999
 20
112.6522999999999
 30
0.0
 11
32.0631
 21
112.8762999999999
 31
0.0
  0
LINE
  5
17D
330
1E
100
AcDbEntity
  8
0
100
AcDbLine
 10
31.7784
 20
107.2933
 30
0.0
 11
32.1436
 21
107.5233
 31
0.0
  0
LINE
  5
17E
330
1E
100
AcDbEntity
  8
0
100
AcDbLine
 10
31.7784
 20
107.2933
 30
0.0
 11
31.9697
 21
106.9682999999999
 31
0.0
  0
LINE
  5
180
330
1E
100
AcDbEntity
  8
0
100
AcDbLine
 10
31.9697
 20
106.9682999999999
 30
0.0
 11
32.6306
 21
106.7382999999999
 31
0.0
  0
LINE
  5
181
330
1E
100
AcDbEntity
  8
0
100
AcDbLine
 10
33.6753
 20
101.2512999999999
 30
0.0
 11
34.1174
 21
101.1683
 31
0.0
  0
LINE
  5
182
330
1E
100
AcDbEntity
  8
0
100
AcDbLine
 10
33.6753
 20
101.2512999999999
 30
0.0
 11
33.7572541614955
 21
101.829920355332
 31
0.0
  0
LINE
  5
183
330
1E
100
AcDbEntity
  8
0
100
AcDbLine
 10
32.8066
 20
101.9403
 30
0.0
 11
33.5587
 21
101.8302999999999
 31
0.0
  0
LINE
  5
184
330
1E
100
AcDbEntity
  8
0
100
AcDbLine
 10
33.5587
 20
101.8302999999999
 30
0.0
 11
34.0817
 21
101.8293
 31
0.0
  0
LINE
  5
185
330
1E
100
AcDbEntity
  8
0
100
AcDbLine
 10
35.60719999999999
 20
100.9923
 30
0.0
 11
35.7247669496841
 21
101.822357058241
 31
0.0
  0
LINE
  5
186
330
1E
100
AcDbEntity
  8
0
100
AcDbLine
 10
35.4697
 20
100.9873
 30
0.0
 11
35.60719999999999
 21
100.9923
 31
0.0
  0
LINE
  5
188
330
1E
100
AcDbEntity
  8
0
100
AcDbLine
 10
34.85889999999999
 20
101.0583
 30
0.0
 11
35.4697
 21
100.9873
 31
0.0
  0
LINE
  5
18A
330
1E
100
AcDbEntity
  8
0
100
AcDbLine
 10
34.1174
 20
101.1683
 30
0.0
 11
34.85889999999999
 21
101.0583
 31
0.0
  0
LINE
  5
18C
330
1E
100
AcDbEntity
  8
0
100
AcDbLine
 10
34.12025616147099
 20
102.077378459991
 30
0.0
 11
35.2
 21
101.8583
 31
0.0
  0
LINE
  5
18D
330
1E
100
AcDbEntity
  8
0
100
AcDbLine
 10
34.1202561614711
 20
102.077378459991
 30
0.0
 11
35.2
 21
101.8583
 31
0.0
  0
LINE
  5
18E
330
1E
100
AcDbEntity
  8
0
100
AcDbLine
 10
35.2
 20
101.8583
 30
0.0
 11
38.3482433921289
 21
101.64266689095
 31
0.0
  0
LINE
  5
18F
330
1E
100
AcDbEntity
  8
0
100
AcDbLine
 10
34.0817
 20
101.8293
 30
0.0
 11
34.19299437088879
 21
102.545391412692
 31
0.0
  0
LINE
  5
190
330
1E
100
AcDbEntity
  8
0
100
AcDbLine
 10
34.0504
 20
101.9422999999999
 30
0.0
 11
34.0817
 21
101.8293
 31
0.0
  0
LINE
  5
192
330
1E
100
AcDbEntity
  8
0
100
AcDbLine
 10
32.1436
 20
107.5233
 30
0.0
 11
32.87409999999999
 21
107.5163
 31
0.0
  0
LINE
  5
194
330
1E
100
AcDbEntity
  8
0
100
AcDbLine
 10
33.50909999999999
 20
102.1003
 30
0.0
 11
34.0504
 21
101.9422999999999
 31
0.0
  0
LINE
  5
196
330
1E
100
AcDbEntity
  8
0
100
AcDbLine
 10
32.87409999999999
 20
107.5163
 30
0.0
 11
33.53509999999999
 21
107.2853
 31
0.0
  0
LINE
  5
199
330
1E
100
AcDbEntity
  8
0
100
AcDbLine
 10
33.53509999999999
 20
107.2853
 30
0.0
 11
33.7264
 21
106.9603
 31
0.0
  0
LINE
  5
19B
330
1E
100
AcDbEntity
  8
0
100
AcDbLine
 10
33.3611
 20
106.7303
 30
0.0
 11
33.7264
 21
106.9603
 31
0.0
  0
LINE
  5
19C
330
1E
100
AcDbEntity
  8
0
100
AcDbLine
 10
32.6306
 20
106.7382999999999
 30
0.0
 11
33.3611
 21
106.7303
 31
0.0
  0
LINE
  5
19D
330
1E
100
AcDbEntity
  8
0
100
AcDbLine
 10
32.757
 20
102.2102999999999
 30
0.0
 11
33.50909999999999
 21
102.1003
 31
0.0
  0
LINE
  5
19F
330
1E
100
AcDbEntity
  8
0
100
AcDbLine
 10
32.234
 20
102.2113
 30
0.0
 11
32.2653
 21
102.0982999999999
 31
0.0
  0
LINE
  5
1A0
330
1E
100
AcDbEntity
  8
0
100
AcDbLine
 10
32.234
 20
102.2113
 30
0.0
 11
32.757
 21
102.2102999999999
 31
0.0
  0
LINE
  5
1A1
330
1E
100
AcDbEntity
  8
0
100
AcDbLine
 10
32.234
 20
102.2113
 30
0.0
 11
32.3865703931171
 21
103.1937950948669
 31
0.0
  0
LINE
  5
1A2
330
1E
100
AcDbEntity
  8
0
100
AcDbLine
 10
32.2653
 20
102.0982999999999
 30
0.0
 11
32.8066
 21
101.9403
 31
0.0
  0
LINE
  5
1A4
330
1E
100
AcDbEntity
  8
0
100
AcDbLine
 10
32.234
 20
124.4072999999999
 30
0.0
 11
32.2653
 21
125.0013
 31
0.0
  0
LINE
  5
1A5
330
1E
100
AcDbEntity
  8
0
100
AcDbLine
 10
32.234
 20
124.4072999999999
 30
0.0
 11
32.757
 21
123.9263
 31
0.0
  0
LINE
  5
1A7
330
1E
100
AcDbEntity
  8
0
100
AcDbLine
 10
35.6325
 20
115.2023
 30
0.0
 11
36.0077
 21
115.5753
 31
0.0
  0
LINE
  5
1A8
330
1E
100
AcDbEntity
  8
0
100
AcDbLine
 10
34.897
 20
115.1483
 30
0.0
 11
35.6325
 21
115.2023
 31
0.0
  0
LINE
  5
1A9
330
1E
100
AcDbEntity
  8
0
100
AcDbLine
 10
34.23859999999999
 20
115.4303
 30
0.0
 11
34.897
 21
115.1483
 31
0.0
  0
LINE
  5
1AA
330
1E
100
AcDbEntity
  8
0
100
AcDbLine
 10
34.43139999999999
 20
116.2673
 30
0.0
 11
35.1669
 21
116.3213
 31
0.0
  0
LINE
  5
1AC
330
1E
100
AcDbEntity
  8
0
100
AcDbLine
 10
35.1669
 20
116.3213
 30
0.0
 11
35.8253
 21
116.0393
 31
0.0
  0
LINE
  5
1AE
330
1E
100
AcDbEntity
  8
0
100
AcDbLine
 10
35.8253
 20
116.0393
 30
0.0
 11
36.0077
 21
115.5753
 31
0.0
  0
LINE
  5
1B0
330
1E
100
AcDbEntity
  8
0
100
AcDbLine
 10
34.05619999999999
 20
115.8943
 30
0.0
 11
34.43139999999999
 21
116.2673
 31
0.0
  0
LINE
  5
1B1
330
1E
100
AcDbEntity
  8
0
100
AcDbLine
 10
34.05619999999999
 20
115.8943
 30
0.0
 11
34.23859999999999
 21
115.4303
 31
0.0
  0
LINE
  5
1B2
330
1E
100
AcDbEntity
  8
0
100
AcDbLine
 10
33.50909999999999
 20
123.8302999999999
 30
0.0
 11
34.0504
 21
124.1943
 31
0.0
  0
LINE
  5
1B3
330
1E
100
AcDbEntity
  8
0
100
AcDbLine
 10
33.6753
 20
130.3563
 30
0.0
 11
33.8128
 21
131.0082999999999
 31
0.0
  0
LINE
  5
1B4
330
1E
100
AcDbEntity
  8
0
100
AcDbLine
 10
33.6753
 20
130.3563
 30
0.0
 11
34.1174
 21
129.7833
 31
0.0
  0
LINE
  5
1B5
330
1E
100
AcDbEntity
  8
0
100
AcDbLine
 10
33.8128
 20
131.0082999999999
 30
0.0
 11
34.42369999999999
 21
131.3612999999999
 31
0.0
  0
LINE
  5
1B6
330
1E
100
AcDbEntity
  8
0
100
AcDbLine
 10
32.8066
 20
125.3662999999999
 30
0.0
 11
33.5587
 21
125.2693
 31
0.0
  0
LINE
  5
1B7
330
1E
100
AcDbEntity
  8
0
100
AcDbLine
 10
33.5587
 20
125.2693
 30
0.0
 11
34.0817
 21
124.7892999999999
 31
0.0
  0
LINE
  5
1B8
330
1E
100
AcDbEntity
  8
0
100
AcDbLine
 10
34.85889999999999
 20
129.6113
 30
0.0
 11
35.4697
 21
129.9643
 31
0.0
  0
LINE
  5
1B9
330
1E
100
AcDbEntity
  8
0
100
AcDbLine
 10
34.42369999999999
 20
131.3612999999999
 30
0.0
 11
35.1651
 21
131.1892999999999
 31
0.0
  0
LINE
  5
1BB
330
1E
100
AcDbEntity
  8
0
100
AcDbLine
 10
35.1651
 20
131.1892999999999
 30
0.0
 11
35.60719999999999
 21
130.6152999999999
 31
0.0
  0
LINE
  5
1BC
330
1E
100
AcDbEntity
  8
0
100
AcDbLine
 10
35.4697
 20
129.9643
 30
0.0
 11
35.60719999999999
 21
130.6152999999999
 31
0.0
  0
LINE
  5
1BD
330
1E
100
AcDbEntity
  8
0
100
AcDbLine
 10
34.1174
 20
129.7833
 30
0.0
 11
34.85889999999999
 21
129.6113
 31
0.0
  0
LINE
  5
1BE
330
1E
100
AcDbEntity
  8
0
100
AcDbLine
 10
34.0504
 20
124.1943
 30
0.0
 11
34.0817
 21
124.7892999999999
 31
0.0
  0
LINE
  5
1C0
330
1E
100
AcDbEntity
  8
0
100
AcDbLine
 10
32.757
 20
123.9263
 30
0.0
 11
33.50909999999999
 21
123.8302999999999
 31
0.0
  0
LINE
  5
1C1
330
1E
100
AcDbEntity
  8
0
100
AcDbLine
 10
32.2653
 20
125.0013
 30
0.0
 11
32.8066
 21
125.3662999999999
 31
0.0
  0
LINE
  5
1C3
330
1E
100
AcDbEntity
  8
0
100
AcDbLine
 10
32.0575
 20
113.2983
 30
0.0
 11
32.0631
 21
112.8762999999999
 31
0.0
  0
LINE
  5
1C5
330
1E
100
AcDbEntity
  8
0
100
AcDbLine
 10
31.5343
 20
113.6683
 30
0.0
 11
32.0575
 21
113.2983
 31
0.0
  0
LINE
  5
1C8
330
1E
100
AcDbEntity
  8
0
100
AcDbLine
 10
31.21599999999999
 20
10.21509999999999
 30
0.0
 11
33.296
 21
8.58529999999998
 31
0.0
  0
LINE
  5
1C9
330
1E
100
AcDbEntity
  8
0
100
AcDbLine
 10
33.296
 20
8.58529999999998
 30
0.0
 11
36.05199999999999
 21
7.355199999999981
 31
0.0
  0
LINE
  5
1CA
330
1E
100
AcDbEntity
  8
0
100
AcDbLine
 10
33.296
 20
8.58529999999998
 30
0.0
 11
34.00399999999999
 21
8.19059999999998
 31
0.0
  0
LINE
  5
1CB
330
1E
100
AcDbEntity
  8
0
100
AcDbLine
 10
48.452
 20
7.061799999999981
 30
0.0
 11
50.996
 21
8.19059999999998
 31
0.0
  0
LINE
  5
1CC
330
1E
100
AcDbEntity
  8
0
100
AcDbLine
 10
36.79
 20
103.0073
 30
0.0
 11
36.9039
 21
102.7853
 31
0.0
  0
LINE
  5
1CD
330
1E
100
AcDbEntity
  8
0
100
AcDbLine
 10
36.79
 20
103.0073
 30
0.0
 11
37.25569999999999
 21
103.1513
 31
0.0
  0
LINE
  5
1CF
330
1E
100
AcDbEntity
  8
0
100
AcDbLine
 10
37.50469999999999
 20
102.6162999999999
 30
0.0
 11
38.2562
 21
102.6043
 31
0.0
  0
LINE
  5
1D0
330
1E
100
AcDbEntity
  8
0
100
AcDbLine
 10
36.88539999999999
 20
105.3782999999999
 30
0.0
 11
36.8983
 21
105.1003
 31
0.0
  0
LINE
  5
1D1
330
1E
100
AcDbEntity
  8
0
100
AcDbLine
 10
36.88539999999999
 20
105.3782999999999
 30
0.0
 11
37.4268
 21
105.5403
 31
0.0
  0
LINE
  5
1D3
330
1E
100
AcDbEntity
  8
0
100
AcDbLine
 10
36.8983
 20
105.1003
 30
0.0
 11
37.4317
 21
104.8723
 31
0.0
  0
LINE
  5
1D4
330
1E
100
AcDbEntity
  8
0
100
AcDbLine
 10
37.4317
 20
104.8723
 30
0.0
 11
38.19169999999999
 21
104.8332999999999
 31
0.0
  0
LINE
  5
1D5
330
1E
100
AcDbEntity
  8
0
100
AcDbLine
 10
37.4268
 20
105.5403
 30
0.0
 11
38.1868
 21
105.5012999999999
 31
0.0
  0
LINE
  5
1D7
330
1E
100
AcDbEntity
  8
0
100
AcDbLine
 10
38.0072
 20
103.1382999999999
 30
0.0
 11
38.608
 21
102.9692999999999
 31
0.0
  0
LINE
  5
1D9
330
1E
100
AcDbEntity
  8
0
100
AcDbLine
 10
37.25569999999999
 20
103.1513
 30
0.0
 11
38.0072
 21
103.1382999999999
 31
0.0
  0
LINE
  5
1DB
330
1E
100
AcDbEntity
  8
0
100
AcDbLine
 10
36.9039
 20
102.7853
 30
0.0
 11
37.50469999999999
 21
102.6162999999999
 31
0.0
  0
LINE
  5
1DC
330
1E
100
AcDbEntity
  8
0
100
AcDbLine
 10
38.32829999999999
 20
101.2612999999999
 30
0.0
 11
38.5419
 21
101.1643
 31
0.0
  0
LINE
  5
1DD
330
1E
100
AcDbEntity
  8
0
100
AcDbLine
 10
38.32829999999999
 20
101.2612999999999
 30
0.0
 11
38.7096
 21
101.3193
 31
0.0
  0
LINE
  5
1DE
330
1E
100
AcDbEntity
  8
0
100
AcDbLine
 10
38.32829999999999
 20
101.2612999999999
 30
0.0
 11
38.3482433921289
 21
101.64266689095
 31
0.0
  0
LINE
  5
1DF
330
1E
100
AcDbEntity
  8
0
100
AcDbLine
 10
38.19169999999999
 20
104.8332999999999
 30
0.0
 11
38.73319999999999
 21
104.9952999999999
 31
0.0
  0
LINE
  5
1E0
330
1E
100
AcDbEntity
  8
0
100
AcDbLine
 10
38.1868
 20
105.5012999999999
 30
0.0
 11
38.7203
 21
105.2733
 31
0.0
  0
LINE
  5
1E2
330
1E
100
AcDbEntity
  8
0
100
AcDbLine
 10
38.2562
 20
102.6043
 30
0.0
 11
38.72189999999999
 21
102.7482999999999
 31
0.0
  0
LINE
  5
1E3
330
1E
100
AcDbEntity
  8
0
100
AcDbLine
 10
38.0072
 20
119.9413
 30
0.0
 11
38.608
 21
120.2353
 31
0.0
  0
LINE
  5
1E4
330
1E
100
AcDbEntity
  8
0
100
AcDbLine
 10
37.25569999999999
 20
120.0532999999999
 30
0.0
 11
38.0072
 21
119.9413
 31
0.0
  0
LINE
  5
1E5
330
1E
100
AcDbEntity
  8
0
100
AcDbLine
 10
36.79
 20
120.4882999999999
 30
0.0
 11
36.9039
 21
121.0013
 31
0.0
  0
LINE
  5
1E6
330
1E
100
AcDbEntity
  8
0
100
AcDbLine
 10
36.79
 20
120.4882999999999
 30
0.0
 11
37.25569999999999
 21
120.0532999999999
 31
0.0
  0
LINE
  5
1E8
330
1E
100
AcDbEntity
  8
0
100
AcDbLine
 10
37.50469999999999
 20
121.2943
 30
0.0
 11
38.2562
 21
121.1823
 31
0.0
  0
LINE
  5
1EA
330
1E
100
AcDbEntity
  8
0
100
AcDbLine
 10
38.2562
 20
121.1823
 30
0.0
 11
38.72189999999999
 21
120.7473
 31
0.0
  0
LINE
  5
1EC
330
1E
100
AcDbEntity
  8
0
100
AcDbLine
 10
36.9039
 20
121.0013
 30
0.0
 11
37.50469999999999
 21
121.2943
 31
0.0
  0
LINE
  5
1EE
330
1E
100
AcDbEntity
  8
0
100
AcDbLine
 10
38.5419
 20
101.1643
 30
0.0
 11
39.2
 21
101.0853
 31
0.0
  0
LINE
  5
1EF
330
1E
100
AcDbEntity
  8
0
100
AcDbLine
 10
38.608
 20
102.9692999999999
 30
0.0
 11
38.72189999999999
 21
102.7482999999999
 31
0.0
  0
LINE
  5
1F1
330
1E
100
AcDbEntity
  8
0
100
AcDbLine
 10
38.7203
 20
105.2733
 30
0.0
 11
38.73319999999999
 21
104.9952999999999
 31
0.0
  0
LINE
  5
1F3
330
1E
100
AcDbEntity
  8
0
100
AcDbLine
 10
38.7096
 20
101.3193
 30
0.0
 11
39.4396
 21
101.3072999999999
 31
0.0
  0
LINE
  5
1F8
330
1E
100
AcDbEntity
  8
0
100
AcDbLine
 10
38.608
 20
120.2353
 30
0.0
 11
38.72189999999999
 21
120.7473
 31
0.0
  0
LINE
  5
1F9
330
1E
100
AcDbEntity
  8
0
100
AcDbLine
 10
38.7096
 20
124.8172999999999
 30
0.0
 11
39.4396
 21
124.6232999999999
 31
0.0
  0
LINE
  5
1FA
330
1E
100
AcDbEntity
  8
0
100
AcDbLine
 10
38.32829999999999
 20
125.3573
 30
0.0
 11
38.5419
 21
125.9363
 31
0.0
  0
LINE
  5
1FB
330
1E
100
AcDbEntity
  8
0
100
AcDbLine
 10
38.32829999999999
 20
125.3573
 30
0.0
 11
38.7096
 21
124.8172999999999
 31
0.0
  0
LINE
  5
1FC
330
1E
100
AcDbEntity
  8
0
100
AcDbLine
 10
38.5419
 20
125.9363
 30
0.0
 11
39.2
 21
126.2213
 31
0.0
  0
LINE
  5
1FE
330
1E
100
AcDbEntity
  8
0
100
AcDbLine
 10
50.996
 20
8.19059999999998
 30
0.0
 11
51.70399999999999
 21
8.58529999999998
 31
0.0
  0
LINE
  5
1FF
330
1E
100
AcDbEntity
  8
0
100
AcDbLine
 10
48.948
 20
7.355199999999981
 30
0.0
 11
51.70399999999999
 21
8.58529999999998
 31
0.0
  0
LINE
  5
200
330
1E
100
AcDbEntity
  8
0
100
AcDbLine
 10
52.5
 20
9.2090119230769
 30
0.0
 11
52.5
 21
6.144499999999981
 31
0.0
  0
LINE
  5
201
330
1E
100
AcDbEntity
  8
0
100
AcDbLine
 10
51.70399999999999
 20
8.58529999999998
 30
0.0
 11
53.784
 21
10.21509999999999
 31
0.0
  0
LINE
  5
204
330
1E
100
AcDbEntity
  8
0
100
AcDbLine
 10
53.784
 20
10.21509999999999
 30
0.0
 11
55.03199999999999
 21
12.0602
 31
0.0
  0
LINE
  5
205
330
1E
100
AcDbEntity
  8
0
100
AcDbLine
 10
55.5
 20
13.9311
 30
0.0
 11
56.2593
 21
25.7586
 31
0.0
  0
LINE
  5
206
330
1E
100
AcDbEntity
  8
0
100
AcDbLine
 10
55.03199999999999
 20
12.0602
 30
0.0
 11
55.5
 21
13.9311
 31
0.0
  0
LINE
  5
207
330
1E
100
AcDbEntity
  8
0
100
AcDbLine
 10
43.2092
 20
100.5712999999999
 30
0.0
 11
43.5092
 21
100.6053
 31
0.0
  0
LINE
  5
209
330
1E
100
AcDbEntity
  8
0
100
AcDbLine
 10
42.50919999999999
 20
100.5562999999999
 30
0.0
 11
43.2092
 21
100.5712999999999
 31
0.0
  0
LINE
  5
20B
330
1E
100
AcDbEntity
  8
0
100
AcDbLine
 10
43.5092
 20
100.6053
 30
0.0
 11
43.5092
 21
101.4274232876709
 31
0.0
  0
LINE
  5
20C
330
1E
100
AcDbEntity
  8
0
100
AcDbLine
 10
41.80919999999999
 20
100.5712999999999
 30
0.0
 11
42.50919999999999
 21
100.5562999999999
 31
0.0
  0
LINE
  5
20E
330
1E
100
AcDbEntity
  8
0
100
AcDbLine
 10
41.5092
 20
100.6053
 30
0.0
 11
41.80919999999999
 21
100.5712999999999
 31
0.0
  0
LINE
  5
20F
330
1E
100
AcDbEntity
  8
0
100
AcDbLine
 10
41.5092
 20
100.6053
 30
0.0
 11
41.5092
 21
101.426163013699
 31
0.0
  0
LINE
  5
210
330
1E
100
AcDbEntity
  8
0
100
AcDbLine
 10
56.2593
 20
25.7586
 30
0.0
 11
57.0042
 21
37.77859999999999
 31
0.0
  0
LINE
  5
211
330
1E
100
AcDbEntity
  8
0
100
AcDbLine
 10
57.3022
 20
49.28309999999999
 30
0.0
 11
57.5257
 21
60.0541
 31
0.0
  0
LINE
  5
212
330
1E
100
AcDbEntity
  8
0
100
AcDbLine
 10
57.0042
 20
37.77859999999999
 30
0.0
 11
57.3022
 21
49.28309999999999
 31
0.0
  0
LINE
  5
213
330
1E
100
AcDbEntity
  8
0
100
AcDbLine
 10
57.5257
 20
60.0541
 30
0.0
 11
57.6747
 21
68.5314
 31
0.0
  0
LINE
  5
214
330
1E
100
AcDbEntity
  8
0
100
AcDbLine
 10
57.5257
 20
78.6275
 30
0.0
 11
57.6747
 21
68.5314
 31
0.0
  0
LINE
  5
215
330
1E
100
AcDbEntity
  8
0
100
AcDbLine
 10
57.2277
 20
85.3733
 30
0.0
 11
57.5257
 21
78.6275
 31
0.0
  0
LINE
  5
216
330
1E
100
AcDbEntity
  8
0
100
AcDbLine
 10
56.4827
 20
94.2913
 30
0.0
 11
56.6317
 21
100.6583
 31
0.0
  0
LINE
  5
217
330
1E
100
AcDbEntity
  8
0
100
AcDbLine
 10
56.4827
 20
94.2913
 30
0.0
 11
57.2277
 21
85.3733
 31
0.0
  0
LINE
  5
218
330
1E
100
AcDbEntity
  8
0
100
AcDbLine
 10
39.2
 20
101.0853
 30
0.0
 11
39.9299
 21
101.0723
 31
0.0
  0
LINE
  5
219
330
1E
100
AcDbEntity
  8
0
100
AcDbLine
 10
39.4396
 20
101.3072999999999
 30
0.0
 11
40.09759999999999
 21
101.2283
 31
0.0
  0
LINE
  5
21B
330
1E
100
AcDbEntity
  8
0
100
AcDbLine
 10
39.2
 20
126.2213
 30
0.0
 11
39.9299
 21
126.0272999999999
 31
0.0
  0
LINE
  5
21C
330
1E
100
AcDbEntity
  8
0
100
AcDbLine
 10
39.9299
 20
101.0723
 30
0.0
 11
40.3112
 21
101.1303
 31
0.0
  0
LINE
  5
21D
330
1E
100
AcDbEntity
  8
0
100
AcDbLine
 10
40.09759999999999
 20
101.2283
 30
0.0
 11
40.3112
 21
101.1303
 31
0.0
  0
LINE
  5
21F
330
1E
100
AcDbEntity
  8
0
100
AcDbLine
 10
39.9148
 20
116.8833
 30
0.0
 11
40.1221
 21
117.3443
 31
0.0
  0
LINE
  5
220
330
1E
100
AcDbEntity
  8
0
100
AcDbLine
 10
39.9148
 20
116.8833
 30
0.0
 11
40.3024
 21
116.4622999999999
 31
0.0
  0
LINE
  5
221
330
1E
100
AcDbEntity
  8
0
100
AcDbLine
 10
40.3308825989591
 20
101.5068696850029
 30
0.0
 11
42.5
 21
101.3583
 31
0.0
  0
LINE
  5
222
330
1E
100
AcDbEntity
  8
0
100
AcDbLine
 10
40.3112
 20
101.1303
 30
0.0
 11
40.3308825989591
 21
101.5068696850029
 31
0.0
  0
LINE
  5
223
330
1E
100
AcDbEntity
  8
0
100
AcDbLine
 10
44.6888
 20
101.1303
 30
0.0
 11
44.9024
 21
101.2283
 31
0.0
  0
LINE
  5
224
330
1E
100
AcDbEntity
  8
0
100
AcDbLine
 10
44.6888
 20
101.1303
 30
0.0
 11
45.0701
 21
101.0723
 31
0.0
  0
LINE
  5
225
330
1E
100
AcDbEntity
  8
0
100
AcDbLine
 10
45.0701
 20
101.0723
 30
0.0
 11
45.8
 21
101.0853
 31
0.0
  0
LINE
  5
226
330
1E
100
AcDbEntity
  8
0
100
AcDbLine
 10
44.9024
 20
101.2283
 30
0.0
 11
45.5604
 21
101.3072999999999
 31
0.0
  0
LINE
  5
227
330
1E
100
AcDbEntity
  8
0
100
AcDbLine
 10
42.5
 20
101.3583
 30
0.0
 11
44.6691174010409
 21
101.5068696850029
 31
0.0
  0
LINE
  5
228
330
1E
100
AcDbEntity
  8
0
100
AcDbLine
 10
45.5604
 20
101.3072999999999
 30
0.0
 11
46.29039999999999
 21
101.3193
 31
0.0
  0
LINE
  5
229
330
1E
100
AcDbEntity
  8
0
100
AcDbLine
 10
49.3928
 20
100.9923
 30
0.0
 11
49.5303
 21
100.9873
 31
0.0
  0
LINE
  5
22A
330
1E
100
AcDbEntity
  8
0
100
AcDbLine
 10
49.5303
 20
100.9873
 30
0.0
 11
50.1411
 21
101.0583
 31
0.0
  0
LINE
  5
22B
330
1E
100
AcDbEntity
  8
0
100
AcDbLine
 10
50.1411
 20
101.0583
 30
0.0
 11
50.8826
 21
101.1683
 31
0.0
  0
LINE
  5
22C
330
1E
100
AcDbEntity
  8
0
100
AcDbLine
 10
50.8826
 20
101.1683
 30
0.0
 11
51.3247
 21
101.2512999999999
 31
0.0
  0
LINE
  5
22D
330
1E
100
AcDbEntity
  8
0
100
AcDbLine
 10
46.29039999999999
 20
101.3193
 30
0.0
 11
46.6717
 21
101.2612999999999
 31
0.0
  0
LINE
  5
22E
330
1E
100
AcDbEntity
  8
0
100
AcDbLine
 10
46.45809999999999
 20
101.1643
 30
0.0
 11
46.6717
 21
101.2612999999999
 31
0.0
  0
LINE
  5
22F
330
1E
100
AcDbEntity
  8
0
100
AcDbLine
 10
45.8
 20
101.0853
 30
0.0
 11
46.45809999999999
 21
101.1643
 31
0.0
  0
LINE
  5
233
330
1E
100
AcDbEntity
  8
0
100
AcDbLine
 10
43.4898
 20
104.4842999999999
 30
0.0
 11
44.2225
 21
104.4252999999999
 31
0.0
  0
LINE
  5
234
330
1E
100
AcDbEntity
  8
0
100
AcDbLine
 10
43.10229999999999
 20
104.7082999999999
 30
0.0
 11
43.3096
 21
104.9703
 31
0.0
  0
LINE
  5
235
330
1E
100
AcDbEntity
  8
0
100
AcDbLine
 10
43.10229999999999
 20
104.7082999999999
 30
0.0
 11
43.4898
 21
104.4842999999999
 31
0.0
  0
LINE
  5
238
330
1E
100
AcDbEntity
  8
0
100
AcDbLine
 10
43.3096
 20
104.9703
 30
0.0
 11
43.9649
 21
105.1203
 31
0.0
  0
LINE
  5
239
330
1E
100
AcDbEntity
  8
0
100
AcDbLine
 10
46.65175660787109
 20
101.64266689095
 30
0.0
 11
49.8
 21
101.8583
 31
0.0
  0
LINE
  5
23A
330
1E
100
AcDbEntity
  8
0
100
AcDbLine
 10
49.2752330503159
 20
101.822357058241
 30
0.0
 11
49.3928
 21
100.9923
 31
0.0
  0
LINE
  5
23B
330
1E
100
AcDbEntity
  8
0
100
AcDbLine
 10
49.8
 20
101.8583
 30
0.0
 11
50.8797438385289
 21
102.077378459991
 31
0.0
  0
LINE
  5
23E
330
1E
100
AcDbEntity
  8
0
100
AcDbLine
 10
51.2427458385045
 20
101.829920355332
 30
0.0
 11
51.3247
 21
101.2512999999999
 31
0.0
  0
LINE
  5
23F
330
1E
100
AcDbEntity
  8
0
100
AcDbLine
 10
51.4413
 20
101.8302999999999
 30
0.0
 11
52.19339999999999
 21
101.9403
 31
0.0
  0
LINE
  5
240
330
1E
100
AcDbEntity
  8
0
100
AcDbLine
 10
50.9183
 20
101.8293
 30
0.0
 11
50.9496
 21
101.9422999999999
 31
0.0
  0
LINE
  5
241
330
1E
100
AcDbEntity
  8
0
100
AcDbLine
 10
50.9183
 20
101.8293
 30
0.0
 11
51.4413
 21
101.8302999999999
 31
0.0
  0
LINE
  5
242
330
1E
100
AcDbEntity
  8
0
100
AcDbLine
 10
44.6428637442782
 20
102.0091575829519
 30
0.0
 11
44.6888
 21
101.1303
 31
0.0
  0
LINE
  5
247
330
1E
100
AcDbEntity
  8
0
100
AcDbLine
 10
46.6256784717592
 20
102.1413452314509
 30
0.0
 11
46.6717
 21
101.2612999999999
 31
0.0
  0
LINE
  5
248
330
1E
100
AcDbEntity
  8
0
100
AcDbLine
 10
50.9496
 20
101.9422999999999
 30
0.0
 11
51.49090000000001
 21
102.1003
 31
0.0
  0
LINE
  5
249
330
1E
100
AcDbEntity
  8
0
100
AcDbLine
 10
51.49090000000001
 20
102.1003
 30
0.0
 11
52.243
 21
102.2102999999999
 31
0.0
  0
LINE
  5
24A
330
1E
100
AcDbEntity
  8
0
100
AcDbLine
 10
46.7438
 20
102.6043
 30
0.0
 11
47.4953
 21
102.6162999999999
 31
0.0
  0
LINE
  5
24B
330
1E
100
AcDbEntity
  8
0
100
AcDbLine
 10
46.2781
 20
102.7482999999999
 30
0.0
 11
46.39199999999999
 21
102.9692999999999
 31
0.0
  0
LINE
  5
24C
330
1E
100
AcDbEntity
  8
0
100
AcDbLine
 10
46.2781
 20
102.7482999999999
 30
0.0
 11
46.7438
 21
102.6043
 31
0.0
  0
LINE
  5
24D
330
1E
100
AcDbEntity
  8
0
100
AcDbLine
 10
48.0961
 20
102.7853
 30
0.0
 11
48.21
 21
103.0073
 31
0.0
  0
LINE
  5
24E
330
1E
100
AcDbEntity
  8
0
100
AcDbLine
 10
47.4953
 20
102.6162999999999
 30
0.0
 11
48.0961
 21
102.7853
 31
0.0
  0
LINE
  5
24F
330
1E
100
AcDbEntity
  8
0
100
AcDbLine
 10
50.8070056291112
 20
102.545391412692
 30
0.0
 11
50.9183
 21
101.8293
 31
0.0
  0
LINE
  5
250
330
1E
100
AcDbEntity
  8
0
100
AcDbLine
 10
46.39199999999999
 20
102.9692999999999
 30
0.0
 11
46.9928
 21
103.1382999999999
 31
0.0
  0
LINE
  5
255
330
1E
100
AcDbEntity
  8
0
100
AcDbLine
 10
44.87789999999999
 20
104.5752999999999
 30
0.0
 11
45.08519999999999
 21
104.8383
 31
0.0
  0
LINE
  5
256
330
1E
100
AcDbEntity
  8
0
100
AcDbLine
 10
44.2225
 20
104.4252999999999
 30
0.0
 11
44.87789999999999
 21
104.5752999999999
 31
0.0
  0
LINE
  5
259
330
1E
100
AcDbEntity
  8
0
100
AcDbLine
 10
46.9928
 20
103.1382999999999
 30
0.0
 11
47.7443
 21
103.1513
 31
0.0
  0
LINE
  5
25B
330
1E
100
AcDbEntity
  8
0
100
AcDbLine
 10
47.7443
 20
103.1513
 30
0.0
 11
48.21
 21
103.0073
 31
0.0
  0
LINE
  5
25D
330
1E
100
AcDbEntity
  8
0
100
AcDbLine
 10
52.7285447541633
 20
102.452497486352
 30
0.0
 11
56.7
 21
103.2583
 31
0.0
  0
LINE
  5
25E
330
1E
100
AcDbEntity
  8
0
100
AcDbLine
 10
52.6139926370562
 20
103.1901693954619
 30
0.0
 11
52.76600000000001
 21
102.2113
 31
0.0
  0
LINE
  5
25F
330
1E
100
AcDbEntity
  8
0
100
AcDbLine
 10
52.243
 20
102.2102999999999
 30
0.0
 11
52.76600000000001
 21
102.2113
 31
0.0
  0
LINE
  5
260
330
1E
100
AcDbEntity
  8
0
100
AcDbLine
 10
52.73469999999999
 20
102.0982999999999
 30
0.0
 11
52.76600000000001
 21
102.2113
 31
0.0
  0
LINE
  5
261
330
1E
100
AcDbEntity
  8
0
100
AcDbLine
 10
52.19339999999999
 20
101.9403
 30
0.0
 11
52.73469999999999
 21
102.0982999999999
 31
0.0
  0
LINE
  5
262
330
1E
100
AcDbEntity
  8
0
100
AcDbLine
 10
56.8251
 20
102.3893
 30
0.0
 11
57.3791
 21
102.5373
 31
0.0
  0
LINE
  5
264
330
1E
100
AcDbEntity
  8
0
100
AcDbLine
 10
57.3791
 20
102.5373
 30
0.0
 11
58.1114
 21
102.7433
 31
0.0
  0
LINE
  5
266
330
1E
100
AcDbEntity
  8
0
100
AcDbLine
 10
56.7
 20
103.2583
 30
0.0
 11
57.0419681696628
 21
103.3475781185799
 31
0.0
  0
LINE
  5
267
330
1E
100
AcDbEntity
  8
0
100
AcDbLine
 10
56.5547655575387
 20
103.228832142109
 30
0.0
 11
56.79059999999999
 21
102.3903
 31
0.0
  0
LINE
  5
269
330
1E
100
AcDbEntity
  8
0
100
AcDbLine
 10
58.1114
 20
102.7433
 30
0.0
 11
58.5916
 21
102.8872999999999
 31
0.0
  0
LINE
  5
26C
330
1E
100
AcDbEntity
  8
0
100
AcDbLine
 10
57.2031
 20
103.3862999999999
 30
0.0
 11
57.92609999999999
 21
103.5932999999999
 31
0.0
  0
LINE
  5
26D
330
1E
100
AcDbEntity
  8
0
100
AcDbLine
 10
56.57399999999999
 20
103.3093
 30
0.0
 11
57.2031
 21
103.3862999999999
 31
0.0
  0
LINE
  5
26E
330
1E
100
AcDbEntity
  8
0
100
AcDbLine
 10
56.42100000000001
 20
103.4153
 30
0.0
 11
56.8087
 21
103.6343
 31
0.0
  0
LINE
  5
26F
330
1E
100
AcDbEntity
  8
0
100
AcDbLine
 10
56.42100000000001
 20
103.4153
 30
0.0
 11
56.57399999999999
 21
103.3093
 31
0.0
  0
LINE
  5
270
330
1E
100
AcDbEntity
  8
0
100
AcDbLine
 10
56.8087
 20
103.6343
 30
0.0
 11
57.5317
 21
103.8413
 31
0.0
  0
LINE
  5
276
330
1E
100
AcDbEntity
  8
0
100
AcDbLine
 10
57.5317
 20
103.8413
 30
0.0
 11
58.16069999999999
 21
103.9182999999999
 31
0.0
  0
LINE
  5
277
330
1E
100
AcDbEntity
  8
0
100
AcDbLine
 10
58.36496474623849
 20
103.692974724822
 30
0.0
 11
59.5
 21
103.9892999999999
 31
0.0
  0
LINE
  5
279
330
1E
100
AcDbEntity
  8
0
100
AcDbLine
 10
59.5
 20
103.9892999999999
 30
0.0
 11
62.8540281523986
 21
105.259039229122
 31
0.0
  0
LINE
  5
27A
330
1E
100
AcDbEntity
  8
0
100
AcDbLine
 10
63.09000000000001
 20
104.6923
 30
0.0
 11
63.29399999999999
 21
104.7063
 31
0.0
  0
LINE
  5
27B
330
1E
100
AcDbEntity
  8
0
100
AcDbLine
 10
63.09000000000001
 20
104.6923
 30
0.0
 11
63.4067
 21
104.8883
 31
0.0
  0
LINE
  5
27C
330
1E
100
AcDbEntity
  8
0
100
AcDbLine
 10
63.4067
 20
104.8883
 30
0.0
 11
64.08
 21
105.1873
 31
0.0
  0
LINE
  5
27D
330
1E
100
AcDbEntity
  8
0
100
AcDbLine
 10
63.29399999999999
 20
104.7063
 30
0.0
 11
63.9223
 21
104.9323
 31
0.0
  0
LINE
  5
27E
330
1E
100
AcDbEntity
  8
0
100
AcDbLine
 10
58.32913390953529
 20
103.8203511987899
 30
0.0
 11
58.5916
 21
102.8872999999999
 31
0.0
  0
LINE
  5
27F
330
1E
100
AcDbEntity
  8
0
100
AcDbLine
 10
58.16069999999999
 20
103.9182999999999
 30
0.0
 11
58.3138
 21
103.8132999999999
 31
0.0
  0
LINE
  5
280
330
1E
100
AcDbEntity
  8
0
100
AcDbLine
 10
57.92609999999999
 20
103.5932999999999
 30
0.0
 11
58.3138
 21
103.8132999999999
 31
0.0
  0
LINE
  5
281
330
1E
100
AcDbEntity
  8
0
100
AcDbLine
 10
54.7845
 20
104.9053
 30
0.0
 11
55.4771
 21
104.9163
 31
0.0
  0
LINE
  5
284
330
1E
100
AcDbEntity
  8
0
100
AcDbLine
 10
43.9649
 20
105.1203
 30
0.0
 11
44.69759999999999
 21
105.0622999999999
 31
0.0
  0
LINE
  5
285
330
1E
100
AcDbEntity
  8
0
100
AcDbLine
 10
44.69759999999999
 20
105.0622999999999
 30
0.0
 11
45.08519999999999
 21
104.8383
 31
0.0
  0
LINE
  5
286
330
1E
100
AcDbEntity
  8
0
100
AcDbLine
 10
49.8331
 20
105.5992999999999
 30
0.0
 11
50.5686
 21
105.7373
 31
0.0
  0
LINE
  5
288
330
1E
100
AcDbEntity
  8
0
100
AcDbLine
 10
49.1747
 20
105.6833
 30
0.0
 11
49.8331
 21
105.5992999999999
 31
0.0
  0
LINE
  5
289
330
1E
100
AcDbEntity
  8
0
100
AcDbLine
 10
50.5686
 20
105.7373
 30
0.0
 11
50.94380000000001
 21
106.0253
 31
0.0
  0
LINE
  5
28A
330
1E
100
AcDbEntity
  8
0
100
AcDbLine
 10
46.2797
 20
116.2513
 30
0.0
 11
46.8132
 21
115.9383
 31
0.0
  0
LINE
  5
28B
330
1E
100
AcDbEntity
  8
0
100
AcDbLine
 10
46.8132
 20
115.9383
 30
0.0
 11
47.57319999999999
 21
115.9833
 31
0.0
  0
LINE
  5
28C
330
1E
100
AcDbEntity
  8
0
100
AcDbLine
 10
48.9923
 20
105.9493
 30
0.0
 11
49.36749999999999
 21
106.2373
 31
0.0
  0
LINE
  5
28D
330
1E
100
AcDbEntity
  8
0
100
AcDbLine
 10
48.9923
 20
105.9493
 30
0.0
 11
49.1747
 21
105.6833
 31
0.0
  0
LINE
  5
28E
330
1E
100
AcDbEntity
  8
0
100
AcDbLine
 10
49.36749999999999
 20
106.2373
 30
0.0
 11
50.103
 21
106.3752999999999
 31
0.0
  0
LINE
  5
293
330
1E
100
AcDbEntity
  8
0
100
AcDbLine
 10
50.103
 20
106.3752999999999
 30
0.0
 11
50.7614
 21
106.2912999999999
 31
0.0
  0
LINE
  5
295
330
1E
100
AcDbEntity
  8
0
100
AcDbLine
 10
50.7614
 20
106.2912999999999
 30
0.0
 11
50.94380000000001
 21
106.0253
 31
0.0
  0
LINE
  5
298
330
1E
100
AcDbEntity
  8
0
100
AcDbLine
 10
52.9369
 20
108.5633
 30
0.0
 11
52.9425
 21
108.2253
 31
0.0
  0
LINE
  5
299
330
1E
100
AcDbEntity
  8
0
100
AcDbLine
 10
52.9369
 20
108.5633
 30
0.0
 11
53.4782
 21
108.8722999999999
 31
0.0
  0
LINE
  5
29B
330
1E
100
AcDbEntity
  8
0
100
AcDbLine
 10
53.4782
 20
108.8722999999999
 30
0.0
 11
54.231
 21
108.9773
 31
0.0
  0
LINE
  5
29C
330
1E
100
AcDbEntity
  8
0
100
AcDbLine
 10
52.9425
 20
108.2253
 30
0.0
 11
53.46569999999999
 21
108.0532999999999
 31
0.0
  0
LINE
  5
29D
330
1E
100
AcDbEntity
  8
0
100
AcDbLine
 10
53.46569999999999
 20
108.0532999999999
 30
0.0
 11
54.2185
 21
108.1593
 31
0.0
  0
LINE
  5
29F
330
1E
100
AcDbEntity
  8
0
100
AcDbLine
 10
54.231
 20
108.9773
 30
0.0
 11
54.7543
 21
108.8063
 31
0.0
  0
LINE
  5
2A0
330
1E
100
AcDbEntity
  8
0
100
AcDbLine
 10
54.2185
 20
108.1593
 30
0.0
 11
54.75979999999999
 21
108.4683
 31
0.0
  0
LINE
  5
2A1
330
1E
100
AcDbEntity
  8
0
100
AcDbLine
 10
54.0824
 20
111.1663
 30
0.0
 11
54.8062
 21
111.1623
 31
0.0
  0
LINE
  5
2A2
330
1E
100
AcDbEntity
  8
0
100
AcDbLine
 10
53.6976
 20
111.4522999999999
 30
0.0
 11
53.8997
 21
111.8603
 31
0.0
  0
LINE
  5
2A3
330
1E
100
AcDbEntity
  8
0
100
AcDbLine
 10
53.6976
 20
111.4522999999999
 30
0.0
 11
54.0824
 21
111.1663
 31
0.0
  0
LINE
  5
2A5
330
1E
100
AcDbEntity
  8
0
100
AcDbLine
 10
52.1259
 20
114.0083
 30
0.0
 11
52.8564
 21
114.1982999999999
 31
0.0
  0
LINE
  5
2A6
330
1E
100
AcDbEntity
  8
0
100
AcDbLine
 10
51.4649
 20
114.1533
 30
0.0
 11
52.1259
 21
114.0083
 31
0.0
  0
LINE
  5
2A7
330
1E
100
AcDbEntity
  8
0
100
AcDbLine
 10
51.2736
 20
114.5632999999999
 30
0.0
 11
51.6389
 21
114.9912999999999
 31
0.0
  0
LINE
  5
2A8
330
1E
100
AcDbEntity
  8
0
100
AcDbLine
 10
51.2736
 20
114.5632999999999
 30
0.0
 11
51.4649
 21
114.1533
 31
0.0
  0
LINE
  5
2AB
330
1E
100
AcDbEntity
  8
0
100
AcDbLine
 10
51.6389
 20
114.9912999999999
 30
0.0
 11
52.3694
 21
115.1823
 31
0.0
  0
LINE
  5
2AD
330
1E
100
AcDbEntity
  8
0
100
AcDbLine
 10
53.03029999999999
 20
115.0363
 30
0.0
 11
53.2216
 21
114.6263
 31
0.0
  0
LINE
  5
2AE
330
1E
100
AcDbEntity
  8
0
100
AcDbLine
 10
52.8564
 20
114.1982999999999
 30
0.0
 11
53.2216
 21
114.6263
 31
0.0
  0
LINE
  5
2AF
330
1E
100
AcDbEntity
  8
0
100
AcDbLine
 10
52.3694
 20
115.1823
 30
0.0
 11
53.03029999999999
 21
115.0363
 31
0.0
  0
LINE
  5
2B2
330
1E
100
AcDbEntity
  8
0
100
AcDbLine
 10
53.8997
 20
111.8603
 30
0.0
 11
54.5452
 21
112.1533
 31
0.0
  0
LINE
  5
2B3
330
1E
100
AcDbEntity
  8
0
100
AcDbLine
 10
47.57319999999999
 20
115.9833
 30
0.0
 11
48.1146
 21
116.3443
 31
0.0
  0
LINE
  5
2B5
330
1E
100
AcDbEntity
  8
0
100
AcDbLine
 10
64.5956
 20
105.2313
 30
0.0
 11
64.9123
 21
105.4273
 31
0.0
  0
LINE
  5
2B6
330
1E
100
AcDbEntity
  8
0
100
AcDbLine
 10
64.08
 20
105.1873
 30
0.0
 11
64.70829999999999
 21
105.4132999999999
 31
0.0
  0
LINE
  5
2B7
330
1E
100
AcDbEntity
  8
0
100
AcDbLine
 10
63.9223
 20
104.9323
 30
0.0
 11
64.5956
 21
105.2313
 31
0.0
  0
LINE
  5
2B8
330
1E
100
AcDbEntity
  8
0
100
AcDbLine
 10
56.1781
 20
105.1233
 30
0.0
 11
56.4671
 21
105.4113
 31
0.0
  0
LINE
  5
2BB
330
1E
100
AcDbEntity
  8
0
100
AcDbLine
 10
54.7543
 20
108.8063
 30
0.0
 11
54.75979999999999
 21
108.4683
 31
0.0
  0
LINE
  5
2BC
330
1E
100
AcDbEntity
  8
0
100
AcDbLine
 10
54.8062
 20
111.1623
 30
0.0
 11
55.4518
 21
111.4552999999999
 31
0.0
  0
LINE
  5
2BE
330
1E
100
AcDbEntity
  8
0
100
AcDbLine
 10
54.5452
 20
112.1533
 30
0.0
 11
55.269
 21
112.1493
 31
0.0
  0
LINE
  5
2C0
330
1E
100
AcDbEntity
  8
0
100
AcDbLine
 10
55.4518
 20
111.4552999999999
 30
0.0
 11
55.6539
 21
111.8632999999999
 31
0.0
  0
LINE
  5
2C1
330
1E
100
AcDbEntity
  8
0
100
AcDbLine
 10
55.269
 20
112.1493
 30
0.0
 11
55.6539
 21
111.8632999999999
 31
0.0
  0
LINE
  5
2C3
330
1E
100
AcDbEntity
  8
0
100
AcDbLine
 10
60.9548
 20
105.5522999999999
 30
0.0
 11
61.2819
 21
105.4792999999999
 31
0.0
  0
LINE
  5
2C4
330
1E
100
AcDbEntity
  8
0
100
AcDbLine
 10
60.9548
 20
105.5522999999999
 30
0.0
 11
61.1625
 21
105.8113
 31
0.0
  0
LINE
  5
2C5
330
1E
100
AcDbEntity
  8
0
100
AcDbLine
 10
62.7160343136148
 20
105.590462331543
 30
0.0
 11
63.09000000000001
 21
104.6923
 31
0.0
  0
LINE
  5
2C6
330
1E
100
AcDbEntity
  8
0
100
AcDbLine
 10
64.70829999999999
 20
105.4132999999999
 30
0.0
 11
64.9123
 21
105.4273
 31
0.0
  0
LINE
  5
2C7
330
1E
100
AcDbEntity
  8
0
100
AcDbLine
 10
61.2819
 20
105.4792999999999
 30
0.0
 11
61.97420000000001
 21
105.6432999999999
 31
0.0
  0
LINE
  5
2C8
330
1E
100
AcDbEntity
  8
0
100
AcDbLine
 10
61.1625
 20
105.8113
 30
0.0
 11
61.8071
 21
106.1082999999999
 31
0.0
  0
LINE
  5
2CA
330
1E
100
AcDbEntity
  8
0
100
AcDbLine
 10
64.69253519406649
 20
105.955045466325
 30
0.0
 11
66.5
 21
106.6393
 31
0.0
  0
LINE
  5
2CB
330
1E
100
AcDbEntity
  8
0
100
AcDbLine
 10
62.6187
 20
105.9402999999999
 30
0.0
 11
62.8264
 21
106.1983
 31
0.0
  0
LINE
  5
2CC
330
1E
100
AcDbEntity
  8
0
100
AcDbLine
 10
61.97420000000001
 20
105.6432999999999
 30
0.0
 11
62.6187
 21
105.9402999999999
 31
0.0
  0
LINE
  5
2CD
330
1E
100
AcDbEntity
  8
0
100
AcDbLine
 10
59.4028
 20
108.9803
 30
0.0
 11
59.9816
 21
108.8923
 31
0.0
  0
LINE
  5
2D1
330
1E
100
AcDbEntity
  8
0
100
AcDbLine
 10
64.62411771288291
 20
106.1193439096479
 30
0.0
 11
64.9123
 21
105.4273
 31
0.0
  0
LINE
  5
2D6
330
1E
100
AcDbEntity
  8
0
100
AcDbLine
 10
62.4994
 20
106.2723
 30
0.0
 11
62.8264
 21
106.1983
 31
0.0
  0
LINE
  5
2D7
330
1E
100
AcDbEntity
  8
0
100
AcDbLine
 10
61.8071
 20
106.1082999999999
 30
0.0
 11
62.4994
 21
106.2723
 31
0.0
  0
LINE
  5
2D8
330
1E
100
AcDbEntity
  8
0
100
AcDbLine
 10
64.21649999999999
 20
108.1973
 30
0.0
 11
64.6952
 21
108.1763
 31
0.0
  0
LINE
  5
2D9
330
1E
100
AcDbEntity
  8
0
100
AcDbLine
 10
64.21649999999999
 20
108.1973
 30
0.0
 11
64.23
 21
108.4702999999999
 31
0.0
  0
LINE
  5
2DA
330
1E
100
AcDbEntity
  8
0
100
AcDbLine
 10
66.5
 20
106.6393
 30
0.0
 11
68.1901893794568
 21
107.7554627977549
 31
0.0
  0
LINE
  5
2DB
330
1E
100
AcDbEntity
  8
0
100
AcDbLine
 10
68.102
 20
107.9493
 30
0.0
 11
68.6704
 21
108.3302999999999
 31
0.0
  0
LINE
  5
2DC
330
1E
100
AcDbEntity
  8
0
100
AcDbLine
 10
67.97039999999999
 20
107.7242999999999
 30
0.0
 11
68.3301
 21
107.7752999999999
 31
0.0
  0
LINE
  5
2DD
330
1E
100
AcDbEntity
  8
0
100
AcDbLine
 10
67.97039999999999
 20
107.7242999999999
 30
0.0
 11
68.102
 21
107.9493
 31
0.0
  0
LINE
  5
2DE
330
1E
100
AcDbEntity
  8
0
100
AcDbLine
 10
68.3301
 20
107.7752999999999
 30
0.0
 11
68.9897
 21
108.0862999999999
 31
0.0
  0
LINE
  5
2DF
330
1E
100
AcDbEntity
  8
0
100
AcDbLine
 10
68.6704
 20
108.3302999999999
 30
0.0
 11
69.3301
 21
108.6413
 31
0.0
  0
LINE
  5
2E0
330
1E
100
AcDbEntity
  8
0
100
AcDbLine
 10
68.9897
 20
108.0862999999999
 30
0.0
 11
69.5582
 21
108.4672999999999
 31
0.0
  0
LINE
  5
2E1
330
1E
100
AcDbEntity
  8
0
100
AcDbLine
 10
64.6952
 20
108.1763
 30
0.0
 11
65.4035
 21
108.4322999999999
 31
0.0
  0
LINE
  5
2E4
330
1E
100
AcDbEntity
  8
0
100
AcDbLine
 10
69.5582
 20
108.4672999999999
 30
0.0
 11
69.6897
 21
108.6923
 31
0.0
  0
LINE
  5
2E5
330
1E
100
AcDbEntity
  8
0
100
AcDbLine
 10
69.6683541414028
 20
108.7316093386619
 30
0.0
 11
71.79999999999999
 21
110.1393
 31
0.0
  0
LINE
  5
2E7
330
1E
100
AcDbEntity
  8
0
100
AcDbLine
 10
69.3301
 20
108.6413
 30
0.0
 11
69.6897
 21
108.6923
 31
0.0
  0
LINE
  5
2E8
330
1E
100
AcDbEntity
  8
0
100
AcDbLine
 10
65.92579999999999
 20
108.8063
 30
0.0
 11
65.9393
 21
109.0793
 31
0.0
  0
LINE
  5
2E9
330
1E
100
AcDbEntity
  8
0
100
AcDbLine
 10
64.7522
 20
108.8432999999999
 30
0.0
 11
65.4606
 21
109.1003
 31
0.0
  0
LINE
  5
2EA
330
1E
100
AcDbEntity
  8
0
100
AcDbLine
 10
64.23
 20
108.4702999999999
 30
0.0
 11
64.7522
 21
108.8432999999999
 31
0.0
  0
LINE
  5
2EB
330
1E
100
AcDbEntity
  8
0
100
AcDbLine
 10
65.4035
 20
108.4322999999999
 30
0.0
 11
65.92579999999999
 21
108.8063
 31
0.0
  0
LINE
  5
2EC
330
1E
100
AcDbEntity
  8
0
100
AcDbLine
 10
59.9816
 20
108.8923
 30
0.0
 11
60.7156
 21
109.0953
 31
0.0
  0
LINE
  5
2F3
330
1E
100
AcDbEntity
  8
0
100
AcDbLine
 10
65.4606
 20
109.1003
 30
0.0
 11
65.9393
 21
109.0793
 31
0.0
  0
LINE
  5
2F9
330
1E
100
AcDbEntity
  8
0
100
AcDbLine
 10
65.9982
 20
111.1733
 30
0.0
 11
66.59600000000001
 21
111.2233
 31
0.0
  0
LINE
  5
2FA
330
1E
100
AcDbEntity
  8
0
100
AcDbLine
 10
66.59600000000001
 20
111.2233
 30
0.0
 11
67.27199999999999
 21
111.5712999999999
 31
0.0
  0
LINE
  5
2FC
330
1E
100
AcDbEntity
  8
0
100
AcDbLine
 10
61.0779
 20
109.7712999999999
 30
0.0
 11
61.1781
 21
109.4582999999999
 31
0.0
  0
LINE
  5
2FD
330
1E
100
AcDbEntity
  8
0
100
AcDbLine
 10
60.4992
 20
109.8583
 30
0.0
 11
61.0779
 21
109.7712999999999
 31
0.0
  0
LINE
  5
2FE
330
1E
100
AcDbEntity
  8
0
100
AcDbLine
 10
59.7652
 20
109.6562999999999
 30
0.0
 11
60.4992
 21
109.8583
 31
0.0
  0
LINE
  5
2FF
330
1E
100
AcDbEntity
  8
0
100
AcDbLine
 10
59.3027
 20
109.2933
 30
0.0
 11
59.4028
 21
108.9803
 31
0.0
  0
LINE
  5
300
330
1E
100
AcDbEntity
  8
0
100
AcDbLine
 10
59.3027
 20
109.2933
 30
0.0
 11
59.7652
 21
109.6562999999999
 31
0.0
  0
LINE
  5
301
330
1E
100
AcDbEntity
  8
0
100
AcDbLine
 10
60.7156
 20
109.0953
 30
0.0
 11
61.1781
 21
109.4582999999999
 31
0.0
  0
LINE
  5
302
330
1E
100
AcDbEntity
  8
0
100
AcDbLine
 10
71.79999999999999
 20
110.1393
 30
0.0
 11
74.1
 21
111.8413
 31
0.0
  0
LINE
  5
303
330
1E
100
AcDbEntity
  8
0
100
AcDbLine
 10
71.11499999999999
 20
111.2843
 30
0.0
 11
71.6058
 21
111.3912999999999
 31
0.0
  0
LINE
  5
305
330
1E
100
AcDbEntity
  8
0
100
AcDbLine
 10
66.18089999999999
 20
111.8673
 30
0.0
 11
66.857
 21
112.2152999999999
 31
0.0
  0
LINE
  5
306
330
1E
100
AcDbEntity
  8
0
100
AcDbLine
 10
65.81659999999999
 20
111.4352999999999
 30
0.0
 11
65.9982
 21
111.1733
 31
0.0
  0
LINE
  5
307
330
1E
100
AcDbEntity
  8
0
100
AcDbLine
 10
65.81659999999999
 20
111.4352999999999
 30
0.0
 11
66.18089999999999
 21
111.8673
 31
0.0
  0
LINE
  5
308
330
1E
100
AcDbEntity
  8
0
100
AcDbLine
 10
67.27199999999999
 20
111.5712999999999
 30
0.0
 11
67.63639999999999
 21
112.0033
 31
0.0
  0
LINE
  5
30B
330
1E
100
AcDbEntity
  8
0
100
AcDbLine
 10
59.3027
 20
113.7863
 30
0.0
 11
59.4028
 21
114.2243
 31
0.0
  0
LINE
  5
30C
330
1E
100
AcDbEntity
  8
0
100
AcDbLine
 10
59.3027
 20
113.7863
 30
0.0
 11
59.7652
 21
113.5483
 31
0.0
  0
LINE
  5
30D
330
1E
100
AcDbEntity
  8
0
100
AcDbLine
 10
60.4992
 20
113.6373
 30
0.0
 11
61.0779
 21
114.0152999999999
 31
0.0
  0
LINE
  5
30E
330
1E
100
AcDbEntity
  8
0
100
AcDbLine
 10
59.7652
 20
113.5483
 30
0.0
 11
60.4992
 21
113.6373
 31
0.0
  0
LINE
  5
30F
330
1E
100
AcDbEntity
  8
0
100
AcDbLine
 10
59.4028
 20
114.2243
 30
0.0
 11
59.9816
 21
114.6023
 31
0.0
  0
LINE
  5
310
330
1E
100
AcDbEntity
  8
0
100
AcDbLine
 10
59.9816
 20
114.6023
 30
0.0
 11
60.7156
 21
114.6913
 31
0.0
  0
LINE
  5
311
330
1E
100
AcDbEntity
  8
0
100
AcDbLine
 10
61.0779
 20
114.0152999999999
 30
0.0
 11
61.1781
 21
114.4533
 31
0.0
  0
LINE
  5
312
330
1E
100
AcDbEntity
  8
0
100
AcDbLine
 10
60.7156
 20
114.6913
 30
0.0
 11
61.1781
 21
114.4533
 31
0.0
  0
LINE
  5
318
330
1E
100
AcDbEntity
  8
0
100
AcDbLine
 10
66.18089999999999
 20
114.2692999999999
 30
0.0
 11
66.857
 21
114.4033
 31
0.0
  0
LINE
  5
319
330
1E
100
AcDbEntity
  8
0
100
AcDbLine
 10
65.81659999999999
 20
114.4953
 30
0.0
 11
65.9982
 21
114.9633
 31
0.0
  0
LINE
  5
31A
330
1E
100
AcDbEntity
  8
0
100
AcDbLine
 10
65.81659999999999
 20
114.4953
 30
0.0
 11
66.18089999999999
 21
114.2692999999999
 31
0.0
  0
LINE
  5
31B
330
1E
100
AcDbEntity
  8
0
100
AcDbLine
 10
65.9982
 20
114.9633
 30
0.0
 11
66.59600000000001
 21
115.3953
 31
0.0
  0
LINE
  5
31C
330
1E
100
AcDbEntity
  8
0
100
AcDbLine
 10
67.4548
 20
114.8352999999999
 30
0.0
 11
67.63639999999999
 21
115.3032999999999
 31
0.0
  0
LINE
  5
31D
330
1E
100
AcDbEntity
  8
0
100
AcDbLine
 10
66.857
 20
114.4033
 30
0.0
 11
67.4548
 21
114.8352999999999
 31
0.0
  0
LINE
  5
31E
330
1E
100
AcDbEntity
  8
0
100
AcDbLine
 10
66.59600000000001
 20
115.3953
 30
0.0
 11
67.27199999999999
 21
115.5293
 31
0.0
  0
LINE
  5
320
330
1E
100
AcDbEntity
  8
0
100
AcDbLine
 10
67.27199999999999
 20
115.5293
 30
0.0
 11
67.63639999999999
 21
115.3032999999999
 31
0.0
  0
LINE
  5
323
330
1E
100
AcDbEntity
  8
0
100
AcDbLine
 10
67.4548
 20
112.2652999999999
 30
0.0
 11
67.63639999999999
 21
112.0033
 31
0.0
  0
LINE
  5
324
330
1E
100
AcDbEntity
  8
0
100
AcDbLine
 10
66.857
 20
112.2152999999999
 30
0.0
 11
67.4548
 21
112.2652999999999
 31
0.0
  0
LINE
  5
329
330
1E
100
AcDbEntity
  8
0
100
AcDbLine
 10
72.05729999999999
 20
115.3302999999999
 30
0.0
 11
72.30949999999999
 21
115.8212999999999
 31
0.0
  0
LINE
  5
32A
330
1E
100
AcDbEntity
  8
0
100
AcDbLine
 10
72.05729999999999
 20
115.3302999999999
 30
0.0
 11
72.30949999999999
 21
115.1213
 31
0.0
  0
LINE
  5
32C
330
1E
100
AcDbEntity
  8
0
100
AcDbLine
 10
72.1235
 20
112.3572999999999
 30
0.0
 11
72.6143
 21
112.4643
 31
0.0
  0
LINE
  5
32D
330
1E
100
AcDbEntity
  8
0
100
AcDbLine
 10
71.4773
 20
111.9603
 30
0.0
 11
72.1235
 21
112.3572999999999
 31
0.0
  0
LINE
  5
32E
330
1E
100
AcDbEntity
  8
0
100
AcDbLine
 10
71.05249999999999
 20
111.5142999999999
 30
0.0
 11
71.11499999999999
 21
111.2843
 31
0.0
  0
LINE
  5
32F
330
1E
100
AcDbEntity
  8
0
100
AcDbLine
 10
71.05249999999999
 20
111.5142999999999
 30
0.0
 11
71.4773
 21
111.9603
 31
0.0
  0
LINE
  5
330
330
1E
100
AcDbEntity
  8
0
100
AcDbLine
 10
71.6058
 20
111.3912999999999
 30
0.0
 11
72.25190000000001
 21
111.7883
 31
0.0
  0
LINE
  5
331
330
1E
100
AcDbEntity
  8
0
100
AcDbLine
 10
74.1
 20
111.8413
 30
0.0
 11
77.7
 21
116.1912999999999
 31
0.0
  0
LINE
  5
332
330
1E
100
AcDbEntity
  8
0
100
AcDbLine
 10
73.356589147287
 20
111.291175968992
 30
0.0
 11
74.5
 21
112.0373
 31
0.0
  0
LINE
  5
333
330
1E
100
AcDbEntity
  8
0
100
AcDbLine
 10
74.5
 20
112.0373
 30
0.0
 11
78.2
 21
116.4873
 31
0.0
  0
LINE
  5
334
330
1E
100
AcDbEntity
  8
0
100
AcDbLine
 10
74.5
 20
112.0373
 30
0.0
 11
75.4
 21
112.6033
 31
0.0
  0
LINE
  5
335
330
1E
100
AcDbEntity
  8
0
100
AcDbLine
 10
72.30949999999999
 20
115.1213
 30
0.0
 11
72.89799999999999
 21
115.2993
 31
0.0
  0
LINE
  5
336
330
1E
100
AcDbEntity
  8
0
100
AcDbLine
 10
75.4
 20
112.6033
 30
0.0
 11
77.59999999999999
 21
115.1343
 31
0.0
  0
LINE
  5
337
330
1E
100
AcDbEntity
  8
0
100
AcDbLine
 10
77.59999999999999
 20
115.1343
 30
0.0
 11
81.5
 21
119.9343
 31
0.0
  0
LINE
  5
338
330
1E
100
AcDbEntity
  8
0
100
AcDbLine
 10
77.7
 20
116.1912999999999
 30
0.0
 11
79.1
 21
120.8913
 31
0.0
  0
LINE
  5
339
330
1E
100
AcDbEntity
  8
0
100
AcDbLine
 10
73.48659999999999
 20
115.7772999999999
 30
0.0
 11
73.73879999999999
 21
116.2682999999999
 31
0.0
  0
LINE
  5
33A
330
1E
100
AcDbEntity
  8
0
100
AcDbLine
 10
72.89799999999999
 20
115.2993
 30
0.0
 11
73.48659999999999
 21
115.7772999999999
 31
0.0
  0
LINE
  5
33B
330
1E
100
AcDbEntity
  8
0
100
AcDbLine
 10
72.30949999999999
 20
115.8212999999999
 30
0.0
 11
72.89799999999999
 21
116.2992999999999
 31
0.0
  0
LINE
  5
33C
330
1E
100
AcDbEntity
  8
0
100
AcDbLine
 10
72.89799999999999
 20
116.2992999999999
 30
0.0
 11
73.48659999999999
 21
116.4773
 31
0.0
  0
LINE
  5
33E
330
1E
100
AcDbEntity
  8
0
100
AcDbLine
 10
72.6143
 20
112.4643
 30
0.0
 11
72.67669999999999
 21
112.2343
 31
0.0
  0
LINE
  5
33F
330
1E
100
AcDbEntity
  8
0
100
AcDbLine
 10
72.25190000000001
 20
111.7883
 30
0.0
 11
72.67669999999999
 21
112.2343
 31
0.0
  0
LINE
  5
342
330
1E
100
AcDbEntity
  8
0
100
AcDbLine
 10
56.1987
 20
105.6123
 30
0.0
 11
56.4671
 21
105.4113
 31
0.0
  0
LINE
  5
343
330
1E
100
AcDbEntity
  8
0
100
AcDbLine
 10
55.5061
 20
105.6003
 30
0.0
 11
56.1987
 21
105.6123
 31
0.0
  0
LINE
  5
344
330
1E
100
AcDbEntity
  8
0
100
AcDbLine
 10
54.8052
 20
105.3943
 30
0.0
 11
55.5061
 21
105.6003
 31
0.0
  0
LINE
  5
345
330
1E
100
AcDbEntity
  8
0
100
AcDbLine
 10
54.5161
 20
105.1053
 30
0.0
 11
54.7845
 21
104.9053
 31
0.0
  0
LINE
  5
346
330
1E
100
AcDbEntity
  8
0
100
AcDbLine
 10
54.5161
 20
105.1053
 30
0.0
 11
54.8052
 21
105.3943
 31
0.0
  0
LINE
  5
347
330
1E
100
AcDbEntity
  8
0
100
AcDbLine
 10
55.4771
 20
104.9163
 30
0.0
 11
56.1781
 21
105.1233
 31
0.0
  0
LINE
  5
348
330
1E
100
AcDbEntity
  8
0
100
AcDbLine
 10
43.5092
 20
101.4274232876709
 30
0.0
 11
43.5092
 21
100.6053
 31
0.0
  0
LINE
  5
349
330
1E
100
AcDbEntity
  8
0
100
AcDbLine
 10
41.5092
 20
101.426163013699
 30
0.0
 11
41.5092
 21
100.6053
 31
0.0
  0
LINE
  5
34A
330
1E
100
AcDbEntity
  8
0
100
AcDbLine
 10
41.03509999999999
 20
116.3182999999999
 30
0.0
 11
41.69039999999999
 21
116.5532999999999
 31
0.0
  0
LINE
  5
34B
330
1E
100
AcDbEntity
  8
0
100
AcDbLine
 10
40.7775
 20
117.5793
 30
0.0
 11
41.51019999999999
 21
117.4363
 31
0.0
  0
LINE
  5
34C
330
1E
100
AcDbEntity
  8
0
100
AcDbLine
 10
41.51019999999999
 20
117.4363
 30
0.0
 11
41.8977
 21
117.0143
 31
0.0
  0
LINE
  5
34F
330
1E
100
AcDbEntity
  8
0
100
AcDbLine
 10
46.2668
 20
116.7262999999999
 30
0.0
 11
46.2797
 21
116.2513
 31
0.0
  0
LINE
  5
350
330
1E
100
AcDbEntity
  8
0
100
AcDbLine
 10
46.2668
 20
116.7262999999999
 30
0.0
 11
46.8083
 21
117.0873
 31
0.0
  0
LINE
  5
351
330
1E
100
AcDbEntity
  8
0
100
AcDbLine
 10
48.1017
 20
116.8193
 30
0.0
 11
48.1146
 21
116.3443
 31
0.0
  0
LINE
  5
356
330
1E
100
AcDbEntity
  8
0
100
AcDbLine
 10
78.2
 20
116.4873
 30
0.0
 11
79.5
 21
121.2373
 31
0.0
  0
LINE
  5
357
330
1E
100
AcDbEntity
  8
0
100
AcDbLine
 10
73.48659999999999
 20
116.4773
 30
0.0
 11
73.73879999999999
 21
116.2682999999999
 31
0.0
  0
LINE
  5
358
330
1E
100
AcDbEntity
  8
0
100
AcDbLine
 10
46.8083
 20
117.0873
 30
0.0
 11
47.56829999999999
 21
117.1323
 31
0.0
  0
LINE
  5
35B
330
1E
100
AcDbEntity
  8
0
100
AcDbLine
 10
47.56829999999999
 20
117.1323
 30
0.0
 11
48.1017
 21
116.8193
 31
0.0
  0
LINE
  5
35C
330
1E
100
AcDbEntity
  8
0
100
AcDbLine
 10
56.1987
 20
117.8833
 30
0.0
 11
56.4671
 21
118.3753
 31
0.0
  0
LINE
  5
35D
330
1E
100
AcDbEntity
  8
0
100
AcDbLine
 10
55.5061
 20
117.6042999999999
 30
0.0
 11
56.1987
 21
117.8833
 31
0.0
  0
LINE
  5
35E
330
1E
100
AcDbEntity
  8
0
100
AcDbLine
 10
54.8052
 20
117.6862999999999
 30
0.0
 11
55.5061
 21
117.6042999999999
 31
0.0
  0
LINE
  5
360
330
1E
100
AcDbEntity
  8
0
100
AcDbLine
 10
54.5161
 20
118.0992999999999
 30
0.0
 11
54.7845
 21
118.5902999999999
 31
0.0
  0
LINE
  5
361
330
1E
100
AcDbEntity
  8
0
100
AcDbLine
 10
54.5161
 20
118.0992999999999
 30
0.0
 11
54.8052
 21
117.6862999999999
 31
0.0
  0
LINE
  5
363
330
1E
100
AcDbEntity
  8
0
100
AcDbLine
 10
64.7522
 20
117.2933
 30
0.0
 11
65.4606
 21
117.5183
 31
0.0
  0
LINE
  5
364
330
1E
100
AcDbEntity
  8
0
100
AcDbLine
 10
64.23
 20
117.4603
 30
0.0
 11
64.7522
 21
117.2933
 31
0.0
  0
LINE
  5
365
330
1E
100
AcDbEntity
  8
0
100
AcDbLine
 10
64.21649999999999
 20
117.9402999999999
 30
0.0
 11
64.6952
 21
118.4422999999999
 31
0.0
  0
LINE
  5
366
330
1E
100
AcDbEntity
  8
0
100
AcDbLine
 10
64.21649999999999
 20
117.9402999999999
 30
0.0
 11
64.23
 21
117.4603
 31
0.0
  0
LINE
  5
369
330
1E
100
AcDbEntity
  8
0
100
AcDbLine
 10
54.7845
 20
118.5902999999999
 30
0.0
 11
55.4771
 21
118.8703
 31
0.0
  0
LINE
  5
36B
330
1E
100
AcDbEntity
  8
0
100
AcDbLine
 10
56.1781
 20
118.7883
 30
0.0
 11
56.4671
 21
118.3753
 31
0.0
  0
LINE
  5
36C
330
1E
100
AcDbEntity
  8
0
100
AcDbLine
 10
55.4771
 20
118.8703
 30
0.0
 11
56.1781
 21
118.7883
 31
0.0
  0
LINE
  5
36D
330
1E
100
AcDbEntity
  8
0
100
AcDbLine
 10
64.6952
 20
118.4422999999999
 30
0.0
 11
65.4035
 21
118.6673
 31
0.0
  0
LINE
  5
36E
330
1E
100
AcDbEntity
  8
0
100
AcDbLine
 10
65.92579999999999
 20
118.5003
 30
0.0
 11
65.9393
 21
118.0203
 31
0.0
  0
LINE
  5
36F
330
1E
100
AcDbEntity
  8
0
100
AcDbLine
 10
65.4606
 20
117.5183
 30
0.0
 11
65.9393
 21
118.0203
 31
0.0
  0
LINE
  5
370
330
1E
100
AcDbEntity
  8
0
100
AcDbLine
 10
65.4035
 20
118.6673
 30
0.0
 11
65.92579999999999
 21
118.5003
 31
0.0
  0
LINE
  5
376
330
1E
100
AcDbEntity
  8
0
100
AcDbLine
 10
46.9928
 20
119.9413
 30
0.0
 11
47.7443
 21
120.0532999999999
 31
0.0
  0
LINE
  5
377
330
1E
100
AcDbEntity
  8
0
100
AcDbLine
 10
61.8071
 20
120.0293
 30
0.0
 11
62.4994
 21
120.3462999999999
 31
0.0
  0
LINE
  5
378
330
1E
100
AcDbEntity
  8
0
100
AcDbLine
 10
61.1625
 20
120.1192999999999
 30
0.0
 11
61.8071
 21
120.0293
 31
0.0
  0
LINE
  5
379
330
1E
100
AcDbEntity
  8
0
100
AcDbLine
 10
47.7443
 20
120.0532999999999
 30
0.0
 11
48.21
 21
120.4882999999999
 31
0.0
  0
LINE
  5
37C
330
1E
100
AcDbEntity
  8
0
100
AcDbLine
 10
71.05249999999999
 20
119.1553
 30
0.0
 11
71.11499999999999
 21
119.6673
 31
0.0
  0
LINE
  5
37D
330
1E
100
AcDbEntity
  8
0
100
AcDbLine
 10
71.05249999999999
 20
119.1553
 30
0.0
 11
71.4773
 21
118.9903
 31
0.0
  0
LINE
  5
37E
330
1E
100
AcDbEntity
  8
0
100
AcDbLine
 10
72.1235
 20
119.2503
 30
0.0
 11
72.6143
 21
119.7993
 31
0.0
  0
LINE
  5
37F
330
1E
100
AcDbEntity
  8
0
100
AcDbLine
 10
71.4773
 20
118.9903
 30
0.0
 11
72.1235
 21
119.2503
 31
0.0
  0
LINE
  5
380
330
1E
100
AcDbEntity
  8
0
100
AcDbLine
 10
71.11499999999999
 20
119.6673
 30
0.0
 11
71.6058
 21
120.2163
 31
0.0
  0
LINE
  5
381
330
1E
100
AcDbEntity
  8
0
100
AcDbLine
 10
46.39199999999999
 20
120.2353
 30
0.0
 11
46.9928
 21
119.9413
 31
0.0
  0
LINE
  5
382
330
1E
100
AcDbEntity
  8
0
100
AcDbLine
 10
46.7438
 20
121.1823
 30
0.0
 11
47.4953
 21
121.2943
 31
0.0
  0
LINE
  5
383
330
1E
100
AcDbEntity
  8
0
100
AcDbLine
 10
46.2781
 20
120.7473
 30
0.0
 11
46.39199999999999
 21
120.2353
 31
0.0
  0
LINE
  5
384
330
1E
100
AcDbEntity
  8
0
100
AcDbLine
 10
46.2781
 20
120.7473
 30
0.0
 11
46.7438
 21
121.1823
 31
0.0
  0
LINE
  5
385
330
1E
100
AcDbEntity
  8
0
100
AcDbLine
 10
48.0961
 20
121.0013
 30
0.0
 11
48.21
 21
120.4882999999999
 31
0.0
  0
LINE
  5
38B
330
1E
100
AcDbEntity
  8
0
100
AcDbLine
 10
47.4953
 20
121.2943
 30
0.0
 11
48.0961
 21
121.0013
 31
0.0
  0
LINE
  5
38C
330
1E
100
AcDbEntity
  8
0
100
AcDbLine
 10
56.8087
 20
122.2963
 30
0.0
 11
57.5317
 21
122.2963
 31
0.0
  0
LINE
  5
38D
330
1E
100
AcDbEntity
  8
0
100
AcDbLine
 10
44.9024
 20
124.9093
 30
0.0
 11
45.5604
 21
124.6232999999999
 31
0.0
  0
LINE
  5
38E
330
1E
100
AcDbEntity
  8
0
100
AcDbLine
 10
45.5604
 20
124.6232999999999
 30
0.0
 11
46.29039999999999
 21
124.8172999999999
 31
0.0
  0
LINE
  5
38F
330
1E
100
AcDbEntity
  8
0
100
AcDbLine
 10
51.49090000000001
 20
123.8302999999999
 30
0.0
 11
52.243
 21
123.9263
 31
0.0
  0
LINE
  5
391
330
1E
100
AcDbEntity
  8
0
100
AcDbLine
 10
50.9183
 20
124.7892999999999
 30
0.0
 11
50.9496
 21
124.1943
 31
0.0
  0
LINE
  5
392
330
1E
100
AcDbEntity
  8
0
100
AcDbLine
 10
50.9183
 20
124.7892999999999
 30
0.0
 11
51.4413
 21
125.2693
 31
0.0
  0
LINE
  5
393
330
1E
100
AcDbEntity
  8
0
100
AcDbLine
 10
50.9496
 20
124.1943
 30
0.0
 11
51.49090000000001
 21
123.8302999999999
 31
0.0
  0
LINE
  5
394
330
1E
100
AcDbEntity
  8
0
100
AcDbLine
 10
52.243
 20
123.9263
 30
0.0
 11
52.76600000000001
 21
124.4072999999999
 31
0.0
  0
LINE
  5
395
330
1E
100
AcDbEntity
  8
0
100
AcDbLine
 10
46.29039999999999
 20
124.8172999999999
 30
0.0
 11
46.6717
 21
125.3573
 31
0.0
  0
LINE
  5
397
330
1E
100
AcDbEntity
  8
0
100
AcDbLine
 10
57.2031
 20
123.7133
 30
0.0
 11
57.92609999999999
 21
123.7122999999999
 31
0.0
  0
LINE
  5
398
330
1E
100
AcDbEntity
  8
0
100
AcDbLine
 10
56.57399999999999
 20
123.3092999999999
 30
0.0
 11
57.2031
 21
123.7133
 31
0.0
  0
LINE
  5
399
330
1E
100
AcDbEntity
  8
0
100
AcDbLine
 10
56.42100000000001
 20
122.7223
 30
0.0
 11
56.8087
 21
122.2963
 31
0.0
  0
LINE
  5
39A
330
1E
100
AcDbEntity
  8
0
100
AcDbLine
 10
56.42100000000001
 20
122.7223
 30
0.0
 11
56.57399999999999
 21
123.3092999999999
 31
0.0
  0
LINE
  5
39B
330
1E
100
AcDbEntity
  8
0
100
AcDbLine
 10
57.5317
 20
122.2963
 30
0.0
 11
58.16069999999999
 21
122.7003
 31
0.0
  0
LINE
  5
39C
330
1E
100
AcDbEntity
  8
0
100
AcDbLine
 10
60.92702972524261
 20
120.6230516749289
 30
0.0
 11
61.1625
 21
120.1192999999999
 31
0.0
  0
LINE
  5
39D
330
1E
100
AcDbEntity
  8
0
100
AcDbLine
 10
60.9548
 20
120.5842999999999
 30
0.0
 11
61.2819
 21
121.1393
 31
0.0
  0
LINE
  5
39E
330
1E
100
AcDbEntity
  8
0
100
AcDbLine
 10
60.9548
 20
120.5842999999999
 30
0.0
 11
61.1625
 21
120.1192999999999
 31
0.0
  0
LINE
  5
39F
330
1E
100
AcDbEntity
  8
0
100
AcDbLine
 10
61.2819
 20
121.1393
 30
0.0
 11
61.97420000000001
 21
121.4573
 31
0.0
  0
LINE
  5
3A0
330
1E
100
AcDbEntity
  8
0
100
AcDbLine
 10
68.6704
 20
122.6212999999999
 30
0.0
 11
69.3301
 21
122.9663
 31
0.0
  0
LINE
  5
3A1
330
1E
100
AcDbEntity
  8
0
100
AcDbLine
 10
62.6187
 20
121.3662999999999
 30
0.0
 11
62.8264
 21
120.9013
 31
0.0
  0
LINE
  5
3A2
330
1E
100
AcDbEntity
  8
0
100
AcDbLine
 10
62.4994
 20
120.3462999999999
 30
0.0
 11
62.8264
 21
120.9013
 31
0.0
  0
LINE
  5
3A3
330
1E
100
AcDbEntity
  8
0
100
AcDbLine
 10
61.97420000000001
 20
121.4573
 30
0.0
 11
62.6187
 21
121.3662999999999
 31
0.0
  0
LINE
  5
3A6
330
1E
100
AcDbEntity
  8
0
100
AcDbLine
 10
68.102
 20
122.7203
 30
0.0
 11
68.6704
 21
122.6212999999999
 31
0.0
  0
LINE
  5
3A7
330
1E
100
AcDbEntity
  8
0
100
AcDbLine
 10
67.97039999999999
 20
123.2272999999999
 30
0.0
 11
68.3301
 21
123.8323
 31
0.0
  0
LINE
  5
3A8
330
1E
100
AcDbEntity
  8
0
100
AcDbLine
 10
67.97039999999999
 20
123.2272999999999
 30
0.0
 11
68.102
 21
122.7203
 31
0.0
  0
LINE
  5
3AA
330
1E
100
AcDbEntity
  8
0
100
AcDbLine
 10
68.3301
 20
123.8323
 30
0.0
 11
68.9897
 21
124.1782999999999
 31
0.0
  0
LINE
  5
3AC
330
1E
100
AcDbEntity
  8
0
100
AcDbLine
 10
69.5582
 20
124.0782999999999
 30
0.0
 11
69.6897
 21
123.5713
 31
0.0
  0
LINE
  5
3AD
330
1E
100
AcDbEntity
  8
0
100
AcDbLine
 10
69.3301
 20
122.9663
 30
0.0
 11
69.6897
 21
123.5713
 31
0.0
  0
LINE
  5
3AE
330
1E
100
AcDbEntity
  8
0
100
AcDbLine
 10
68.9897
 20
124.1782999999999
 30
0.0
 11
69.5582
 21
124.0782999999999
 31
0.0
  0
LINE
  5
3AF
330
1E
100
AcDbEntity
  8
0
100
AcDbLine
 10
58.16069999999999
 20
122.7003
 30
0.0
 11
58.3138
 21
123.2873
 31
0.0
  0
LINE
  5
3B0
330
1E
100
AcDbEntity
  8
0
100
AcDbLine
 10
57.92609999999999
 20
123.7122999999999
 30
0.0
 11
58.3138
 21
123.2873
 31
0.0
  0
LINE
  5
3B3
330
1E
100
AcDbEntity
  8
0
100
AcDbLine
 10
71.6058
 20
120.2163
 30
0.0
 11
72.25190000000001
 21
120.4752999999999
 31
0.0
  0
LINE
  5
3B4
330
1E
100
AcDbEntity
  8
0
100
AcDbLine
 10
81.5
 20
119.9343
 30
0.0
 11
82.5
 21
121.9492999999999
 31
0.0
  0
LINE
  5
3B5
330
1E
100
AcDbEntity
  8
0
100
AcDbLine
 10
82.5
 20
121.9492999999999
 30
0.0
 11
84.0
 21
127.2993
 31
0.0
  0
LINE
  5
3B6
330
1E
100
AcDbEntity
  8
0
100
AcDbLine
 10
79.0
 20
121.2373
 30
0.0
 11
79.1
 21
120.8913
 31
0.0
  0
LINE
  5
3B8
330
1E
100
AcDbEntity
  8
0
100
AcDbLine
 10
72.6143
 20
119.7993
 30
0.0
 11
72.67669999999999
 21
120.3113
 31
0.0
  0
LINE
  5
3B9
330
1E
100
AcDbEntity
  8
0
100
AcDbLine
 10
72.25190000000001
 20
120.4752999999999
 30
0.0
 11
72.67669999999999
 21
120.3113
 31
0.0
  0
LINE
  5
3BB
330
1E
100
AcDbEntity
  8
0
100
AcDbLine
 10
41.69039999999999
 20
116.5532999999999
 30
0.0
 11
41.8977
 21
117.0143
 31
0.0
  0
LINE
  5
3BC
330
1E
100
AcDbEntity
  8
0
100
AcDbLine
 10
40.3024
 20
116.4622999999999
 30
0.0
 11
41.03509999999999
 21
116.3182999999999
 31
0.0
  0
LINE
  5
3BD
330
1E
100
AcDbEntity
  8
0
100
AcDbLine
 10
40.1221
 20
117.3443
 30
0.0
 11
40.7775
 21
117.5793
 31
0.0
  0
LINE
  5
3BE
330
1E
100
AcDbEntity
  8
0
100
AcDbLine
 10
45.0701
 20
126.0272999999999
 30
0.0
 11
45.8
 21
126.2213
 31
0.0
  0
LINE
  5
3BF
330
1E
100
AcDbEntity
  8
0
100
AcDbLine
 10
44.6888
 20
125.4873
 30
0.0
 11
44.9024
 21
124.9093
 31
0.0
  0
LINE
  5
3C0
330
1E
100
AcDbEntity
  8
0
100
AcDbLine
 10
44.6888
 20
125.4873
 30
0.0
 11
45.0701
 21
126.0272999999999
 31
0.0
  0
LINE
  5
3C1
330
1E
100
AcDbEntity
  8
0
100
AcDbLine
 10
51.4413
 20
125.2693
 30
0.0
 11
52.19339999999999
 21
125.3662999999999
 31
0.0
  0
LINE
  5
3C2
330
1E
100
AcDbEntity
  8
0
100
AcDbLine
 10
77.7
 20
125.5913
 30
0.0
 11
79.1
 21
120.8913
 31
0.0
  0
LINE
  5
3C3
330
1E
100
AcDbEntity
  8
0
100
AcDbLine
 10
64.08
 20
125.7643
 30
0.0
 11
64.70829999999999
 21
126.1943
 31
0.0
  0
LINE
  5
3C4
330
1E
100
AcDbEntity
  8
0
100
AcDbLine
 10
63.4067
 20
125.7813
 30
0.0
 11
64.08
 21
125.7643
 31
0.0
  0
LINE
  5
3C6
330
1E
100
AcDbEntity
  8
0
100
AcDbLine
 10
52.73469999999999
 20
125.0013
 30
0.0
 11
52.76600000000001
 21
124.4072999999999
 31
0.0
  0
LINE
  5
3C7
330
1E
100
AcDbEntity
  8
0
100
AcDbLine
 10
52.19339999999999
 20
125.3662999999999
 30
0.0
 11
52.73469999999999
 21
125.0013
 31
0.0
  0
LINE
  5
3C9
330
1E
100
AcDbEntity
  8
0
100
AcDbLine
 10
63.09000000000001
 20
126.2593
 30
0.0
 11
63.29399999999999
 21
126.9013
 31
0.0
  0
LINE
  5
3CA
330
1E
100
AcDbEntity
  8
0
100
AcDbLine
 10
63.09000000000001
 20
126.2593
 30
0.0
 11
63.4067
 21
125.7813
 31
0.0
  0
LINE
  5
3CB
330
1E
100
AcDbEntity
  8
0
100
AcDbLine
 10
77.8
 20
125.9372999999999
 30
0.0
 11
79.0
 21
121.2373
 31
0.0
  0
LINE
  5
3CC
330
1E
100
AcDbEntity
  8
0
100
AcDbLine
 10
78.2
 20
125.9873
 30
0.0
 11
79.5
 21
121.2373
 31
0.0
  0
LINE
  5
3CD
330
1E
100
AcDbEntity
  8
0
100
AcDbLine
 10
64.5956
 20
127.3143
 30
0.0
 11
64.9123
 21
126.8362999999999
 31
0.0
  0
LINE
  5
3CE
330
1E
100
AcDbEntity
  8
0
100
AcDbLine
 10
64.70829999999999
 20
126.1943
 30
0.0
 11
64.9123
 21
126.8362999999999
 31
0.0
  0
LINE
  5
3CF
330
1E
100
AcDbEntity
  8
0
100
AcDbLine
 10
63.29399999999999
 20
126.9013
 30
0.0
 11
63.9223
 21
127.3312999999999
 31
0.0
  0
LINE
  5
3D0
330
1E
100
AcDbEntity
  8
0
100
AcDbLine
 10
57.2707
 20
128.1363
 30
0.0
 11
58.003
 21
128.2113
 31
0.0
  0
LINE
  5
3D1
330
1E
100
AcDbEntity
  8
0
100
AcDbLine
 10
50.1411
 20
129.6113
 30
0.0
 11
50.8826
 21
129.7833
 31
0.0
  0
LINE
  5
3D2
330
1E
100
AcDbEntity
  8
0
100
AcDbLine
 10
50.8826
 20
129.7833
 30
0.0
 11
51.3247
 21
130.3563
 31
0.0
  0
LINE
  5
3D3
330
1E
100
AcDbEntity
  8
0
100
AcDbLine
 10
57.3791
 20
129.7273
 30
0.0
 11
58.1114
 21
129.8023
 31
0.0
  0
LINE
  5
3D4
330
1E
100
AcDbEntity
  8
0
100
AcDbLine
 10
56.8251
 20
129.2193
 30
0.0
 11
57.3791
 21
129.7273
 31
0.0
  0
LINE
  5
3D5
330
1E
100
AcDbEntity
  8
0
100
AcDbLine
 10
56.79059999999999
 20
128.5612999999999
 30
0.0
 11
57.2707
 21
128.1363
 31
0.0
  0
LINE
  5
3D6
330
1E
100
AcDbEntity
  8
0
100
AcDbLine
 10
56.79059999999999
 20
128.5612999999999
 30
0.0
 11
56.8251
 21
129.2193
 31
0.0
  0
LINE
  5
3D7
330
1E
100
AcDbEntity
  8
0
100
AcDbLine
 10
58.003
 20
128.2113
 30
0.0
 11
58.5571
 21
128.7193
 31
0.0
  0
LINE
  5
3D8
330
1E
100
AcDbEntity
  8
0
100
AcDbLine
 10
58.5571
 20
128.7193
 30
0.0
 11
58.5916
 21
129.3772999999999
 31
0.0
  0
LINE
  5
3D9
330
1E
100
AcDbEntity
  8
0
100
AcDbLine
 10
49.5303
 20
129.9643
 30
0.0
 11
50.1411
 21
129.6113
 31
0.0
  0
LINE
  5
3DB
330
1E
100
AcDbEntity
  8
0
100
AcDbLine
 10
58.1114
 20
129.8023
 30
0.0
 11
58.5916
 21
129.3772999999999
 31
0.0
  0
LINE
  5
3DC
330
1E
100
AcDbEntity
  8
0
100
AcDbLine
 10
74.2
 20
130.3373
 30
0.0
 11
77.8
 21
125.9372999999999
 31
0.0
  0
LINE
  5
3DE
330
1E
100
AcDbEntity
  8
0
100
AcDbLine
 10
63.9223
 20
127.3312999999999
 30
0.0
 11
64.5956
 21
127.3143
 31
0.0
  0
LINE
  5
3E0
330
1E
100
AcDbEntity
  8
0
100
AcDbLine
 10
46.45809999999999
 20
125.9363
 30
0.0
 11
46.6717
 21
125.3573
 31
0.0
  0
LINE
  5
3E1
330
1E
100
AcDbEntity
  8
0
100
AcDbLine
 10
45.8
 20
126.2213
 30
0.0
 11
46.45809999999999
 21
125.9363
 31
0.0
  0
LINE
  5
3E2
330
1E
100
AcDbEntity
  8
0
100
AcDbLine
 10
43.2092
 20
130.3803
 30
0.0
 11
43.5092
 21
131.0033
 31
0.0
  0
LINE
  5
3E3
330
1E
100
AcDbEntity
  8
0
100
AcDbLine
 10
42.50919999999999
 20
130.1133
 30
0.0
 11
43.2092
 21
130.3803
 31
0.0
  0
LINE
  5
3E4
330
1E
100
AcDbEntity
  8
0
100
AcDbLine
 10
49.83489999999999
 20
131.1892999999999
 30
0.0
 11
50.5763
 21
131.3612999999999
 31
0.0
  0
LINE
  5
3E5
330
1E
100
AcDbEntity
  8
0
100
AcDbLine
 10
49.3928
 20
130.6152999999999
 30
0.0
 11
49.5303
 21
129.9643
 31
0.0
  0
LINE
  5
3E6
330
1E
100
AcDbEntity
  8
0
100
AcDbLine
 10
49.3928
 20
130.6152999999999
 30
0.0
 11
49.83489999999999
 21
131.1892999999999
 31
0.0
  0
LINE
  5
3E7
330
1E
100
AcDbEntity
  8
0
100
AcDbLine
 10
74.5
 20
130.4373
 30
0.0
 11
78.2
 21
125.9873
 31
0.0
  0
LINE
  5
3E8
330
1E
100
AcDbEntity
  8
0
100
AcDbLine
 10
51.18719999999999
 20
131.0082999999999
 30
0.0
 11
51.3247
 21
130.3563
 31
0.0
  0
LINE
  5
3E9
330
1E
100
AcDbEntity
  8
0
100
AcDbLine
 10
50.5763
 20
131.3612999999999
 30
0.0
 11
51.18719999999999
 21
131.0082999999999
 31
0.0
  0
LINE
  5
3EA
330
1E
100
AcDbEntity
  8
0
100
AcDbLine
 10
43.2092
 20
131.6253
 30
0.0
 11
43.5092
 21
131.0033
 31
0.0
  0
LINE
  5
3EB
330
1E
100
AcDbEntity
  8
0
100
AcDbLine
 10
41.80919999999999
 20
130.3803
 30
0.0
 11
42.50919999999999
 21
130.1133
 31
0.0
  0
LINE
  5
3EC
330
1E
100
AcDbEntity
  8
0
100
AcDbLine
 10
41.5092
 20
131.0033
 30
0.0
 11
41.80919999999999
 21
131.6253
 31
0.0
  0
LINE
  5
3ED
330
1E
100
AcDbEntity
  8
0
100
AcDbLine
 10
41.5092
 20
131.0033
 30
0.0
 11
41.80919999999999
 21
130.3803
 31
0.0
  0
LINE
  5
3EE
330
1E
100
AcDbEntity
  8
0
100
AcDbLine
 10
68.3
 20
134.1373
 30
0.0
 11
74.2
 21
130.3373
 31
0.0
  0
LINE
  5
3EF
330
1E
100
AcDbEntity
  8
0
100
AcDbLine
 10
68.59999999999999
 20
134.2872999999999
 30
0.0
 11
74.5
 21
130.4373
 31
0.0
  0
LINE
  5
3F0
330
1E
100
AcDbEntity
  8
0
100
AcDbLine
 10
83.0
 20
136.1642999999999
 30
0.0
 11
84.50000000000001
 21
130.7642999999999
 31
0.0
  0
LINE
  5
3F2
330
1E
100
AcDbEntity
  8
0
100
AcDbLine
 10
42.50919999999999
 20
131.8923
 30
0.0
 11
43.2092
 21
131.6253
 31
0.0
  0
LINE
  5
3F3
330
1E
100
AcDbEntity
  8
0
100
AcDbLine
 10
41.80919999999999
 20
131.6253
 30
0.0
 11
42.50919999999999
 21
131.8923
 31
0.0
  0
LINE
  5
3F4
330
1E
100
AcDbEntity
  8
0
100
AcDbLine
 10
39.9299
 20
126.0272999999999
 30
0.0
 11
40.3112
 21
125.4873
 31
0.0
  0
LINE
  5
3F5
330
1E
100
AcDbEntity
  8
0
100
AcDbLine
 10
40.09759999999999
 20
124.9093
 30
0.0
 11
40.3112
 21
125.4873
 31
0.0
  0
LINE
  5
3F6
330
1E
100
AcDbEntity
  8
0
100
AcDbLine
 10
39.4396
 20
124.6232999999999
 30
0.0
 11
40.09759999999999
 21
124.9093
 31
0.0
  0
LINE
  5
3F7
330
1E
100
AcDbEntity
  8
0
100
AcDbLine
 10
56.6317
 20
100.6583
 30
0.0
 11
56.88199705668339
 21
102.4044999357199
 31
0.0
  0
LINE
  5
3F9
330
1E
100
AcDbEntity
  8
0
100
AcDbLine
 10
36.548
 20
7.061799999999981
 30
0.0
 11
39.428
 21
6.38449999999998
 31
0.0
  0
LINE
  5
3FA
330
1E
100
AcDbEntity
  8
0
100
AcDbLine
 10
36.05199999999999
 20
7.355199999999981
 30
0.0
 11
39.17199999999999
 21
6.61719999999998
 31
0.0
  0
LINE
  5
3FB
330
1E
100
AcDbEntity
  8
0
100
AcDbLine
 10
39.17199999999999
 20
6.61719999999998
 30
0.0
 11
42.5
 21
6.340399999999981
 31
0.0
  0
LINE
  5
3FC
330
1E
100
AcDbEntity
  8
0
100
AcDbLine
 10
28.7407
 20
25.7586
 30
0.0
 11
29.5
 21
13.9311
 31
0.0
  0
LINE
  5
3FD
330
1E
100
AcDbEntity
  8
0
100
AcDbLine
 10
24.3
 20
137.0873
 30
0.0
 11
33.1
 21
138.8873
 31
0.0
  0
LINE
  5
3FE
330
1E
100
AcDbEntity
  8
0
100
AcDbLine
 10
24.1
 20
137.2373
 30
0.0
 11
33.0
 21
139.0873
 31
0.0
  0
LINE
  5
3FF
330
1E
100
AcDbEntity
  8
0
100
AcDbLine
 10
60.7
 20
137.0873
 30
0.0
 11
68.3
 21
134.1373
 31
0.0
  0
LINE
  5
400
330
1E
100
AcDbEntity
  8
0
100
AcDbLine
 10
51.9
 20
138.8873
 30
0.0
 11
60.7
 21
137.0873
 31
0.0
  0
LINE
  5
401
330
1E
100
AcDbEntity
  8
0
100
AcDbLine
 10
60.89999999999999
 20
137.2373
 30
0.0
 11
68.59999999999999
 21
134.2872999999999
 31
0.0
  0
LINE
  5
404
330
1E
100
AcDbEntity
  8
0
100
AcDbLine
 10
42.5
 20
139.4873
 30
0.0
 11
51.9
 21
138.8873
 31
0.0
  0
LINE
  5
405
330
1E
100
AcDbEntity
  8
0
100
AcDbLine
 10
52.0
 20
139.0873
 30
0.0
 11
60.89999999999999
 21
137.2373
 31
0.0
  0
LINE
  5
406
330
1E
100
AcDbEntity
  8
0
100
AcDbLine
 10
42.5
 20
139.7372999999999
 30
0.0
 11
52.0
 21
139.0873
 31
0.0
  0
LINE
  5
407
330
1E
100
AcDbEntity
  8
0
100
AcDbLine
 10
78.79999999999999
 20
141.2642999999999
 30
0.0
 11
83.0
 21
136.1642999999999
 31
0.0
  0
LINE
  5
408
330
1E
100
AcDbEntity
  8
0
100
AcDbLine
 10
33.1
 20
138.8873
 30
0.0
 11
42.5
 21
139.4873
 31
0.0
  0
LINE
  5
409
330
1E
100
AcDbEntity
  8
0
100
AcDbLine
 10
33.0
 20
139.0873
 30
0.0
 11
42.5
 21
139.7372999999999
 31
0.0
  0
LINE
  5
40A
330
1E
100
AcDbEntity
  8
0
100
AcDbLine
 10
6.2
 20
141.2642999999999
 30
0.0
 11
12.8
 21
145.6142999999999
 31
0.0
  0
LINE
  5
40B
330
1E
100
AcDbEntity
  8
0
100
AcDbLine
 10
79.29999999999999
 20
142.1802999999999
 30
0.0
 11
83.49999999999999
 21
137.0802999999999
 31
0.0
  0
LINE
  5
40C
330
1E
100
AcDbEntity
  8
0
100
AcDbLine
 10
83.49999999999999
 20
137.0802999999999
 30
0.0
 11
85.0
 21
131.6303
 31
0.0
  0
LINE
  5
40D
330
1E
100
AcDbEntity
  8
0
100
AcDbLine
 10
84.0
 20
127.2993
 30
0.0
 11
84.50000000000001
 21
130.7642999999999
 31
0.0
  0
LINE
  5
40E
330
1E
100
AcDbEntity
  8
0
100
AcDbLine
 10
84.2116279069768
 20
128.7658813953489
 30
0.0
 11
85.0
 21
131.6303
 31
0.0
  0
LINE
  5
40F
330
1E
100
AcDbEntity
  8
0
100
AcDbLine
 10
85.0
 20
135.9602999999999
 30
0.0
 11
85.0
 21
131.6303
 31
0.0
  0
LINE
  5
410
330
1E
100
AcDbEntity
  8
0
100
AcDbLine
 10
84.88082568807341
 20
136.3933
 30
0.0
 11
85.0
 21
136.8263
 31
0.0
  0
LINE
  5
411
330
1E
100
AcDbEntity
  8
0
100
AcDbLine
 10
85.0
 20
131.6303
 30
0.0
 11
85.0
 21
135.9602999999999
 31
0.0
  0
LINE
  5
412
330
1E
100
AcDbEntity
  8
0
100
AcDbLine
 10
83.49999999999999
 20
141.4103
 30
0.0
 11
85.0
 21
135.9602999999999
 31
0.0
  0
LINE
  5
413
330
1E
100
AcDbEntity
  8
0
100
AcDbLine
 10
83.49999999999999
 20
142.2762999999999
 30
0.0
 11
85.0
 21
136.8263
 31
0.0
  0
LINE
  5
414
330
1E
100
AcDbEntity
  8
0
100
AcDbLine
 10
5.7
 20
142.1802999999999
 30
0.0
 11
12.5
 21
146.6303
 31
0.0
  0
LINE
  5
415
330
1E
100
AcDbEntity
  8
0
100
AcDbLine
 10
1.5
 20
141.4103
 30
0.0
 11
5.7
 21
146.5103
 31
0.0
  0
LINE
  5
416
330
1E
100
AcDbEntity
  8
0
100
AcDbLine
 10
4.216359999999999
 20
146.4273
 30
0.0
 11
8.085449999999999
 21
151.2133
 31
0.0
  0
LINE
  5
417
330
1E
100
AcDbEntity
  8
0
100
AcDbLine
 10
5.7
 20
146.5103
 30
0.0
 11
6.2
 21
146.8932999999999
 31
0.0
  0
LINE
  5
418
330
1E
100
AcDbEntity
  8
0
100
AcDbLine
 10
5.7
 20
146.5103
 30
0.0
 11
12.5
 21
150.9603
 31
0.0
  0
LINE
  5
419
330
1E
100
AcDbEntity
  8
0
100
AcDbLine
 10
71.79999999999999
 20
145.8472999999999
 30
0.0
 11
72.2
 21
145.6142999999999
 31
0.0
  0
LINE
  5
41A
330
1E
100
AcDbEntity
  8
0
100
AcDbLine
 10
72.2
 20
145.6142999999999
 30
0.0
 11
78.79999999999999
 21
141.2642999999999
 31
0.0
  0
LINE
  5
41B
330
1E
100
AcDbEntity
  8
0
100
AcDbLine
 10
12.8
 20
145.6142999999999
 30
0.0
 11
13.2
 21
145.8472999999999
 31
0.0
  0
LINE
  5
41C
330
1E
100
AcDbEntity
  8
0
100
AcDbLine
 10
12.8
 20
145.6142999999999
 30
0.0
 11
21.49999999999999
 21
148.9143
 31
0.0
  0
LINE
  5
41D
330
1E
100
AcDbEntity
  8
0
100
AcDbLine
 10
72.5
 20
146.6303
 30
0.0
 11
79.29999999999999
 21
142.1802999999999
 31
0.0
  0
LINE
  5
41E
330
1E
100
AcDbEntity
  8
0
100
AcDbLine
 10
78.79999999999999
 20
146.8932999999999
 30
0.0
 11
79.29999999999999
 21
146.5103
 31
0.0
  0
LINE
  5
41F
330
1E
100
AcDbEntity
  8
0
100
AcDbLine
 10
80.78360000000001
 20
146.4273
 30
0.0
 11
83.49999999999999
 21
142.2762999999999
 31
0.0
  0
LINE
  5
420
330
1E
100
AcDbEntity
  8
0
100
AcDbLine
 10
79.29999999999999
 20
146.5103
 30
0.0
 11
83.49999999999999
 21
141.4103
 31
0.0
  0
LINE
  5
421
330
1E
100
AcDbEntity
  8
0
100
AcDbLine
 10
13.2
 20
145.8472999999999
 30
0.0
 11
21.89999999999999
 21
149.1473
 31
0.0
  0
LINE
  5
422
330
1E
100
AcDbEntity
  8
0
100
AcDbLine
 10
12.5
 20
146.6303
 30
0.0
 11
21.4
 21
150.0303
 31
0.0
  0
LINE
  5
423
330
1E
100
AcDbEntity
  8
0
100
AcDbLine
 10
8.085449999999999
 20
151.2133
 30
0.0
 11
12.5655
 21
155.9542999999999
 31
0.0
  0
LINE
  5
424
330
1E
100
AcDbEntity
  8
0
100
AcDbLine
 10
12.5
 20
150.9603
 30
0.0
 11
21.4
 21
154.3603
 31
0.0
  0
LINE
  5
425
330
1E
100
AcDbEntity
  8
0
100
AcDbLine
 10
21.49999999999999
 20
148.9143
 30
0.0
 11
31.69999999999999
 21
151.0143
 31
0.0
  0
LINE
  5
426
330
1E
100
AcDbEntity
  8
0
100
AcDbLine
 10
21.4
 20
150.0303
 30
0.0
 11
31.6
 21
152.1303
 31
0.0
  0
LINE
  5
427
330
1E
100
AcDbEntity
  8
0
100
AcDbLine
 10
12.8
 20
151.2433
 30
0.0
 11
21.49999999999999
 21
154.5432999999999
 31
0.0
  0
LINE
  5
428
330
1E
100
AcDbEntity
  8
0
100
AcDbLine
 10
21.4
 20
154.3603
 30
0.0
 11
31.6
 21
156.4602999999999
 31
0.0
  0
LINE
  5
429
330
1E
100
AcDbEntity
  8
0
100
AcDbLine
 10
12.5
 20
151.8263
 30
0.0
 11
21.4
 21
155.2263
 31
0.0
  0
LINE
  5
42A
330
1E
100
AcDbEntity
  8
0
100
AcDbLine
 10
21.89999999999999
 20
149.1473
 30
0.0
 11
31.8
 21
151.1973
 31
0.0
  0
LINE
  5
42B
330
1E
100
AcDbEntity
  8
0
100
AcDbLine
 10
31.6
 20
152.1303
 30
0.0
 11
42.5
 21
152.8803
 31
0.0
  0
LINE
  5
42C
330
1E
100
AcDbEntity
  8
0
100
AcDbLine
 10
21.49999999999999
 20
154.5432999999999
 30
0.0
 11
31.69999999999999
 21
156.6433
 31
0.0
  0
LINE
  5
42D
330
1E
100
AcDbEntity
  8
0
100
AcDbLine
 10
12.5655
 20
155.9542999999999
 30
0.0
 11
18.0636
 21
159.5692999999999
 31
0.0
  0
LINE
  5
42E
330
1E
100
AcDbEntity
  8
0
100
AcDbLine
 10
18.0636
 20
159.5692999999999
 30
0.0
 11
23.0527
 21
161.8853
 31
0.0
  0
LINE
  5
42F
330
1E
100
AcDbEntity
  8
0
100
AcDbLine
 10
23.0527
 20
161.8853
 30
0.0
 11
28.8564
 21
164.0743
 31
0.0
  0
LINE
  5
430
330
1E
100
AcDbEntity
  8
0
100
AcDbLine
 10
28.8564
 20
164.0743
 30
0.0
 11
35.47449999999999
 21
165.3983
 31
0.0
  0
LINE
  5
431
330
1E
100
AcDbEntity
  8
0
100
AcDbLine
 10
31.6
 20
156.4602999999999
 30
0.0
 11
42.5
 21
157.2103
 31
0.0
  0
LINE
  5
432
330
1E
100
AcDbEntity
  8
0
100
AcDbLine
 10
21.4
 20
155.2263
 30
0.0
 11
31.6
 21
157.3263
 31
0.0
  0
LINE
  5
433
330
1E
100
AcDbEntity
  8
0
100
AcDbLine
 10
31.69999999999999
 20
151.0143
 30
0.0
 11
42.5
 21
151.7642999999999
 31
0.0
  0
LINE
  5
434
330
1E
100
AcDbEntity
  8
0
100
AcDbLine
 10
42.5
 20
151.7642999999999
 30
0.0
 11
53.3
 21
151.0143
 31
0.0
  0
LINE
  5
435
330
1E
100
AcDbEntity
  8
0
100
AcDbLine
 10
42.5
 20
151.9473
 30
0.0
 11
53.2
 21
151.1973
 31
0.0
  0
LINE
  5
436
330
1E
100
AcDbEntity
  8
0
100
AcDbLine
 10
63.5
 20
148.9143
 30
0.0
 11
72.2
 21
145.6142999999999
 31
0.0
  0
LINE
  5
437
330
1E
100
AcDbEntity
  8
0
100
AcDbLine
 10
53.3
 20
151.0143
 30
0.0
 11
63.5
 21
148.9143
 31
0.0
  0
LINE
  5
438
330
1E
100
AcDbEntity
  8
0
100
AcDbLine
 10
63.1
 20
149.1473
 30
0.0
 11
71.79999999999999
 21
145.8472999999999
 31
0.0
  0
LINE
  5
439
330
1E
100
AcDbEntity
  8
0
100
AcDbLine
 10
53.2
 20
151.1973
 30
0.0
 11
63.1
 21
149.1473
 31
0.0
  0
LINE
  5
43A
330
1E
100
AcDbEntity
  8
0
100
AcDbLine
 10
53.39999999999999
 20
152.1303
 30
0.0
 11
63.6
 21
150.0303
 31
0.0
  0
LINE
  5
43B
330
1E
100
AcDbEntity
  8
0
100
AcDbLine
 10
42.5
 20
152.8803
 30
0.0
 11
53.39999999999999
 21
152.1303
 31
0.0
  0
LINE
  5
43C
330
1E
100
AcDbEntity
  8
0
100
AcDbLine
 10
53.39999999999999
 20
156.4602999999999
 30
0.0
 11
63.6
 21
154.3603
 31
0.0
  0
LINE
  5
43D
330
1E
100
AcDbEntity
  8
0
100
AcDbLine
 10
63.6
 20
150.0303
 30
0.0
 11
72.5
 21
146.6303
 31
0.0
  0
LINE
  5
43E
330
1E
100
AcDbEntity
  8
0
100
AcDbLine
 10
76.91459999999999
 20
151.2133
 30
0.0
 11
80.78360000000001
 21
146.4273
 31
0.0
  0
LINE
  5
43F
330
1E
100
AcDbEntity
  8
0
100
AcDbLine
 10
72.5
 20
150.9603
 30
0.0
 11
79.29999999999999
 21
146.5103
 31
0.0
  0
LINE
  5
440
330
1E
100
AcDbEntity
  8
0
100
AcDbLine
 10
72.5
 20
151.8263
 30
0.0
 11
79.29999999999999
 21
147.3762999999999
 31
0.0
  0
LINE
  5
441
330
1E
100
AcDbEntity
  8
0
100
AcDbLine
 10
72.2
 20
151.2433
 30
0.0
 11
78.79999999999999
 21
146.8932999999999
 31
0.0
  0
LINE
  5
442
330
1E
100
AcDbEntity
  8
0
100
AcDbLine
 10
79.29999999999999
 20
147.3762999999999
 30
0.0
 11
83.49999999999999
 21
142.2762999999999
 31
0.0
  0
LINE
  5
443
330
1E
100
AcDbEntity
  8
0
100
AcDbLine
 10
63.6
 20
154.3603
 30
0.0
 11
72.5
 21
150.9603
 31
0.0
  0
LINE
  5
444
330
1E
100
AcDbEntity
  8
0
100
AcDbLine
 10
72.4345
 20
155.9542999999999
 30
0.0
 11
76.91459999999999
 21
151.2133
 31
0.0
  0
LINE
  5
445
330
1E
100
AcDbEntity
  8
0
100
AcDbLine
 10
63.6
 20
155.2263
 30
0.0
 11
72.5
 21
151.8263
 31
0.0
  0
LINE
  5
446
330
1E
100
AcDbEntity
  8
0
100
AcDbLine
 10
63.5
 20
154.5432999999999
 30
0.0
 11
72.2
 21
151.2433
 31
0.0
  0
LINE
  5
447
330
1E
100
AcDbEntity
  8
0
100
AcDbLine
 10
53.3
 20
156.6433
 30
0.0
 11
63.5
 21
154.5432999999999
 31
0.0
  0
LINE
  5
448
330
1E
100
AcDbEntity
  8
0
100
AcDbLine
 10
31.8
 20
151.1973
 30
0.0
 11
42.5
 21
151.9473
 31
0.0
  0
LINE
  5
449
330
1E
100
AcDbEntity
  8
0
100
AcDbLine
 10
42.5
 20
157.2103
 30
0.0
 11
53.39999999999999
 21
156.4602999999999
 31
0.0
  0
LINE
  5
44A
330
1E
100
AcDbEntity
  8
0
100
AcDbLine
 10
42.5
 20
165.9073
 30
0.0
 11
49.5255
 21
165.3983
 31
0.0
  0
LINE
  5
44B
330
1E
100
AcDbEntity
  8
0
100
AcDbLine
 10
35.47449999999999
 20
165.3983
 30
0.0
 11
42.5
 21
165.9073
 31
0.0
  0
LINE
  5
44C
330
1E
100
AcDbEntity
  8
0
100
AcDbLine
 10
42.5
 20
158.0763
 30
0.0
 11
53.39999999999999
 21
157.3263
 31
0.0
  0
LINE
  5
44D
330
1E
100
AcDbEntity
  8
0
100
AcDbLine
 10
66.93640000000001
 20
159.5692999999999
 30
0.0
 11
72.4345
 21
155.9542999999999
 31
0.0
  0
LINE
  5
44E
330
1E
100
AcDbEntity
  8
0
100
AcDbLine
 10
61.94729999999999
 20
161.8853
 30
0.0
 11
66.93640000000001
 21
159.5692999999999
 31
0.0
  0
LINE
  5
44F
330
1E
100
AcDbEntity
  8
0
100
AcDbLine
 10
56.1436
 20
164.0743
 30
0.0
 11
61.94729999999999
 21
161.8853
 31
0.0
  0
LINE
  5
450
330
1E
100
AcDbEntity
  8
0
100
AcDbLine
 10
49.5255
 20
165.3983
 30
0.0
 11
56.1436
 21
164.0743
 31
0.0
  0
LINE
  5
451
330
1E
100
AcDbEntity
  8
0
100
AcDbLine
 10
53.39999999999999
 20
157.3263
 30
0.0
 11
63.6
 21
155.2263
 31
0.0
  0
LINE
  5
452
330
1E
100
AcDbEntity
  8
0
100
AcDbLine
 10
42.5
 20
157.3933
 30
0.0
 11
53.3
 21
156.6433
 31
0.0
  0
LINE
  5
453
330
1E
100
AcDbEntity
  8
0
100
AcDbLine
 10
31.69999999999999
 20
156.6433
 30
0.0
 11
42.5
 21
157.3933
 31
0.0
  0
LINE
  5
454
330
1E
100
AcDbEntity
  8
0
100
AcDbLine
 10
31.6
 20
157.3263
 30
0.0
 11
42.5
 21
158.0763
 31
0.0
  0
LINE
  5
455
330
1E
100
AcDbEntity
  8
0
100
AcDbLine
 10
6.2
 20
146.8932999999999
 30
0.0
 11
12.8
 21
151.2433
 31
0.0
  0
LINE
  5
456
330
1E
100
AcDbEntity
  8
0
100
AcDbLine
 10
5.7
 20
147.3762999999999
 30
0.0
 11
12.5
 21
151.8263
 31
0.0
  0
LINE
  5
457
330
1E
100
AcDbEntity
  8
0
100
AcDbLine
 10
1.5
 20
142.2762999999999
 30
0.0
 11
5.7
 21
147.3762999999999
 31
0.0
  0
LINE
  5
458
330
1E
100
AcDbEntity
  8
0
100
AcDbLine
 10
1.5
 20
142.2762999999999
 30
0.0
 11
4.216359999999999
 21
146.4273
 31
0.0
  0
LINE
  5
459
330
1E
100
AcDbEntity
  8
0
100
AcDbLine
 10
0.0000000000000006
 20
136.8263
 30
0.0
 11
1.5
 21
142.2762999999999
 31
0.0
  0
LINE
  5
45A
330
1E
100
AcDbEntity
  8
0
100
AcDbLine
 10
0.0000000000000006
 20
136.8263
 30
0.0
 11
0.119174311926605
 21
136.3933
 31
0.0
  0
LINE
  5
45B
330
1E
100
AcDbEntity
  8
0
100
AcDbLine
 10
0.0000000000000006
 20
136.8263
 30
0.0
 11
0.119174311926605
 21
136.3933
 31
0.0
  0
LINE
  5
460
330
1E
100
AcDbEntity
  8
0
100
AcDbLine
 10
26.4084
 20
102.8872999999999
 30
0.0
 11
26.6350352537615
 21
103.692974724822
 31
0.0
  0
ENDSEC
  0
SECTION
  2
OBJECTS
  0
DICTIONARY
  5
C
330
0
100
AcDbDictionary
  3
ACAD_GROUP
350
D
  3
ACAD_LAYOUT
350
19
  3
ACAD_MLINESTYLE
350
16
  3
ACAD_PLOTSETTINGS
350
18
  3
ACAD_PLOTSTYLENAME
350
E
  3
ACDBHEADERROUNDTRIPXREC
350
4AE
  3
ACDBVARIABLEDICTIONARY
350
461
  0
DICTIONARY
  5
4D0
330
1E
100
AcDbDictionary
280
     1
  3
ACAD_LAYOUTSELFREF
360
4D1
  0
DICTIONARY
  5
4CE
330
1A
100
AcDbDictionary
280
     1
  3
ACAD_LAYOUTSELFREF
360
4CF
  0
DICTIONARY
  5
D
102
{ACAD_REACTORS
330
C
102
}
330
C
100
AcDbDictionary
  0
DICTIONARY
  5
19
102
{ACAD_REACTORS
330
C
102
}
330
C
100
AcDbDictionary
  0
DICTIONARY
  5
16
102
{ACAD_REACTORS
330
C
102
}
330
C
100
AcDbDictionary
  3
STANDARD
350
17
  0
DICTIONARY
  5
18
102
{ACAD_REACTORS
330
C
102
}
330
C
100
AcDbDictionary
  0
ACDBDICTIONARYWDFLT
  5
E
102
{ACAD_REACTORS
330
C
102
}
330
C
100
AcDbDictionary
281
     1
  3
Normal
350
F
100
AcDbDictionaryWithDefault
340
F
  0
DICTIONARY
  5
4AE
102
{ACAD_REACTORS
330
C
102
}
330
C
100
AcDbDictionary
  3
CEPSNTYPE
350
4B8
  3
FINGERPRINTGUID
350
4B9
  3
HYPERLINKBASE
350
4B1
  3
INSUNITS
350
4B7
  3
LAYOUTDICT
350
4B3
  3
LWETCUNION
350
4B6
  3
PLOTSETDICT
350
4B4
  3
PLOTSTYLNAMDICT
350
4B5
  3
PSVPSCALE
350
4BB
  3
PUCSBASE
350
4BE
  3
PUCSORGBACK
350
4C4
  3
PUCSORGBOTTOM
350
4C0
  3
PUCSORGFRONT
350
4C3
  3
PUCSORGLEFT
350
4C1
  3
PUCSORGRIGHT
350
4C2
  3
PUCSORGTOP
350
4BF
  3
PUCSORTHOREF
350
4BC
  3
PUCSORTHOVIEW
350
4BD
  3
STYLESHEET
350
4B2
  3
TSTACKALIGN
350
4AF
  3
TSTACKSIZE
350
4B0
  3
UCSBASE
350
4C7
  3
UCSORGBACK
350
4CD
  3
UCSORGBOTTOM
350
4C9
  3
UCSORGFRONT
350
4CC
  3
UCSORGLEFT
350
4CA
  3
UCSORGRIGHT
350
4CB
  3
UCSORGTOP
350
4C8
  3
UCSORTHOREF
350
4C5
  3
UCSORTHOVIEW
350
4C6
  3
VERSIONGUID
350
4BA
  0
DICTIONARY
  5
461
102
{ACAD_REACTORS
330
C
102
}
330
C
100
AcDbDictionary
  3
DIMASSOC
350
462
  0
XRECORD
  5
4D1
102
{ACAD_REACTORS
330
4D0
102
}
330
4D0
100
AcDbXrecord
340
1E
  0
XRECORD
  5
4CF
102
{ACAD_REACTORS
330
4CE
102
}
330
4CE
100
AcDbXrecord
340
1A
  0
MLINESTYLE
  5
17
102
{ACAD_REACTORS
330
16
102
}
330
16
100
AcDbMlineStyle
  2
STANDARD
 70
     0
  3

 62
   256
 51
90.0
 52
90.0
 71
     2
 49
0.5
 62
   256
  6
BYLAYER
 49
-0.5
 62
   256
  6
BYLAYER
  0
ACDBPLACEHOLDER
  5
F
102
{ACAD_REACTORS
330
E
102
}
330
E
100
AcDbPlaceHolder
280
     0
  0
XRECORD
  5
4B8
102
{ACAD_REACTORS
330
4AE
102
}
330
4AE
100
AcDbXrecord
 90
        0
  0
XRECORD
  5
4B9
102
{ACAD_REACTORS
330
4AE
102
}
330
4AE
100
AcDbXrecord
  1
{185CE50F-19C9-4C1B-A005-F0B71344126B}
  0
XRECORD
  5
4B1
102
{ACAD_REACTORS
330
4AE
102
}
330
4AE
100
AcDbXrecord
  1

  0
XRECORD
  5
4B7
102
{ACAD_REACTORS
330
4AE
102
}
330
4AE
100
AcDbXrecord
 90
        0
  0
XRECORD
  5
4B3
102
{ACAD_REACTORS
330
4AE
102
}
330
4AE
100
AcDbXrecord
340
19
  0
XRECORD
  5
4B6
102
{ACAD_REACTORS
330
4AE
102
}
330
4AE
100
AcDbXrecord
 90
    10781
  0
XRECORD
  5
4B4
102
{ACAD_REACTORS
330
4AE
102
}
330
4AE
100
AcDbXrecord
340
18
  0
XRECORD
  5
4B5
102
{ACAD_REACTORS
330
4AE
102
}
330
4AE
100
AcDbXrecord
340
E
  0
XRECORD
  5
4BB
102
{ACAD_REACTORS
330
4AE
102
}
330
4AE
100
AcDbXrecord
 40
0.0
  0
XRECORD
  5
4BE
102
{ACAD_REACTORS
330
4AE
102
}
330
4AE
100
AcDbXrecord
340
0
  0
XRECORD
  5
4C4
102
{ACAD_REACTORS
330
4AE
102
}
330
4AE
100
AcDbXrecord
 10
0.0
 20
0.0
 30
0.0
  0
XRECORD
  5
4C0
102
{ACAD_REACTORS
330
4AE
102
}
330
4AE
100
AcDbXrecord
 10
0.0
 20
0.0
 30
0.0
  0
XRECORD
  5
4C3
102
{ACAD_REACTORS
330
4AE
102
}
330
4AE
100
AcDbXrecord
 10
0.0
 20
0.0
 30
0.0
  0
XRECORD
  5
4C1
102
{ACAD_REACTORS
330
4AE
102
}
330
4AE
100
AcDbXrecord
 10
0.0
 20
0.0
 30
0.0
  0
XRECORD
  5
4C2
102
{ACAD_REACTORS
330
4AE
102
}
330
4AE
100
AcDbXrecord
 10
0.0
 20
0.0
 30
0.0
  0
XRECORD
  5
4BF
102
{ACAD_REACTORS
330
4AE
102
}
330
4AE
100
AcDbXrecord
 10
0.0
 20
0.0
 30
0.0
  0
XRECORD
  5
4BC
102
{ACAD_REACTORS
330
4AE
102
}
330
4AE
100
AcDbXrecord
340
0
  0
XRECORD
  5
4BD
102
{ACAD_REACTORS
330
4AE
102
}
330
4AE
100
AcDbXrecord
 70
     0
  0
XRECORD
  5
4B2
102
{ACAD_REACTORS
330
4AE
102
}
330
4AE
100
AcDbXrecord
  1

  0
XRECORD
  5
4AF
102
{ACAD_REACTORS
330
4AE
102
}
330
4AE
100
AcDbXrecord
 90
        1
  0
XRECORD
  5
4B0
102
{ACAD_REACTORS
330
4AE
102
}
330
4AE
100
AcDbXrecord
 90
       70
  0
XRECORD
  5
4C7
102
{ACAD_REACTORS
330
4AE
102
}
330
4AE
100
AcDbXrecord
340
0
  0
XRECORD
  5
4CD
102
{ACAD_REACTORS
330
4AE
102
}
330
4AE
100
AcDbXrecord
 10
0.0
 20
0.0
 30
0.0
  0
XRECORD
  5
4C9
102
{ACAD_REACTORS
330
4AE
102
}
330
4AE
100
AcDbXrecord
 10
0.0
 20
0.0
 30
0.0
  0
XRECORD
  5
4CC
102
{ACAD_REACTORS
330
4AE
102
}
330
4AE
100
AcDbXrecord
 10
0.0
 20
0.0
 30
0.0
  0
XRECORD
  5
4CA
102
{ACAD_REACTORS
330
4AE
102
}
330
4AE
100
AcDbXrecord
 10
0.0
 20
0.0
 30
0.0
  0
XRECORD
  5
4CB
102
{ACAD_REACTORS
330
4AE
102
}
330
4AE
100
AcDbXrecord
 10
0.0
 20
0.0
 30
0.0
  0
XRECORD
  5
4C8
102
{ACAD_REACTORS
330
4AE
102
}
330
4AE
100
AcDbXrecord
 10
0.0
 20
0.0
 30
0.0
  0
XRECORD
  5
4C5
102
{ACAD_REACTORS
330
4AE
102
}
330
4AE
100
AcDbXrecord
340
0
  0
XRECORD
  5
4C6
102
{ACAD_REACTORS
330
4AE
102
}
330
4AE
100
AcDbXrecord
 70
     1
  0
XRECORD
  5
4BA
102
{ACAD_REACTORS
330
4AE
102
}
330
4AE
100
AcDbXrecord
  1
{DAE87CE8-EECC-48F8-9758-D0AE4AF0486F}
  0
DICTIONARYVAR
  5
462
102
{ACAD_REACTORS
330
461
102
}
330
461
100
DictionaryVariables
280
     0
  1
1
  0
ENDSEC
  0
EOF
