999
Erzeugt mit innoplus bad 
0
SECTION
2
HEADER
9
$ACADVER
1
AC1009
9
$DWGCODEPAGE
3
ISO8859-1
0
ENDSEC
0
SECTION
2
TABLES
0
TABLE
2
LAYER
70
1
0
LAYER
2
0
70
0
62
7
6
CONTINUOUS
0
ENDTAB
0
ENDSEC
0
SECTION
2
ENTITIES
0
LINE
8
0
6
CONTINUOUS
10
4.162390
20
-51.300030
30
0.0
11
7.917820
21
-51.300030
31
0.0
0
LINE
8
0
6
CONTINUOUS
10
-10.899230
20
-51.300030
30
0.0
11
-7.918900
21
-51.300030
31
0.0
0
LINE
8
0
6
CONTINUOUS
10
7.917820
20
-51.300030
30
0.0
11
10.898150
21
-51.300030
31
0.0
0
LINE
8
0
6
CONTINUOUS
10
-7.918900
20
-51.300030
30
0.0
11
-4.163460
21
-51.300030
31
0.0
0
LINE
8
0
6
CONTINUOUS
10
10.898150
20
-51.300030
30
0.0
11
12.811630
21
-51.300030
31
0.0
0
LINE
8
0
6
CONTINUOUS
10
-4.163460
20
-51.300030
30
0.0
11
-0.000540
21
-51.300030
31
0.0
0
LINE
8
0
6
CONTINUOUS
10
-13.472060
20
-51.300030
30
0.0
11
-12.812720
21
-51.300030
31
0.0
0
LINE
8
0
6
CONTINUOUS
10
-13.472060
20
-50.800000
30
0.0
11
-13.472060
21
-51.300030
31
0.0
0
LINE
8
0
6
CONTINUOUS
10
13.470970
20
-51.300030
30
0.0
11
13.470970
21
-50.800000
31
0.0
0
LINE
8
0
6
CONTINUOUS
10
12.811630
20
-51.300030
30
0.0
11
13.470970
21
-51.300030
31
0.0
0
LINE
8
0
6
CONTINUOUS
10
-0.000540
20
-51.300030
30
0.0
11
4.162390
21
-51.300030
31
0.0
0
LINE
8
0
6
CONTINUOUS
10
-12.812720
20
-51.300030
30
0.0
11
-10.899230
21
-51.300030
31
0.0
0
LINE
8
0
6
CONTINUOUS
10
3.882240
20
-61.300000
30
0.0
11
7.384930
21
-61.300000
31
0.0
0
LINE
8
0
6
CONTINUOUS
10
-13.472060
20
44.934520
30
0.0
11
-13.472060
21
-50.800000
31
0.0
0
LINE
8
0
6
CONTINUOUS
10
13.470970
20
-50.800000
30
0.0
11
13.470970
21
44.934520
31
0.0
0
LINE
8
0
6
CONTINUOUS
10
-10.165770
20
-61.300000
30
0.0
11
-7.386010
21
-61.300000
31
0.0
0
LINE
8
0
6
CONTINUOUS
10
7.384930
20
-61.300000
30
0.0
11
10.164690
21
-61.300000
31
0.0
0
LINE
8
0
6
CONTINUOUS
10
-7.386010
20
-61.300000
30
0.0
11
-3.883310
21
-61.300000
31
0.0
0
LINE
8
0
6
CONTINUOUS
10
10.164690
20
-61.300000
30
0.0
11
11.949400
21
-61.300000
31
0.0
0
LINE
8
0
6
CONTINUOUS
10
-3.883310
20
-61.300000
30
0.0
11
-0.000540
21
-61.300000
31
0.0
0
LINE
8
0
6
CONTINUOUS
10
-12.565460
20
-61.300000
30
0.0
11
-11.950490
21
-61.300000
31
0.0
0
LINE
8
0
6
CONTINUOUS
10
-12.565460
20
-60.675040
30
0.0
11
-12.565460
21
-61.300000
31
0.0
0
LINE
8
0
6
CONTINUOUS
10
12.564360
20
-61.300000
30
0.0
11
12.564360
21
-60.675040
31
0.0
0
LINE
8
0
6
CONTINUOUS
10
11.949400
20
-61.300000
30
0.0
11
12.564360
21
-61.300000
31
0.0
0
LINE
8
0
6
CONTINUOUS
10
-0.000540
20
-61.300000
30
0.0
11
3.882240
21
-61.300000
31
0.0
0
LINE
8
0
6
CONTINUOUS
10
-11.950490
20
-61.300000
30
0.0
11
-10.165770
21
-61.300000
31
0.0
0
LINE
8
0
6
CONTINUOUS
10
-12.565460
20
-51.681810
30
0.0
11
-12.565460
21
-60.675040
31
0.0
0
LINE
8
0
6
CONTINUOUS
10
12.564360
20
-60.675040
30
0.0
11
12.564360
21
-51.681810
31
0.0
0
LINE
8
0
6
CONTINUOUS
10
-12.565460
20
-51.300030
30
0.0
11
-12.565460
21
-51.681810
31
0.0
0
LINE
8
0
6
CONTINUOUS
10
12.564360
20
-51.681810
30
0.0
11
12.564360
21
-51.300030
31
0.0
0
LINE
8
0
6
CONTINUOUS
10
-38.490510
20
44.934520
30
0.0
11
-37.525480
21
44.934520
31
0.0
0
LINE
8
0
6
CONTINUOUS
10
-39.557880
20
45.373860
30
0.0
11
-38.490510
21
44.934520
31
0.0
0
LINE
8
0
6
CONTINUOUS
10
-40.000000
20
46.981080
30
0.0
11
-40.000000
21
46.434520
31
0.0
0
LINE
8
0
6
CONTINUOUS
10
-40.000000
20
46.434520
30
0.0
11
-39.557880
21
45.373860
31
0.0
0
LINE
8
0
6
CONTINUOUS
10
-37.525480
20
44.934520
30
0.0
11
-34.678750
21
44.934520
31
0.0
0
LINE
8
0
6
CONTINUOUS
10
-34.678750
20
44.934520
30
0.0
11
-30.093090
21
44.934520
31
0.0
0
LINE
8
0
6
CONTINUOUS
10
-30.093090
20
44.934520
30
0.0
11
-23.998440
21
44.934520
31
0.0
0
LINE
8
0
6
CONTINUOUS
10
-23.998440
20
44.934520
30
0.0
11
-16.700400
21
44.934520
31
0.0
0
LINE
8
0
6
CONTINUOUS
10
-16.700400
20
44.934520
30
0.0
11
-8.564940
21
44.934520
31
0.0
0
LINE
8
0
6
CONTINUOUS
10
-8.564940
20
44.934520
30
0.0
11
0.000000
21
44.934520
31
0.0
0
LINE
8
0
6
CONTINUOUS
10
0.000000
20
44.934520
30
0.0
11
8.564950
21
44.934520
31
0.0
0
LINE
8
0
6
CONTINUOUS
10
8.564950
20
44.934520
30
0.0
11
16.700400
21
44.934520
31
0.0
0
LINE
8
0
6
CONTINUOUS
10
16.700400
20
44.934520
30
0.0
11
23.998440
21
44.934520
31
0.0
0
LINE
8
0
6
CONTINUOUS
10
23.998440
20
44.934520
30
0.0
11
30.093090
21
44.934520
31
0.0
0
LINE
8
0
6
CONTINUOUS
10
30.093090
20
44.934520
30
0.0
11
34.678750
21
44.934520
31
0.0
0
LINE
8
0
6
CONTINUOUS
10
34.678750
20
44.934520
30
0.0
11
37.525470
21
44.934520
31
0.0
0
LINE
8
0
6
CONTINUOUS
10
38.490510
20
44.934520
30
0.0
11
39.557880
21
45.373860
31
0.0
0
LINE
8
0
6
CONTINUOUS
10
37.525470
20
44.934520
30
0.0
11
38.490510
21
44.934520
31
0.0
0
LINE
8
0
6
CONTINUOUS
10
40.000000
20
46.434520
30
0.0
11
40.000000
21
46.981080
31
0.0
0
LINE
8
0
6
CONTINUOUS
10
-40.000000
20
61.300000
30
0.0
11
-40.000000
21
60.800000
31
0.0
0
LINE
8
0
6
CONTINUOUS
10
-38.997120
20
61.300000
30
0.0
11
-40.000000
21
61.300000
31
0.0
0
LINE
8
0
6
CONTINUOUS
10
-36.038760
20
61.300000
30
0.0
11
-38.997120
21
61.300000
31
0.0
0
LINE
8
0
6
CONTINUOUS
10
-31.273260
20
61.300000
30
0.0
11
-36.038760
21
61.300000
31
0.0
0
LINE
8
0
6
CONTINUOUS
10
-24.939590
20
61.300000
30
0.0
11
-31.273260
21
61.300000
31
0.0
0
LINE
8
0
6
CONTINUOUS
10
-17.355340
20
61.300000
30
0.0
11
-24.939590
21
61.300000
31
0.0
0
LINE
8
0
6
CONTINUOUS
10
-8.900830
20
61.300000
30
0.0
11
-17.355340
21
61.300000
31
0.0
0
LINE
8
0
6
CONTINUOUS
10
0.000000
20
61.300000
30
0.0
11
-8.900830
21
61.300000
31
0.0
0
LINE
8
0
6
CONTINUOUS
10
8.900840
20
61.300000
30
0.0
11
0.000000
21
61.300000
31
0.0
0
LINE
8
0
6
CONTINUOUS
10
17.355350
20
61.300000
30
0.0
11
8.900840
21
61.300000
31
0.0
0
LINE
8
0
6
CONTINUOUS
10
24.939590
20
61.300000
30
0.0
11
17.355350
21
61.300000
31
0.0
0
LINE
8
0
6
CONTINUOUS
10
31.273260
20
61.300000
30
0.0
11
24.939590
21
61.300000
31
0.0
0
LINE
8
0
6
CONTINUOUS
10
36.038760
20
61.300000
30
0.0
11
31.273260
21
61.300000
31
0.0
0
LINE
8
0
6
CONTINUOUS
10
38.997110
20
61.300000
30
0.0
11
36.038760
21
61.300000
31
0.0
0
LINE
8
0
6
CONTINUOUS
10
40.000000
20
61.300000
30
0.0
11
38.997110
21
61.300000
31
0.0
0
LINE
8
0
6
CONTINUOUS
10
40.000000
20
60.800000
30
0.0
11
40.000000
21
61.300000
31
0.0
0
LINE
8
0
6
CONTINUOUS
10
39.557880
20
45.373860
30
0.0
11
40.000000
21
46.434520
31
0.0
0
LINE
8
0
6
CONTINUOUS
10
-40.000000
20
60.800000
30
0.0
11
-40.000000
21
46.981080
31
0.0
0
LINE
8
0
6
CONTINUOUS
10
40.000000
20
46.981080
30
0.0
11
40.000000
21
60.800000
31
0.0
0
ENDSEC
0
EOF
