999
Erzeugt mit innoplus bad 
0
SECTION
2
HEADER
9
$ACADVER
1
AC1009
9
$DWGCODEPAGE
3
ISO8859-1
0
ENDSEC
0
SECTION
2
TABLES
0
TABLE
2
LAYER
70
1
0
LAYER
2
0
70
0
62
7
6
CONTINUOUS
0
ENDTAB
0
ENDSEC
0
SECTION
2
ENTITIES
0
LINE
8
0
6
CONTINUOUS
10
0.000000
20
40.000000
30
0.0
11
-8.900780
21
38.997130
31
0.0
0
LINE
8
0
6
CONTINUOUS
10
-8.900780
20
38.997130
30
0.0
11
-17.355300
21
36.038780
31
0.0
0
LINE
8
0
6
CONTINUOUS
10
-17.355300
20
36.038780
30
0.0
11
-24.939550
21
31.273290
31
0.0
0
LINE
8
0
6
CONTINUOUS
10
-24.939550
20
31.273290
30
0.0
11
-31.273230
21
24.939630
31
0.0
0
LINE
8
0
6
CONTINUOUS
10
-31.273230
20
24.939630
30
0.0
11
-36.038740
21
17.355390
31
0.0
0
LINE
8
0
6
CONTINUOUS
10
-36.038740
20
17.355390
30
0.0
11
-38.997100
21
8.900880
31
0.0
0
LINE
8
0
6
CONTINUOUS
10
-40.000000
20
0.000040
30
0.0
11
-38.997100
21
8.900880
31
0.0
0
LINE
8
0
6
CONTINUOUS
10
-40.000000
20
0.000040
30
0.0
11
-38.997130
21
-8.900800
31
0.0
0
LINE
8
0
6
CONTINUOUS
10
-38.997130
20
-8.900800
30
0.0
11
-36.038770
21
-17.355320
31
0.0
0
LINE
8
0
6
CONTINUOUS
10
-36.038770
20
-17.355320
30
0.0
11
-31.273280
21
-24.939570
31
0.0
0
LINE
8
0
6
CONTINUOUS
10
-31.273280
20
-24.939570
30
0.0
11
-24.939610
21
-31.273240
31
0.0
0
LINE
8
0
6
CONTINUOUS
10
-17.355370
20
-36.038740
30
0.0
11
-24.939610
21
-31.273240
31
0.0
0
LINE
8
0
6
CONTINUOUS
10
-17.355370
20
-36.038740
30
0.0
11
-8.900850
21
-38.997120
31
0.0
0
LINE
8
0
6
CONTINUOUS
10
-8.900850
20
-38.997120
30
0.0
11
-0.000010
21
-40.000000
31
0.0
0
LINE
8
0
6
CONTINUOUS
10
-0.000010
20
-40.000000
30
0.0
11
8.900830
21
-38.997120
31
0.0
0
LINE
8
0
6
CONTINUOUS
10
8.900830
20
-38.997120
30
0.0
11
17.355340
21
-36.038760
31
0.0
0
LINE
8
0
6
CONTINUOUS
10
17.355340
20
-36.038760
30
0.0
11
24.939590
21
-31.273260
31
0.0
0
LINE
8
0
6
CONTINUOUS
10
24.939590
20
-31.273260
30
0.0
11
31.273260
21
-24.939590
31
0.0
0
LINE
8
0
6
CONTINUOUS
10
36.038750
20
-17.355340
30
0.0
11
31.273260
21
-24.939590
31
0.0
0
LINE
8
0
6
CONTINUOUS
10
38.997120
20
-8.900830
30
0.0
11
36.038750
21
-17.355340
31
0.0
0
LINE
8
0
6
CONTINUOUS
10
38.997120
20
-8.900830
30
0.0
11
40.000000
21
0.000000
31
0.0
0
LINE
8
0
6
CONTINUOUS
10
38.997110
20
8.900840
30
0.0
11
40.000000
21
0.000000
31
0.0
0
LINE
8
0
6
CONTINUOUS
10
38.997110
20
8.900840
30
0.0
11
36.038760
21
17.355350
31
0.0
0
LINE
8
0
6
CONTINUOUS
10
36.038760
20
17.355350
30
0.0
11
31.273260
21
24.939590
31
0.0
0
LINE
8
0
6
CONTINUOUS
10
31.273260
20
24.939590
30
0.0
11
24.939590
21
31.273260
31
0.0
0
LINE
8
0
6
CONTINUOUS
10
24.939590
20
31.273260
30
0.0
11
17.355350
21
36.038760
31
0.0
0
LINE
8
0
6
CONTINUOUS
10
17.355350
20
36.038760
30
0.0
11
8.900840
21
38.997110
31
0.0
0
LINE
8
0
6
CONTINUOUS
10
0.000000
20
40.000000
30
0.0
11
8.900840
21
38.997110
31
0.0
0
ENDSEC
0
EOF
