  0
SECTION
  2
HEADER
  9
$ACADVER
  1
AC1015
  9
$ACADMAINTVER
 70
    13
  9
$DWGCODEPAGE
  3
ANSI_1252
  9
$INSBASE
 10
0.0
 20
0.0
 30
0.0
  9
$EXTMIN
 10
0.176764999999997
 20
-49.98128500000002
 30
0.0
  9
$EXTMAX
 10
124.823235
 20
936.981285
 30
0.0
  9
$LIMMIN
 10
0.0
 20
0.0
  9
$LIMMAX
 10
12.0
 20
9.0
  9
$ORTHOMODE
 70
     0
  9
$REGENMODE
 70
     1
  9
$FILLMODE
 70
     1
  9
$QTEXTMODE
 70
     0
  9
$MIRRTEXT
 70
     1
  9
$LTSCALE
 40
1.0
  9
$ATTMODE
 70
     1
  9
$TEXTSIZE
 40
0.2
  9
$TRACEWID
 40
0.05
  9
$TEXTSTYLE
  7
Standard
  9
$CLAYER
  8
0
  9
$CELTYPE
  6
Continuous
  9
$CECOLOR
 62
   256
  9
$CELTSCALE
 40
1.0
  9
$DISPSILH
 70
     0
  9
$DIMSCALE
 40
1.0
  9
$DIMASZ
 40
0.18
  9
$DIMEXO
 40
0.0625
  9
$DIMDLI
 40
0.38
  9
$DIMRND
 40
0.0
  9
$DIMDLE
 40
0.0
  9
$DIMEXE
 40
0.18
  9
$DIMTP
 40
0.0
  9
$DIMTM
 40
0.0
  9
$DIMTXT
 40
0.18
  9
$DIMCEN
 40
0.09
  9
$DIMTSZ
 40
0.0
  9
$DIMTOL
 70
     0
  9
$DIMLIM
 70
     0
  9
$DIMTIH
 70
     1
  9
$DIMTOH
 70
     1
  9
$DIMSE1
 70
     0
  9
$DIMSE2
 70
     0
  9
$DIMTAD
 70
     0
  9
$DIMZIN
 70
     0
  9
$DIMBLK
  1

  9
$DIMASO
 70
     1
  9
$DIMSHO
 70
     1
  9
$DIMPOST
  1

  9
$DIMAPOST
  1

  9
$DIMALT
 70
     0
  9
$DIMALTD
 70
     2
  9
$DIMALTF
 40
25.4
  9
$DIMLFAC
 40
1.0
  9
$DIMTOFL
 70
     0
  9
$DIMTVP
 40
0.0
  9
$DIMTIX
 70
     0
  9
$DIMSOXD
 70
     0
  9
$DIMSAH
 70
     0
  9
$DIMBLK1
  1

  9
$DIMBLK2
  1

  9
$DIMSTYLE
  2
Standard
  9
$DIMCLRD
 70
     0
  9
$DIMCLRE
 70
     0
  9
$DIMCLRT
 70
     0
  9
$DIMTFAC
 40
1.0
  9
$DIMGAP
 40
0.09
  9
$DIMJUST
 70
     0
  9
$DIMSD1
 70
     0
  9
$DIMSD2
 70
     0
  9
$DIMTOLJ
 70
     1
  9
$DIMTZIN
 70
     0
  9
$DIMALTZ
 70
     0
  9
$DIMALTTZ
 70
     0
  9
$DIMUPT
 70
     0
  9
$DIMDEC
 70
     4
  9
$DIMTDEC
 70
     4
  9
$DIMALTU
 70
     2
  9
$DIMALTTD
 70
     2
  9
$DIMTXSTY
  7
Standard
  9
$DIMAUNIT
 70
     0
  9
$DIMADEC
 70
     0
  9
$DIMALTRND
 40
0.0
  9
$DIMAZIN
 70
     0
  9
$DIMDSEP
 70
    46
  9
$DIMATFIT
 70
     3
  9
$DIMFRAC
 70
     0
  9
$DIMLDRBLK
  1

  9
$DIMLUNIT
 70
     2
  9
$DIMLWD
 70
    -2
  9
$DIMLWE
 70
    -2
  9
$DIMTMOVE
 70
     0
  9
$LUNITS
 70
     2
  9
$LUPREC
 70
     4
  9
$SKETCHINC
 40
0.1
  9
$FILLETRAD
 40
0.0
  9
$AUNITS
 70
     0
  9
$AUPREC
 70
     0
  9
$MENU
  1
.
  9
$ELEVATION
 40
0.0
  9
$PELEVATION
 40
0.0
  9
$THICKNESS
 40
0.0
  9
$LIMCHECK
 70
     0
  9
$CHAMFERA
 40
0.0
  9
$CHAMFERB
 40
0.0
  9
$CHAMFERC
 40
0.0
  9
$CHAMFERD
 40
0.0
  9
$SKPOLY
 70
     0
  9
$TDCREATE
 40
2454761.862595301
  9
$TDUCREATE
 40
2454761.779261967
  9
$TDUPDATE
 40
2454761.871502268
  9
$TDUUPDATE
 40
2454761.788168934
  9
$TDINDWG
 40
0.0089069676
  9
$TDUSRTIMER
 40
0.0089069676
  9
$USRTIMER
 70
     1
  9
$ANGBASE
 50
0.0
  9
$ANGDIR
 70
     0
  9
$PDMODE
 70
     0
  9
$PDSIZE
 40
0.0
  9
$PLINEWID
 40
0.0
  9
$SPLFRAME
 70
     0
  9
$SPLINETYPE
 70
     6
  9
$SPLINESEGS
 70
     8
  9
$HANDSEED
  5
539
  9
$SURFTAB1
 70
     6
  9
$SURFTAB2
 70
     6
  9
$SURFTYPE
 70
     6
  9
$SURFU
 70
     6
  9
$SURFV
 70
     6
  9
$UCSBASE
  2

  9
$UCSNAME
  2

  9
$UCSORG
 10
0.0
 20
0.0
 30
0.0
  9
$UCSXDIR
 10
1.0
 20
0.0
 30
0.0
  9
$UCSYDIR
 10
0.0
 20
1.0
 30
0.0
  9
$UCSORTHOREF
  2

  9
$UCSORTHOVIEW
 70
     1
  9
$UCSORGTOP
 10
0.0
 20
0.0
 30
0.0
  9
$UCSORGBOTTOM
 10
0.0
 20
0.0
 30
0.0
  9
$UCSORGLEFT
 10
0.0
 20
0.0
 30
0.0
  9
$UCSORGRIGHT
 10
0.0
 20
0.0
 30
0.0
  9
$UCSORGFRONT
 10
0.0
 20
0.0
 30
0.0
  9
$UCSORGBACK
 10
0.0
 20
0.0
 30
0.0
  9
$PUCSBASE
  2

  9
$PUCSNAME
  2

  9
$PUCSORG
 10
0.0
 20
0.0
 30
0.0
  9
$PUCSXDIR
 10
1.0
 20
0.0
 30
0.0
  9
$PUCSYDIR
 10
0.0
 20
1.0
 30
0.0
  9
$PUCSORTHOREF
  2

  9
$PUCSORTHOVIEW
 70
     0
  9
$PUCSORGTOP
 10
0.0
 20
0.0
 30
0.0
  9
$PUCSORGBOTTOM
 10
0.0
 20
0.0
 30
0.0
  9
$PUCSORGLEFT
 10
0.0
 20
0.0
 30
0.0
  9
$PUCSORGRIGHT
 10
0.0
 20
0.0
 30
0.0
  9
$PUCSORGFRONT
 10
0.0
 20
0.0
 30
0.0
  9
$PUCSORGBACK
 10
0.0
 20
0.0
 30
0.0
  9
$USERI1
 70
     0
  9
$USERI2
 70
     0
  9
$USERI3
 70
     0
  9
$USERI4
 70
     0
  9
$USERI5
 70
     0
  9
$USERR1
 40
0.0
  9
$USERR2
 40
0.0
  9
$USERR3
 40
0.0
  9
$USERR4
 40
0.0
  9
$USERR5
 40
0.0
  9
$WORLDVIEW
 70
     1
  9
$SHADEDGE
 70
     3
  9
$SHADEDIF
 70
    70
  9
$TILEMODE
 70
     1
  9
$MAXACTVP
 70
    64
  9
$PINSBASE
 10
0.0
 20
0.0
 30
0.0
  9
$PLIMCHECK
 70
     0
  9
$PEXTMIN
 10
1.000000000000000E+20
 20
1.000000000000000E+20
 30
1.000000000000000E+20
  9
$PEXTMAX
 10
-1.000000000000000E+20
 20
-1.000000000000000E+20
 30
-1.000000000000000E+20
  9
$PLIMMIN
 10
0.0
 20
0.0
  9
$PLIMMAX
 10
12.0
 20
9.0
  9
$UNITMODE
 70
     0
  9
$VISRETAIN
 70
     1
  9
$PLINEGEN
 70
     0
  9
$PSLTSCALE
 70
     1
  9
$TREEDEPTH
 70
  3020
  9
$CMLSTYLE
  2
Standard
  9
$CMLJUST
 70
     0
  9
$CMLSCALE
 40
1.0
  9
$PROXYGRAPHICS
 70
     1
  9
$MEASUREMENT
 70
     0
  9
$CELWEIGHT
370
    -1
  9
$ENDCAPS
280
     0
  9
$JOINSTYLE
280
     0
  9
$LWDISPLAY
290
     0
  9
$INSUNITS
 70
     0
  9
$HYPERLINKBASE
  1

  9
$STYLESHEET
  1

  9
$XEDIT
290
     1
  9
$CEPSNTYPE
380
     0
  9
$PSTYLEMODE
290
     1
  9
$FINGERPRINTGUID
  2
{11538C14-7CEF-489C-83F1-1664DEBC4D73}
  9
$VERSIONGUID
  2
{CD1874D7-2DF6-4D43-A4EB-54430BB5D7CD}
  9
$EXTNAMES
290
     1
  9
$PSVPSCALE
 40
0.0
  9
$OLESTARTUP
290
     0
  0
ENDSEC
  0
SECTION
  2
CLASSES
  0
CLASS
  1
ACDBDICTIONARYWDFLT
  2
AcDbDictionaryWithDefault
  3
AutoCAD 2000
 90
        0
280
     0
281
     0
  0
CLASS
  1
ACDBPLACEHOLDER
  2
AcDbPlaceHolder
  3
AutoCAD 2000
 90
        0
280
     0
281
     0
  0
CLASS
  1
LAYOUT
  2
AcDbLayout
  3
AutoCAD 2000
 90
        0
280
     0
281
     0
  0
CLASS
  1
DICTIONARYVAR
  2
AcDbDictionaryVar
  3
AutoCAD 2000
 90
        0
280
     0
281
     0
  0
ENDSEC
  0
SECTION
  2
TABLES
  0
TABLE
  2
VPORT
  5
8
330
0
100
AcDbSymbolTable
 70
     4
  0
VPORT
  5
538
330
8
100
AcDbSymbolTableRecord
100
AcDbViewportTableRecord
  2
*Active
 70
     0
 10
0.0
 20
0.0
 11
1.0
 21
1.0
 12
62.5
 22
443.5
 13
0.0
 23
0.0
 14
1.0
 24
1.0
 15
0.0
 25
0.0
 16
0.0
 26
0.0
 36
1.0
 17
0.0
 27
0.0
 37
0.0
 40
994.5351728388747
 41
2.078104993597951
 42
50.0
 43
0.0
 44
0.0
 50
0.0
 51
0.0
 71
     0
 72
   100
 73
     1
 74
     3
 75
     0
 76
     0
 77
     0
 78
     0
281
     0
 65
     1
110
0.0
120
0.0
130
0.0
111
1.0
121
0.0
131
0.0
112
0.0
122
1.0
132
0.0
 79
     1
146
0.0
  0
ENDTAB
  0
TABLE
  2
LTYPE
  5
5
330
0
100
AcDbSymbolTable
 70
     1
  0
LTYPE
  5
13
330
5
100
AcDbSymbolTableRecord
100
AcDbLinetypeTableRecord
  2
ByBlock
 70
     0
  3

 72
    65
 73
     0
 40
0.0
  0
LTYPE
  5
14
330
5
100
AcDbSymbolTableRecord
100
AcDbLinetypeTableRecord
  2
ByLayer
 70
     0
  3

 72
    65
 73
     0
 40
0.0
  0
LTYPE
  5
15
330
5
100
AcDbSymbolTableRecord
100
AcDbLinetypeTableRecord
  2
Continuous
 70
     0
  3
Solid line
 72
    65
 73
     0
 40
0.0
  0
ENDTAB
  0
TABLE
  2
LAYER
  5
2
330
0
100
AcDbSymbolTable
 70
     1
  0
LAYER
  5
10
330
2
100
AcDbSymbolTableRecord
100
AcDbLayerTableRecord
  2
0
 70
     0
 62
     7
  6
Continuous
370
    -3
390
F
  0
ENDTAB
  0
TABLE
  2
STYLE
  5
3
330
0
100
AcDbSymbolTable
 70
     1
  0
STYLE
  5
11
330
3
100
AcDbSymbolTableRecord
100
AcDbTextStyleTableRecord
  2
Standard
 70
     0
 40
0.0
 41
1.0
 50
0.0
 71
     0
 42
0.2
  3
txt
  4

  0
ENDTAB
  0
TABLE
  2
VIEW
  5
6
330
0
100
AcDbSymbolTable
 70
     0
  0
ENDTAB
  0
TABLE
  2
UCS
  5
7
330
0
100
AcDbSymbolTable
 70
     0
  0
ENDTAB
  0
TABLE
  2
APPID
  5
9
330
0
100
AcDbSymbolTable
 70
     1
  0
APPID
  5
12
330
9
100
AcDbSymbolTableRecord
100
AcDbRegAppTableRecord
  2
ACAD
 70
     0
  0
ENDTAB
  0
TABLE
  2
DIMSTYLE
  5
A
330
0
100
AcDbSymbolTable
 70
     1
100
AcDbDimStyleTable
 71
     0
  0
DIMSTYLE
105
52D
330
A
100
AcDbSymbolTableRecord
100
AcDbDimStyleTableRecord
  2
Standard
 70
     0
340
11
  0
ENDTAB
  0
TABLE
  2
BLOCK_RECORD
  5
1
330
0
100
AcDbSymbolTable
 70
     0
  0
BLOCK_RECORD
  5
1E
330
1
100
AcDbSymbolTableRecord
100
AcDbBlockTableRecord
  2
*Model_Space
340
21
  0
BLOCK_RECORD
  5
1A
330
1
100
AcDbSymbolTableRecord
100
AcDbBlockTableRecord
  2
*Paper_Space
340
1D
  0
ENDTAB
  0
ENDSEC
  0
SECTION
  2
BLOCKS
  0
BLOCK
  5
1F
330
1E
100
AcDbEntity
  8
0
100
AcDbBlockBegin
  2
*Model_Space
 70
     0
 10
0.0
 20
0.0
 30
0.0
  3
*Model_Space
  1

  0
ENDBLK
  5
20
330
1E
100
AcDbEntity
  8
0
100
AcDbBlockEnd
  0
BLOCK
  5
1B
330
1A
100
AcDbEntity
 67
     1
  8
0
100
AcDbBlockBegin
  2
*Paper_Space
 70
     0
 10
0.0
 20
0.0
 30
0.0
  3
*Paper_Space
  1

  0
ENDBLK
  5
1C
330
1A
100
AcDbEntity
 67
     1
  8
0
100
AcDbBlockEnd
  0
ENDSEC
  0
SECTION
  2
ENTITIES
  0
LINE
  5
22
330
1E
100
AcDbEntity
  8
0
100
AcDbLine
 10
0.548874999999998
 20
714.7212849999999
 30
0.0
 11
0.988654999999998
 21
714.8812849999999
 31
0.0
  0
LINE
  5
23
330
1E
100
AcDbEntity
  8
0
100
AcDbLine
 10
1.563745
 20
715.090285
 30
0.0
 11
2.217775
 21
715.3282849999999
 31
0.0
  0
LINE
  5
24
330
1E
100
AcDbEntity
  8
0
100
AcDbLine
 10
2.928185
 20
715.5872849999999
 30
0.0
 11
3.638594999999999
 21
715.8452849999999
 31
0.0
  0
LINE
  5
25
330
1E
100
AcDbEntity
  8
0
100
AcDbLine
 10
2.217775
 20
715.3282849999999
 30
0.0
 11
2.928185
 21
715.5872849999999
 31
0.0
  0
LINE
  5
26
330
1E
100
AcDbEntity
  8
0
100
AcDbLine
 10
0.988654999999998
 20
714.8812849999999
 30
0.0
 11
1.563745
 21
715.090285
 31
0.0
  0
LINE
  5
27
330
1E
100
AcDbEntity
  8
0
100
AcDbLine
 10
0.2782449999999979
 20
714.6222849999999
 30
0.0
 11
0.548874999999998
 21
714.7212849999999
 31
0.0
  0
LINE
  5
28
330
1E
100
AcDbEntity
  8
0
100
AcDbLine
 10
0.176764999999997
 20
714.5852849999999
 30
0.0
 11
0.314314999999998
 21
713.9972849999999
 31
0.0
  0
LINE
  5
29
330
1E
100
AcDbEntity
  8
0
100
AcDbLine
 10
0.176764999999997
 20
714.5852849999999
 30
0.0
 11
0.2782449999999979
 21
714.6222849999999
 31
0.0
  0
LINE
  5
2A
330
1E
100
AcDbEntity
  8
0
100
AcDbLine
 10
0.314314999999998
 20
713.9972849999999
 30
0.0
 11
6.023234999999999
 21
698.3116843504119
 31
0.0
  0
LINE
  5
2B
330
1E
100
AcDbEntity
  8
0
100
AcDbLine
 10
4.292615
 20
716.0832849999999
 30
0.0
 11
4.867704999999999
 21
716.2932849999999
 31
0.0
  0
LINE
  5
2C
330
1E
100
AcDbEntity
  8
0
100
AcDbLine
 10
3.638594999999999
 20
715.8452849999999
 30
0.0
 11
4.292615
 21
716.0832849999999
 31
0.0
  0
LINE
  5
2D
330
1E
100
AcDbEntity
  8
0
100
AcDbLine
 10
4.867704999999999
 20
716.2932849999999
 30
0.0
 11
5.307484999999999
 21
716.4532849999999
 31
0.0
  0
LINE
  5
2E
330
1E
100
AcDbEntity
  8
0
100
AcDbLine
 10
5.307484999999999
 20
716.4532849999999
 30
0.0
 11
5.578115
 21
716.5512849999999
 31
0.0
  0
LINE
  5
2F
330
1E
100
AcDbEntity
  8
0
100
AcDbLine
 10
5.679605
 20
716.5882849999999
 30
0.0
 11
5.952474999999999
 21
716.0492849999999
 31
0.0
  0
LINE
  5
30
330
1E
100
AcDbEntity
  8
0
100
AcDbLine
 10
5.578115
 20
716.5512849999999
 30
0.0
 11
5.679605
 21
716.5882849999999
 31
0.0
  0
LINE
  5
31
330
1E
100
AcDbEntity
  8
0
100
AcDbLine
 10
41.42323499999999
 20
-21.51871499999998
 30
0.0
 11
42.523235
 21
-21.51871499999998
 31
0.0
  0
LINE
  5
32
330
1E
100
AcDbEntity
  8
0
100
AcDbLine
 10
41.02323499999999
 20
-21.51871499999998
 30
0.0
 11
41.02323499999999
 21
29.48128500000001
 31
0.0
  0
LINE
  5
33
330
1E
100
AcDbEntity
  8
0
100
AcDbLine
 10
41.02323499999999
 20
-21.51871499999998
 30
0.0
 11
41.42323499999999
 21
-21.51871499999998
 31
0.0
  0
LINE
  5
34
330
1E
100
AcDbEntity
  8
0
100
AcDbLine
 10
41.02323499999999
 20
-21.51871499999998
 30
0.0
 11
41.523235
 21
-22.01871499999998
 31
0.0
  0
LINE
  5
35
330
1E
100
AcDbEntity
  8
0
100
AcDbLine
 10
41.92323499999999
 20
-22.01871499999998
 30
0.0
 11
42.923235
 21
-22.01871499999998
 31
0.0
  0
LINE
  5
36
330
1E
100
AcDbEntity
  8
0
100
AcDbLine
 10
41.523235
 20
-22.01871499999998
 30
0.0
 11
52.023235
 21
-22.01871499999998
 31
0.0
  0
LINE
  5
37
330
1E
100
AcDbEntity
  8
0
100
AcDbLine
 10
41.523235
 20
-22.01871499999998
 30
0.0
 11
41.92323499999999
 21
-22.01871499999998
 31
0.0
  0
LINE
  5
38
330
1E
100
AcDbEntity
  8
0
100
AcDbLine
 10
41.42323499999999
 20
29.48128500000001
 30
0.0
 11
42.523235
 21
29.48128500000001
 31
0.0
  0
LINE
  5
39
330
1E
100
AcDbEntity
  8
0
100
AcDbLine
 10
41.02323499999999
 20
29.48128500000001
 30
0.0
 11
41.523235
 21
29.98128500000001
 31
0.0
  0
LINE
  5
3A
330
1E
100
AcDbEntity
  8
0
100
AcDbLine
 10
41.02323499999999
 20
29.48128500000001
 30
0.0
 11
41.42323499999999
 21
29.48128500000001
 31
0.0
  0
LINE
  5
3B
330
1E
100
AcDbEntity
  8
0
100
AcDbLine
 10
41.02323499999999
 20
29.48128500000001
 30
0.0
 11
41.02323499999999
 21
-21.51871499999998
 31
0.0
  0
LINE
  5
3C
330
1E
100
AcDbEntity
  8
0
100
AcDbLine
 10
42.923235
 20
-22.01871499999998
 30
0.0
 11
44.623235
 21
-22.01871499999998
 31
0.0
  0
LINE
  5
3D
330
1E
100
AcDbEntity
  8
0
100
AcDbLine
 10
44.223235
 20
-21.51871499999998
 30
0.0
 11
46.523235
 21
-21.51871499999998
 31
0.0
  0
LINE
  5
3E
330
1E
100
AcDbEntity
  8
0
100
AcDbLine
 10
42.523235
 20
-21.51871499999998
 30
0.0
 11
44.223235
 21
-21.51871499999998
 31
0.0
  0
LINE
  5
3F
330
1E
100
AcDbEntity
  8
0
100
AcDbLine
 10
44.623235
 20
-22.01871499999998
 30
0.0
 11
46.82323499999999
 21
-22.01871499999998
 31
0.0
  0
LINE
  5
40
330
1E
100
AcDbEntity
  8
0
100
AcDbLine
 10
44.223235
 20
29.48128500000001
 30
0.0
 11
46.523235
 21
29.48128500000001
 31
0.0
  0
LINE
  5
41
330
1E
100
AcDbEntity
  8
0
100
AcDbLine
 10
42.523235
 20
29.48128500000001
 30
0.0
 11
44.223235
 21
29.48128500000001
 31
0.0
  0
LINE
  5
42
330
1E
100
AcDbEntity
  8
0
100
AcDbLine
 10
46.82323499999999
 20
-22.01871499999998
 30
0.0
 11
49.32323499999999
 21
-22.01871499999998
 31
0.0
  0
LINE
  5
43
330
1E
100
AcDbEntity
  8
0
100
AcDbLine
 10
49.223235
 20
-21.51871499999998
 30
0.0
 11
52.023235
 21
-21.51871499999998
 31
0.0
  0
LINE
  5
44
330
1E
100
AcDbEntity
  8
0
100
AcDbLine
 10
46.523235
 20
-21.51871499999998
 30
0.0
 11
49.223235
 21
-21.51871499999998
 31
0.0
  0
LINE
  5
45
330
1E
100
AcDbEntity
  8
0
100
AcDbLine
 10
49.32323499999999
 20
-22.01871499999998
 30
0.0
 11
52.023235
 21
-22.01871499999998
 31
0.0
  0
LINE
  5
46
330
1E
100
AcDbEntity
  8
0
100
AcDbLine
 10
49.223235
 20
29.48128500000001
 30
0.0
 11
52.023235
 21
29.48128500000001
 31
0.0
  0
LINE
  5
47
330
1E
100
AcDbEntity
  8
0
100
AcDbLine
 10
46.523235
 20
29.48128500000001
 30
0.0
 11
49.223235
 21
29.48128500000001
 31
0.0
  0
LINE
  5
48
330
1E
100
AcDbEntity
  8
0
100
AcDbLine
 10
52.023235
 20
-22.01871499999998
 30
0.0
 11
62.523235
 21
-22.01871499999998
 31
0.0
  0
LINE
  5
49
330
1E
100
AcDbEntity
  8
0
100
AcDbLine
 10
52.023235
 20
-22.01871499999998
 30
0.0
 11
54.72323499999999
 21
-22.01871499999998
 31
0.0
  0
LINE
  5
4A
330
1E
100
AcDbEntity
  8
0
100
AcDbLine
 10
52.023235
 20
-21.51871499999998
 30
0.0
 11
54.82323499999999
 21
-21.51871499999998
 31
0.0
  0
LINE
  5
4B
330
1E
100
AcDbEntity
  8
0
100
AcDbLine
 10
52.023235
 20
29.48128500000001
 30
0.0
 11
54.82323499999999
 21
29.48128500000001
 31
0.0
  0
LINE
  5
4C
330
1E
100
AcDbEntity
  8
0
100
AcDbLine
 10
54.72323499999999
 20
-22.01871499999998
 30
0.0
 11
57.22323499999999
 21
-22.01871499999998
 31
0.0
  0
LINE
  5
4D
330
1E
100
AcDbEntity
  8
0
100
AcDbLine
 10
57.22323499999999
 20
-22.01871499999998
 30
0.0
 11
59.423235
 21
-22.01871499999998
 31
0.0
  0
LINE
  5
4E
330
1E
100
AcDbEntity
  8
0
100
AcDbLine
 10
54.82323499999999
 20
-21.51871499999998
 30
0.0
 11
57.523235
 21
-21.51871499999998
 31
0.0
  0
LINE
  5
4F
330
1E
100
AcDbEntity
  8
0
100
AcDbLine
 10
54.82323499999999
 20
29.48128500000001
 30
0.0
 11
57.523235
 21
29.48128500000001
 31
0.0
  0
LINE
  5
50
330
1E
100
AcDbEntity
  8
0
100
AcDbLine
 10
52.023235
 20
29.98128500000001
 30
0.0
 11
54.72323499999999
 21
29.98128500000001
 31
0.0
  0
LINE
  5
51
330
1E
100
AcDbEntity
  8
0
100
AcDbLine
 10
54.72323499999999
 20
29.98128500000001
 30
0.0
 11
57.22323499999999
 21
29.98128500000001
 31
0.0
  0
LINE
  5
52
330
1E
100
AcDbEntity
  8
0
100
AcDbLine
 10
57.523235
 20
-21.51871499999998
 30
0.0
 11
59.82323499999999
 21
-21.51871499999998
 31
0.0
  0
LINE
  5
53
330
1E
100
AcDbEntity
  8
0
100
AcDbLine
 10
59.423235
 20
-22.01871499999998
 30
0.0
 11
61.123235
 21
-22.01871499999998
 31
0.0
  0
LINE
  5
54
330
1E
100
AcDbEntity
  8
0
100
AcDbLine
 10
61.123235
 20
-22.01871499999998
 30
0.0
 11
62.123235
 21
-22.01871499999998
 31
0.0
  0
LINE
  5
55
330
1E
100
AcDbEntity
  8
0
100
AcDbLine
 10
59.82323499999999
 20
-21.51871499999998
 30
0.0
 11
61.523235
 21
-21.51871499999998
 31
0.0
  0
LINE
  5
56
330
1E
100
AcDbEntity
  8
0
100
AcDbLine
 10
57.523235
 20
29.48128500000001
 30
0.0
 11
59.82323499999999
 21
29.48128500000001
 31
0.0
  0
LINE
  5
57
330
1E
100
AcDbEntity
  8
0
100
AcDbLine
 10
59.82323499999999
 20
29.48128500000001
 30
0.0
 11
61.523235
 21
29.48128500000001
 31
0.0
  0
LINE
  5
58
330
1E
100
AcDbEntity
  8
0
100
AcDbLine
 10
57.22323499999999
 20
29.98128500000001
 30
0.0
 11
59.423235
 21
29.98128500000001
 31
0.0
  0
LINE
  5
59
330
1E
100
AcDbEntity
  8
0
100
AcDbLine
 10
59.423235
 20
29.98128500000001
 30
0.0
 11
61.123235
 21
29.98128500000001
 31
0.0
  0
LINE
  5
5A
330
1E
100
AcDbEntity
  8
0
100
AcDbLine
 10
62.123235
 20
-22.01871499999998
 30
0.0
 11
62.523235
 21
-22.01871499999998
 31
0.0
  0
LINE
  5
5B
330
1E
100
AcDbEntity
  8
0
100
AcDbLine
 10
62.523235
 20
-22.01871499999998
 30
0.0
 11
63.02323499999999
 21
-21.51871499999998
 31
0.0
  0
LINE
  5
5C
330
1E
100
AcDbEntity
  8
0
100
AcDbLine
 10
61.523235
 20
-21.51871499999998
 30
0.0
 11
62.623235
 21
-21.51871499999998
 31
0.0
  0
LINE
  5
5D
330
1E
100
AcDbEntity
  8
0
100
AcDbLine
 10
62.623235
 20
-21.51871499999998
 30
0.0
 11
63.02323499999999
 21
-21.51871499999998
 31
0.0
  0
LINE
  5
5E
330
1E
100
AcDbEntity
  8
0
100
AcDbLine
 10
61.523235
 20
29.48128500000001
 30
0.0
 11
62.623235
 21
29.48128500000001
 31
0.0
  0
LINE
  5
5F
330
1E
100
AcDbEntity
  8
0
100
AcDbLine
 10
73.512035
 20
-49.98128499999999
 30
0.0
 11
74.397835
 21
525.364285
 31
0.0
  0
LINE
  5
60
330
1E
100
AcDbEntity
  8
0
100
AcDbLine
 10
73.512035
 20
-49.98128500000002
 30
0.0
 11
73.77513499999999
 21
-49.85238500000002
 31
0.0
  0
LINE
  5
61
330
1E
100
AcDbEntity
  8
0
100
AcDbLine
 10
73.512035
 20
-49.98128499999999
 30
0.0
 11
74.397835
 21
525.364285
 31
0.0
  0
LINE
  5
62
330
1E
100
AcDbEntity
  8
0
100
AcDbLine
 10
74.548035
 20
-49.47298500000002
 30
0.0
 11
76.485935
 21
-48.52198500000002
 31
0.0
  0
LINE
  5
63
330
1E
100
AcDbEntity
  8
0
100
AcDbLine
 10
74.22142509517779
 20
-49.63323192530998
 30
0.0
 11
74.548035
 21
-49.47298500000002
 31
0.0
  0
LINE
  5
64
330
1E
100
AcDbEntity
  8
0
100
AcDbLine
 10
73.77513499999999
 20
-49.85238500000002
 30
0.0
 11
75.206135
 21
-49.14968500000002
 31
0.0
  0
LINE
  5
65
330
1E
100
AcDbEntity
  8
0
100
AcDbLine
 10
76.485935
 20
-48.52198500000002
 30
0.0
 11
76.94231014915658
 21
-48.29789171959708
 31
0.0
  0
LINE
  5
66
330
1E
100
AcDbEntity
  8
0
100
AcDbLine
 10
75.206135
 20
-49.14968500000002
 30
0.0
 11
77.60353499999999
 21
-47.97348500000001
 31
0.0
  0
LINE
  5
67
330
1E
100
AcDbEntity
  8
0
100
AcDbLine
 10
80.516135
 20
-46.54378500000002
 30
0.0
 11
83.665835
 21
-44.99878500000002
 31
0.0
  0
LINE
  5
68
330
1E
100
AcDbEntity
  8
0
100
AcDbLine
 10
82.42753499999999
 20
-45.60638500000002
 30
0.0
 11
83.4618890402513
 21
-45.09882516503535
 31
0.0
  0
LINE
  5
69
330
1E
100
AcDbEntity
  8
0
100
AcDbLine
 10
84.1218978474037
 20
-44.77495737103306
 30
0.0
 11
85.336835
 21
-44.17878500000002
 31
0.0
  0
LINE
  5
6A
330
1E
100
AcDbEntity
  8
0
100
AcDbLine
 10
85.336835
 20
-44.17878500000002
 30
0.0
 11
87.73283499999999
 21
-43.00268500000002
 31
0.0
  0
LINE
  5
6B
330
1E
100
AcDbEntity
  8
0
100
AcDbLine
 10
87.73283499999999
 20
-43.00268500000002
 30
0.0
 11
89.167535
 21
-42.29888500000002
 31
0.0
  0
LINE
  5
6C
330
1E
100
AcDbEntity
  8
0
100
AcDbLine
 10
89.43423499999999
 20
-42.16778500000001
 30
0.0
 11
90.39803499999999
 21
525.363285
 31
0.0
  0
LINE
  5
6D
330
1E
100
AcDbEntity
  8
0
100
AcDbLine
 10
89.167535
 20
-42.29888500000002
 30
0.0
 11
89.43423499999999
 21
-42.16778500000001
 31
0.0
  0
LINE
  5
6E
330
1E
100
AcDbEntity
  8
0
100
AcDbLine
 10
89.43423499999999
 20
-42.16778500000001
 30
0.0
 11
90.39803499999999
 21
525.363285
 31
0.0
  0
LINE
  5
6F
330
1E
100
AcDbEntity
  8
0
100
AcDbLine
 10
88.404135
 20
-42.67298500000001
 30
0.0
 11
89.43423499999999
 21
-42.16778500000001
 31
0.0
  0
LINE
  5
70
330
1E
100
AcDbEntity
  8
0
100
AcDbLine
 10
86.464835
 20
-43.62508500000002
 30
0.0
 11
88.404135
 21
-42.67298500000001
 31
0.0
  0
LINE
  5
71
330
1E
100
AcDbEntity
  8
0
100
AcDbLine
 10
83.665835
 20
-44.99878500000002
 30
0.0
 11
86.464835
 21
-43.62508500000002
 31
0.0
  0
LINE
  5
72
330
1E
100
AcDbEntity
  8
0
100
AcDbLine
 10
80.52136521354681
 20
-46.54121946044711
 30
0.0
 11
82.42753499999999
 21
-45.60638500000002
 31
0.0
  0
LINE
  5
73
330
1E
100
AcDbEntity
  8
0
100
AcDbLine
 10
77.60353499999999
 20
-47.97348500000001
 30
0.0
 11
80.516135
 21
-46.54378500000002
 31
0.0
  0
LINE
  5
74
330
1E
100
AcDbEntity
  8
0
100
AcDbLine
 10
62.623235
 20
29.48128500000001
 30
0.0
 11
63.02323499999999
 21
29.48128500000001
 31
0.0
  0
LINE
  5
75
330
1E
100
AcDbEntity
  8
0
100
AcDbLine
 10
62.523235
 20
29.98128500000001
 30
0.0
 11
63.02323499999999
 21
29.48128500000001
 31
0.0
  0
LINE
  5
76
330
1E
100
AcDbEntity
  8
0
100
AcDbLine
 10
62.523235
 20
29.98128500000001
 30
0.0
 11
63.02323499999999
 21
30.48228499999999
 31
0.0
  0
LINE
  5
77
330
1E
100
AcDbEntity
  8
0
100
AcDbLine
 10
61.123235
 20
29.98128500000001
 30
0.0
 11
62.123235
 21
29.98128500000001
 31
0.0
  0
LINE
  5
78
330
1E
100
AcDbEntity
  8
0
100
AcDbLine
 10
62.123235
 20
29.98128500000001
 30
0.0
 11
62.523235
 21
29.98128500000001
 31
0.0
  0
LINE
  5
79
330
1E
100
AcDbEntity
  8
0
100
AcDbLine
 10
49.32323499999999
 20
29.98128500000001
 30
0.0
 11
52.023235
 21
29.98128500000001
 31
0.0
  0
LINE
  5
7A
330
1E
100
AcDbEntity
  8
0
100
AcDbLine
 10
46.82323499999999
 20
29.98128500000001
 30
0.0
 11
49.32323499999999
 21
29.98128500000001
 31
0.0
  0
LINE
  5
7B
330
1E
100
AcDbEntity
  8
0
100
AcDbLine
 10
44.623235
 20
29.98128500000001
 30
0.0
 11
46.82323499999999
 21
29.98128500000001
 31
0.0
  0
LINE
  5
7C
330
1E
100
AcDbEntity
  8
0
100
AcDbLine
 10
42.923235
 20
29.98128500000001
 30
0.0
 11
44.623235
 21
29.98128500000001
 31
0.0
  0
LINE
  5
7D
330
1E
100
AcDbEntity
  8
0
100
AcDbLine
 10
41.92323499999999
 20
29.98128500000001
 30
0.0
 11
42.923235
 21
29.98128500000001
 31
0.0
  0
LINE
  5
7E
330
1E
100
AcDbEntity
  8
0
100
AcDbLine
 10
6.484734999999999
 20
667.9812849999999
 30
0.0
 11
37.561735
 21
667.9812849999999
 31
0.0
  0
LINE
  5
7F
330
1E
100
AcDbEntity
  8
0
100
AcDbLine
 10
38.484735
 20
667.9812849999999
 30
0.0
 11
38.484735
 21
668.647285
 31
0.0
  0
LINE
  5
80
330
1E
100
AcDbEntity
  8
0
100
AcDbLine
 10
38.484735
 20
667.9812849999999
 30
0.0
 11
41.02323499999999
 21
667.9812849999999
 31
0.0
  0
LINE
  5
81
330
1E
100
AcDbEntity
  8
0
100
AcDbLine
 10
6.484734999999999
 20
667.9812849999999
 30
0.0
 11
6.484734999999999
 21
668.647285
 31
0.0
  0
LINE
  5
82
330
1E
100
AcDbEntity
  8
0
100
AcDbLine
 10
6.484734999999999
 20
667.9812849999999
 30
0.0
 11
37.561735
 21
667.9812849999999
 31
0.0
  0
LINE
  5
83
330
1E
100
AcDbEntity
  8
0
100
AcDbLine
 10
6.023234999999999
 20
668.4252849999999
 30
0.0
 11
6.023234999999999
 21
669.091285
 31
0.0
  0
LINE
  5
84
330
1E
100
AcDbEntity
  8
0
100
AcDbLine
 10
6.023234999999999
 20
668.4252849999999
 30
0.0
 11
6.484734999999999
 21
667.9812849999999
 31
0.0
  0
LINE
  5
85
330
1E
100
AcDbEntity
  8
0
100
AcDbLine
 10
6.484734999999999
 20
668.647285
 30
0.0
 11
6.484734999999999
 21
670.4232849999999
 31
0.0
  0
LINE
  5
86
330
1E
100
AcDbEntity
  8
0
100
AcDbLine
 10
6.484734999999999
 20
668.647285
 30
0.0
 11
6.484734999999999
 21
667.9812849999999
 31
0.0
  0
LINE
  5
87
330
1E
100
AcDbEntity
  8
0
100
AcDbLine
 10
38.02323499999999
 20
668.4252849999999
 30
0.0
 11
38.02323499999999
 21
669.091285
 31
0.0
  0
LINE
  5
88
330
1E
100
AcDbEntity
  8
0
100
AcDbLine
 10
38.02323499999999
 20
668.4252849999999
 30
0.0
 11
38.484735
 21
667.9812849999999
 31
0.0
  0
LINE
  5
89
330
1E
100
AcDbEntity
  8
0
100
AcDbLine
 10
6.023234999999999
 20
669.091285
 30
0.0
 11
6.023234999999999
 21
670.8672849999999
 31
0.0
  0
LINE
  5
8A
330
1E
100
AcDbEntity
  8
0
100
AcDbLine
 10
6.023234999999999
 20
669.091285
 30
0.0
 11
6.023234999999999
 21
668.4252849999999
 31
0.0
  0
LINE
  5
8B
330
1E
100
AcDbEntity
  8
0
100
AcDbLine
 10
6.484734999999999
 20
670.4232849999999
 30
0.0
 11
6.484734999999999
 21
673.3832849999999
 31
0.0
  0
LINE
  5
8C
330
1E
100
AcDbEntity
  8
0
100
AcDbLine
 10
6.484734999999999
 20
670.4232849999999
 30
0.0
 11
6.484734999999999
 21
668.647285
 31
0.0
  0
LINE
  5
8D
330
1E
100
AcDbEntity
  8
0
100
AcDbLine
 10
6.023234999999999
 20
670.8672849999999
 30
0.0
 11
6.023234999999999
 21
673.753285
 31
0.0
  0
LINE
  5
8E
330
1E
100
AcDbEntity
  8
0
100
AcDbLine
 10
6.023234999999999
 20
670.8672849999999
 30
0.0
 11
6.023234999999999
 21
669.091285
 31
0.0
  0
LINE
  5
8F
330
1E
100
AcDbEntity
  8
0
100
AcDbLine
 10
6.484734999999999
 20
673.3832849999999
 30
0.0
 11
6.484734999999999
 21
677.3052849999999
 31
0.0
  0
LINE
  5
90
330
1E
100
AcDbEntity
  8
0
100
AcDbLine
 10
6.484734999999999
 20
673.3832849999999
 30
0.0
 11
6.484734999999999
 21
670.4232849999999
 31
0.0
  0
LINE
  5
91
330
1E
100
AcDbEntity
  8
0
100
AcDbLine
 10
6.023234999999999
 20
673.753285
 30
0.0
 11
6.023234999999999
 21
677.527285
 31
0.0
  0
LINE
  5
92
330
1E
100
AcDbEntity
  8
0
100
AcDbLine
 10
6.023234999999999
 20
673.753285
 30
0.0
 11
6.023234999999999
 21
670.8672849999999
 31
0.0
  0
LINE
  5
93
330
1E
100
AcDbEntity
  8
0
100
AcDbLine
 10
6.484734999999999
 20
677.3052849999999
 30
0.0
 11
6.484734999999999
 21
681.7452849999999
 31
0.0
  0
LINE
  5
94
330
1E
100
AcDbEntity
  8
0
100
AcDbLine
 10
6.484734999999999
 20
677.3052849999999
 30
0.0
 11
6.484734999999999
 21
673.3832849999999
 31
0.0
  0
LINE
  5
95
330
1E
100
AcDbEntity
  8
0
100
AcDbLine
 10
6.023234999999999
 20
677.527285
 30
0.0
 11
6.023234999999999
 21
681.8192849999999
 31
0.0
  0
LINE
  5
96
330
1E
100
AcDbEntity
  8
0
100
AcDbLine
 10
6.023234999999999
 20
677.527285
 30
0.0
 11
6.023234999999999
 21
673.753285
 31
0.0
  0
LINE
  5
97
330
1E
100
AcDbEntity
  8
0
100
AcDbLine
 10
6.484734999999999
 20
681.7452849999999
 30
0.0
 11
6.484734999999999
 21
686.4812849999999
 31
0.0
  0
LINE
  5
98
330
1E
100
AcDbEntity
  8
0
100
AcDbLine
 10
6.484734999999999
 20
681.7452849999999
 30
0.0
 11
6.484734999999999
 21
677.3052849999999
 31
0.0
  0
LINE
  5
99
330
1E
100
AcDbEntity
  8
0
100
AcDbLine
 10
6.023234999999999
 20
686.4812849999999
 30
0.0
 11
6.023234999999999
 21
681.8192849999999
 31
0.0
  0
LINE
  5
9A
330
1E
100
AcDbEntity
  8
0
100
AcDbLine
 10
6.023234999999999
 20
686.4812849999999
 30
0.0
 11
6.023234999999999
 21
691.1432849999999
 31
0.0
  0
LINE
  5
9B
330
1E
100
AcDbEntity
  8
0
100
AcDbLine
 10
6.484734999999999
 20
686.4812849999999
 30
0.0
 11
6.484734999999999
 21
681.7452849999999
 31
0.0
  0
LINE
  5
9C
330
1E
100
AcDbEntity
  8
0
100
AcDbLine
 10
6.484734999999999
 20
686.4812849999999
 30
0.0
 11
6.484734999999999
 21
691.2172849999999
 31
0.0
  0
LINE
  5
9D
330
1E
100
AcDbEntity
  8
0
100
AcDbLine
 10
6.023234999999999
 20
681.8192849999999
 30
0.0
 11
6.023234999999999
 21
686.4812849999999
 31
0.0
  0
LINE
  5
9E
330
1E
100
AcDbEntity
  8
0
100
AcDbLine
 10
6.023234999999999
 20
681.8192849999999
 30
0.0
 11
6.023234999999999
 21
677.527285
 31
0.0
  0
LINE
  5
9F
330
1E
100
AcDbEntity
  8
0
100
AcDbLine
 10
6.023234999999999
 20
691.1432849999999
 30
0.0
 11
6.023234999999999
 21
695.4352849999999
 31
0.0
  0
LINE
  5
A0
330
1E
100
AcDbEntity
  8
0
100
AcDbLine
 10
6.023234999999999
 20
691.1432849999999
 30
0.0
 11
6.023234999999999
 21
686.4812849999999
 31
0.0
  0
LINE
  5
A1
330
1E
100
AcDbEntity
  8
0
100
AcDbLine
 10
6.023234999999999
 20
695.4352849999999
 30
0.0
 11
6.023234999999999
 21
698.3116843504119
 31
0.0
  0
LINE
  5
A2
330
1E
100
AcDbEntity
  8
0
100
AcDbLine
 10
6.023234999999999
 20
695.4352849999999
 30
0.0
 11
6.023234999999999
 21
691.1432849999999
 31
0.0
  0
LINE
  5
A3
330
1E
100
AcDbEntity
  8
0
100
AcDbLine
 10
6.023234999999999
 20
695.4352849999999
 30
0.0
 11
6.023234999999999
 21
698.3116843504119
 31
0.0
  0
LINE
  5
A4
330
1E
100
AcDbEntity
  8
0
100
AcDbLine
 10
6.484734999999999
 20
691.2172849999999
 30
0.0
 11
6.484734999999999
 21
695.657285
 31
0.0
  0
LINE
  5
A5
330
1E
100
AcDbEntity
  8
0
100
AcDbLine
 10
6.484734999999999
 20
691.2172849999999
 30
0.0
 11
6.484734999999999
 21
686.4812849999999
 31
0.0
  0
LINE
  5
A6
330
1E
100
AcDbEntity
  8
0
100
AcDbLine
 10
6.023234999999999
 20
698.3116843504119
 30
0.0
 11
6.023234999999999
 21
695.4352849999999
 31
0.0
  0
LINE
  5
A8
330
1E
100
AcDbEntity
  8
0
100
AcDbLine
 10
6.023234999999999
 20
698.3116843504119
 30
0.0
 11
6.023234999999999
 21
695.4352849999999
 31
0.0
  0
LINE
  5
AB
330
1E
100
AcDbEntity
  8
0
100
AcDbLine
 10
6.484734999999999
 20
695.657285
 30
0.0
 11
6.484734999999999
 21
699.5792849999999
 31
0.0
  0
LINE
  5
AC
330
1E
100
AcDbEntity
  8
0
100
AcDbLine
 10
6.484734999999999
 20
695.657285
 30
0.0
 11
6.484734999999999
 21
691.2172849999999
 31
0.0
  0
LINE
  5
AE
330
1E
100
AcDbEntity
  8
0
100
AcDbLine
 10
6.484734999999999
 20
698.189975730603
 30
0.0
 11
6.484734999999999
 21
695.657285
 31
0.0
  0
LINE
  5
B3
330
1E
100
AcDbEntity
  8
0
100
AcDbLine
 10
37.561735
 20
691.2172849999999
 30
0.0
 11
37.561735
 21
686.4812849999999
 31
0.0
  0
LINE
  5
B4
330
1E
100
AcDbEntity
  8
0
100
AcDbLine
 10
37.561735
 20
691.2172849999999
 30
0.0
 11
37.561735
 21
695.657285
 31
0.0
  0
LINE
  5
B5
330
1E
100
AcDbEntity
  8
0
100
AcDbLine
 10
37.561735
 20
695.657285
 30
0.0
 11
37.561735
 21
691.2172849999999
 31
0.0
  0
LINE
  5
B6
330
1E
100
AcDbEntity
  8
0
100
AcDbLine
 10
37.561735
 20
695.657285
 30
0.0
 11
37.561735
 21
699.5792849999999
 31
0.0
  0
LINE
  5
B7
330
1E
100
AcDbEntity
  8
0
100
AcDbLine
 10
37.561735
 20
699.5792849999999
 30
0.0
 11
37.561735
 21
695.657285
 31
0.0
  0
LINE
  5
B8
330
1E
100
AcDbEntity
  8
0
100
AcDbLine
 10
37.561735
 20
699.5792849999999
 30
0.0
 11
37.561735
 21
702.5392849999999
 31
0.0
  0
LINE
  5
B9
330
1E
100
AcDbEntity
  8
0
100
AcDbLine
 10
38.02323499999999
 20
691.1432849999999
 30
0.0
 11
38.02323499999999
 21
686.4812849999999
 31
0.0
  0
LINE
  5
BA
330
1E
100
AcDbEntity
  8
0
100
AcDbLine
 10
38.02323499999999
 20
691.1432849999999
 30
0.0
 11
38.02323499999999
 21
695.4352849999999
 31
0.0
  0
LINE
  5
BB
330
1E
100
AcDbEntity
  8
0
100
AcDbLine
 10
38.02323499999999
 20
695.4352849999999
 30
0.0
 11
38.02323499999999
 21
691.1432849999999
 31
0.0
  0
LINE
  5
BC
330
1E
100
AcDbEntity
  8
0
100
AcDbLine
 10
38.02323499999999
 20
695.4352849999999
 30
0.0
 11
38.02323499999999
 21
699.2092849999998
 31
0.0
  0
LINE
  5
BD
330
1E
100
AcDbEntity
  8
0
100
AcDbLine
 10
38.02323499999999
 20
699.2092849999998
 30
0.0
 11
38.02323499999999
 21
695.4352849999999
 31
0.0
  0
LINE
  5
BE
330
1E
100
AcDbEntity
  8
0
100
AcDbLine
 10
38.02323499999999
 20
699.2092849999998
 30
0.0
 11
38.02323499999999
 21
702.095285
 31
0.0
  0
LINE
  5
BF
330
1E
100
AcDbEntity
  8
0
100
AcDbLine
 10
38.02323499999999
 20
702.095285
 30
0.0
 11
38.02323499999999
 21
699.2092849999998
 31
0.0
  0
LINE
  5
C0
330
1E
100
AcDbEntity
  8
0
100
AcDbLine
 10
38.02323499999999
 20
702.095285
 30
0.0
 11
38.02323499999999
 21
703.8712849999999
 31
0.0
  0
LINE
  5
C1
330
1E
100
AcDbEntity
  8
0
100
AcDbLine
 10
38.02323499999999
 20
703.8712849999999
 30
0.0
 11
38.02323499999999
 21
702.095285
 31
0.0
  0
LINE
  5
C2
330
1E
100
AcDbEntity
  8
0
100
AcDbLine
 10
38.02323499999999
 20
703.8712849999999
 30
0.0
 11
38.02323499999999
 21
704.5372849999999
 31
0.0
  0
LINE
  5
C3
330
1E
100
AcDbEntity
  8
0
100
AcDbLine
 10
37.561735
 20
702.5392849999999
 30
0.0
 11
37.561735
 21
699.5792849999999
 31
0.0
  0
LINE
  5
C4
330
1E
100
AcDbEntity
  8
0
100
AcDbLine
 10
37.561735
 20
702.5392849999999
 30
0.0
 11
37.561735
 21
704.315285
 31
0.0
  0
LINE
  5
C5
330
1E
100
AcDbEntity
  8
0
100
AcDbLine
 10
38.02323499999999
 20
704.5372849999999
 30
0.0
 11
38.02323499999999
 21
703.8712849999999
 31
0.0
  0
LINE
  5
C6
330
1E
100
AcDbEntity
  8
0
100
AcDbLine
 10
38.02323499999999
 20
704.5372849999999
 30
0.0
 11
38.484735
 21
704.9812849999999
 31
0.0
  0
LINE
  5
C7
330
1E
100
AcDbEntity
  8
0
100
AcDbLine
 10
9.980970944476609
 20
704.9812849999999
 30
0.0
 11
37.561735
 21
704.9812849999999
 31
0.0
  0
LINE
  5
C8
330
1E
100
AcDbEntity
  8
0
100
AcDbLine
 10
37.561735
 20
704.315285
 30
0.0
 11
37.561735
 21
702.5392849999999
 31
0.0
  0
LINE
  5
C9
330
1E
100
AcDbEntity
  8
0
100
AcDbLine
 10
37.561735
 20
704.315285
 30
0.0
 11
37.561735
 21
704.9812849999999
 31
0.0
  0
LINE
  5
CA
330
1E
100
AcDbEntity
  8
0
100
AcDbLine
 10
9.980970944476599
 20
704.9812849999999
 30
0.0
 11
37.561735
 21
704.9812849999999
 31
0.0
  0
LINE
  5
CB
330
1E
100
AcDbEntity
  8
0
100
AcDbLine
 10
37.561735
 20
704.9812849999999
 30
0.0
 11
37.561735
 21
704.315285
 31
0.0
  0
LINE
  5
CC
330
1E
100
AcDbEntity
  8
0
100
AcDbLine
 10
37.561735
 20
704.9812849999999
 30
0.0
 11
38.02323499999999
 21
704.5372849999999
 31
0.0
  0
LINE
  5
CF
330
1E
100
AcDbEntity
  8
0
100
AcDbLine
 10
37.561735
 20
686.4812849999999
 30
0.0
 11
37.561735
 21
681.7452849999999
 31
0.0
  0
LINE
  5
D0
330
1E
100
AcDbEntity
  8
0
100
AcDbLine
 10
37.561735
 20
686.4812849999999
 30
0.0
 11
37.561735
 21
691.2172849999999
 31
0.0
  0
LINE
  5
D1
330
1E
100
AcDbEntity
  8
0
100
AcDbLine
 10
38.02323499999999
 20
686.4812849999999
 30
0.0
 11
38.02323499999999
 21
681.8192849999999
 31
0.0
  0
LINE
  5
D2
330
1E
100
AcDbEntity
  8
0
100
AcDbLine
 10
38.02323499999999
 20
686.4812849999999
 30
0.0
 11
38.02323499999999
 21
691.1432849999999
 31
0.0
  0
LINE
  5
D3
330
1E
100
AcDbEntity
  8
0
100
AcDbLine
 10
37.561735
 20
681.7452849999999
 30
0.0
 11
37.561735
 21
686.4812849999999
 31
0.0
  0
LINE
  5
D4
330
1E
100
AcDbEntity
  8
0
100
AcDbLine
 10
37.561735
 20
681.7452849999999
 30
0.0
 11
37.561735
 21
677.3052849999999
 31
0.0
  0
LINE
  5
D5
330
1E
100
AcDbEntity
  8
0
100
AcDbLine
 10
38.02323499999999
 20
681.8192849999999
 30
0.0
 11
38.02323499999999
 21
677.527285
 31
0.0
  0
LINE
  5
D6
330
1E
100
AcDbEntity
  8
0
100
AcDbLine
 10
38.02323499999999
 20
681.8192849999999
 30
0.0
 11
38.02323499999999
 21
686.4812849999999
 31
0.0
  0
LINE
  5
D7
330
1E
100
AcDbEntity
  8
0
100
AcDbLine
 10
37.561735
 20
677.3052849999999
 30
0.0
 11
37.561735
 21
681.7452849999999
 31
0.0
  0
LINE
  5
D8
330
1E
100
AcDbEntity
  8
0
100
AcDbLine
 10
37.561735
 20
677.3052849999999
 30
0.0
 11
37.561735
 21
673.3832849999999
 31
0.0
  0
LINE
  5
D9
330
1E
100
AcDbEntity
  8
0
100
AcDbLine
 10
38.02323499999999
 20
677.527285
 30
0.0
 11
38.02323499999999
 21
673.753285
 31
0.0
  0
LINE
  5
DA
330
1E
100
AcDbEntity
  8
0
100
AcDbLine
 10
38.02323499999999
 20
677.527285
 30
0.0
 11
38.02323499999999
 21
681.8192849999999
 31
0.0
  0
LINE
  5
DB
330
1E
100
AcDbEntity
  8
0
100
AcDbLine
 10
37.561735
 20
673.3832849999999
 30
0.0
 11
37.561735
 21
677.3052849999999
 31
0.0
  0
LINE
  5
DC
330
1E
100
AcDbEntity
  8
0
100
AcDbLine
 10
37.561735
 20
673.3832849999999
 30
0.0
 11
37.561735
 21
670.4232849999999
 31
0.0
  0
LINE
  5
DD
330
1E
100
AcDbEntity
  8
0
100
AcDbLine
 10
38.02323499999999
 20
673.753285
 30
0.0
 11
38.02323499999999
 21
670.8672849999999
 31
0.0
  0
LINE
  5
DE
330
1E
100
AcDbEntity
  8
0
100
AcDbLine
 10
38.02323499999999
 20
673.753285
 30
0.0
 11
38.02323499999999
 21
677.527285
 31
0.0
  0
LINE
  5
DF
330
1E
100
AcDbEntity
  8
0
100
AcDbLine
 10
37.561735
 20
670.4232849999999
 30
0.0
 11
37.561735
 21
673.3832849999999
 31
0.0
  0
LINE
  5
E0
330
1E
100
AcDbEntity
  8
0
100
AcDbLine
 10
37.561735
 20
670.4232849999999
 30
0.0
 11
37.561735
 21
668.647285
 31
0.0
  0
LINE
  5
E1
330
1E
100
AcDbEntity
  8
0
100
AcDbLine
 10
38.02323499999999
 20
670.8672849999999
 30
0.0
 11
38.02323499999999
 21
669.091285
 31
0.0
  0
LINE
  5
E2
330
1E
100
AcDbEntity
  8
0
100
AcDbLine
 10
38.02323499999999
 20
670.8672849999999
 30
0.0
 11
38.02323499999999
 21
673.753285
 31
0.0
  0
LINE
  5
E3
330
1E
100
AcDbEntity
  8
0
100
AcDbLine
 10
37.561735
 20
668.647285
 30
0.0
 11
37.561735
 21
670.4232849999999
 31
0.0
  0
LINE
  5
E4
330
1E
100
AcDbEntity
  8
0
100
AcDbLine
 10
37.561735
 20
668.647285
 30
0.0
 11
37.561735
 21
667.9812849999999
 31
0.0
  0
LINE
  5
E5
330
1E
100
AcDbEntity
  8
0
100
AcDbLine
 10
38.484735
 20
691.2172849999999
 30
0.0
 11
38.484735
 21
695.657285
 31
0.0
  0
LINE
  5
E6
330
1E
100
AcDbEntity
  8
0
100
AcDbLine
 10
38.484735
 20
691.2172849999999
 30
0.0
 11
38.484735
 21
686.4812849999999
 31
0.0
  0
LINE
  5
E7
330
1E
100
AcDbEntity
  8
0
100
AcDbLine
 10
38.484735
 20
695.657285
 30
0.0
 11
38.484735
 21
699.5792849999999
 31
0.0
  0
LINE
  5
E8
330
1E
100
AcDbEntity
  8
0
100
AcDbLine
 10
38.484735
 20
695.657285
 30
0.0
 11
38.484735
 21
691.2172849999999
 31
0.0
  0
LINE
  5
E9
330
1E
100
AcDbEntity
  8
0
100
AcDbLine
 10
38.484735
 20
699.5792849999999
 30
0.0
 11
38.484735
 21
702.5392849999999
 31
0.0
  0
LINE
  5
EA
330
1E
100
AcDbEntity
  8
0
100
AcDbLine
 10
38.484735
 20
699.5792849999999
 30
0.0
 11
38.484735
 21
695.657285
 31
0.0
  0
LINE
  5
EB
330
1E
100
AcDbEntity
  8
0
100
AcDbLine
 10
38.484735
 20
702.5392849999999
 30
0.0
 11
38.484735
 21
704.315285
 31
0.0
  0
LINE
  5
EC
330
1E
100
AcDbEntity
  8
0
100
AcDbLine
 10
38.484735
 20
702.5392849999999
 30
0.0
 11
38.484735
 21
699.5792849999999
 31
0.0
  0
LINE
  5
ED
330
1E
100
AcDbEntity
  8
0
100
AcDbLine
 10
38.484735
 20
704.9812849999999
 30
0.0
 11
41.02323499999999
 21
704.9812849999999
 31
0.0
  0
LINE
  5
EE
330
1E
100
AcDbEntity
  8
0
100
AcDbLine
 10
38.484735
 20
704.9812849999999
 30
0.0
 11
38.484735
 21
704.315285
 31
0.0
  0
LINE
  5
EF
330
1E
100
AcDbEntity
  8
0
100
AcDbLine
 10
38.484735
 20
704.315285
 30
0.0
 11
38.484735
 21
704.9812849999999
 31
0.0
  0
LINE
  5
F0
330
1E
100
AcDbEntity
  8
0
100
AcDbLine
 10
38.484735
 20
704.315285
 30
0.0
 11
38.484735
 21
702.5392849999999
 31
0.0
  0
LINE
  5
F1
330
1E
100
AcDbEntity
  8
0
100
AcDbLine
 10
38.484735
 20
686.4812849999999
 30
0.0
 11
38.484735
 21
681.7452849999999
 31
0.0
  0
LINE
  5
F2
330
1E
100
AcDbEntity
  8
0
100
AcDbLine
 10
38.484735
 20
686.4812849999999
 30
0.0
 11
38.484735
 21
691.2172849999999
 31
0.0
  0
LINE
  5
F3
330
1E
100
AcDbEntity
  8
0
100
AcDbLine
 10
38.484735
 20
681.7452849999999
 30
0.0
 11
38.484735
 21
686.4812849999999
 31
0.0
  0
LINE
  5
F4
330
1E
100
AcDbEntity
  8
0
100
AcDbLine
 10
38.484735
 20
681.7452849999999
 30
0.0
 11
38.484735
 21
677.3052849999999
 31
0.0
  0
LINE
  5
F5
330
1E
100
AcDbEntity
  8
0
100
AcDbLine
 10
38.484735
 20
677.3052849999999
 30
0.0
 11
38.484735
 21
681.7452849999999
 31
0.0
  0
LINE
  5
F6
330
1E
100
AcDbEntity
  8
0
100
AcDbLine
 10
38.484735
 20
677.3052849999999
 30
0.0
 11
38.484735
 21
673.3832849999999
 31
0.0
  0
LINE
  5
F7
330
1E
100
AcDbEntity
  8
0
100
AcDbLine
 10
38.484735
 20
673.3832849999999
 30
0.0
 11
38.484735
 21
677.3052849999999
 31
0.0
  0
LINE
  5
F8
330
1E
100
AcDbEntity
  8
0
100
AcDbLine
 10
38.484735
 20
673.3832849999999
 30
0.0
 11
38.484735
 21
670.4232849999999
 31
0.0
  0
LINE
  5
F9
330
1E
100
AcDbEntity
  8
0
100
AcDbLine
 10
38.484735
 20
670.4232849999999
 30
0.0
 11
38.484735
 21
673.3832849999999
 31
0.0
  0
LINE
  5
FA
330
1E
100
AcDbEntity
  8
0
100
AcDbLine
 10
38.484735
 20
670.4232849999999
 30
0.0
 11
38.484735
 21
668.647285
 31
0.0
  0
LINE
  5
FB
330
1E
100
AcDbEntity
  8
0
100
AcDbLine
 10
38.484735
 20
668.647285
 30
0.0
 11
38.484735
 21
670.4232849999999
 31
0.0
  0
LINE
  5
FC
330
1E
100
AcDbEntity
  8
0
100
AcDbLine
 10
38.484735
 20
668.647285
 30
0.0
 11
38.484735
 21
667.9812849999999
 31
0.0
  0
LINE
  5
FD
330
1E
100
AcDbEntity
  8
0
100
AcDbLine
 10
38.02323499999999
 20
669.091285
 30
0.0
 11
38.02323499999999
 21
668.4252849999999
 31
0.0
  0
LINE
  5
FE
330
1E
100
AcDbEntity
  8
0
100
AcDbLine
 10
38.02323499999999
 20
669.091285
 30
0.0
 11
38.02323499999999
 21
670.8672849999999
 31
0.0
  0
LINE
  5
FF
330
1E
100
AcDbEntity
  8
0
100
AcDbLine
 10
37.561735
 20
667.9812849999999
 30
0.0
 11
37.561735
 21
668.647285
 31
0.0
  0
LINE
  5
100
330
1E
100
AcDbEntity
  8
0
100
AcDbLine
 10
37.561735
 20
667.9812849999999
 30
0.0
 11
38.02323499999999
 21
668.4252849999999
 31
0.0
  0
LINE
  5
101
330
1E
100
AcDbEntity
  8
0
100
AcDbLine
 10
41.02323499999999
 20
704.9536042881059
 30
0.0
 11
41.02323499999999
 21
817.071951666667
 31
0.0
  0
LINE
  5
102
330
1E
100
AcDbEntity
  8
0
100
AcDbLine
 10
39.82323499999999
 20
822.1162849999998
 30
0.0
 11
41.323235
 21
827.5662849999999
 31
0.0
  0
LINE
  5
103
330
1E
100
AcDbEntity
  8
0
100
AcDbLine
 10
39.82323499999999
 20
822.1162849999998
 30
0.0
 11
40.61160709302329
 21
819.2518663953489
 31
0.0
  0
LINE
  5
104
330
1E
100
AcDbEntity
  8
0
100
AcDbLine
 10
39.82323499999999
 20
822.1162849999998
 30
0.0
 11
39.82323499999999
 21
826.4462849999999
 31
0.0
  0
LINE
  5
105
330
1E
100
AcDbEntity
  8
0
100
AcDbLine
 10
40.823235
 20
817.7852849999998
 30
0.0
 11
42.32323499999999
 21
812.4352849999999
 31
0.0
  0
LINE
  5
106
330
1E
100
AcDbEntity
  8
0
100
AcDbLine
 10
40.32323499999999
 20
821.2502849999999
 30
0.0
 11
41.82323499999999
 21
826.650285
 31
0.0
  0
LINE
  5
107
330
1E
100
AcDbEntity
  8
0
100
AcDbLine
 10
40.32323499999999
 20
821.2502849999999
 30
0.0
 11
40.823235
 21
817.7852849999998
 31
0.0
  0
LINE
  5
108
330
1E
100
AcDbEntity
  8
0
100
AcDbLine
 10
39.82323499999999
 20
826.4462849999999
 30
0.0
 11
41.323235
 21
831.896285
 31
0.0
  0
LINE
  5
109
330
1E
100
AcDbEntity
  8
0
100
AcDbLine
 10
39.82323499999999
 20
826.4462849999999
 30
0.0
 11
39.82323499999999
 21
822.1162849999998
 31
0.0
  0
LINE
  5
10A
330
1E
100
AcDbEntity
  8
0
100
AcDbLine
 10
39.82323499999999
 20
827.312285
 30
0.0
 11
41.323235
 21
832.7622849999999
 31
0.0
  0
LINE
  5
10B
330
1E
100
AcDbEntity
  8
0
100
AcDbLine
 10
39.82323499999999
 20
827.312285
 30
0.0
 11
39.9424093119266
 21
826.879285
 31
0.0
  0
LINE
  5
10C
330
1E
100
AcDbEntity
  8
0
100
AcDbLine
 10
41.02323499999999
 20
831.6722849999999
 30
0.0
 11
41.02323499999999
 21
884.480285
 31
0.0
  0
LINE
  5
10D
330
1E
100
AcDbEntity
  8
0
100
AcDbLine
 10
41.02323499999999
 20
817.071951666667
 30
0.0
 11
41.02323499999999
 21
704.9536042881059
 31
0.0
  0
LINE
  5
10E
330
1E
100
AcDbEntity
  8
0
100
AcDbLine
 10
41.02323499999999
 20
377.9812849999999
 30
0.0
 11
41.02323499999999
 21
30.48228499999999
 31
0.0
  0
LINE
  5
10F
330
1E
100
AcDbEntity
  8
0
100
AcDbLine
 10
41.02323499999999
 20
885.481285
 30
0.0
 11
41.02323499999999
 21
936.4812849999999
 31
0.0
  0
LINE
  5
110
330
1E
100
AcDbEntity
  8
0
100
AcDbLine
 10
41.02323499999999
 20
885.481285
 30
0.0
 11
41.42323499999999
 21
885.481285
 31
0.0
  0
LINE
  5
111
330
1E
100
AcDbEntity
  8
0
100
AcDbLine
 10
41.02323499999999
 20
936.4812849999999
 30
0.0
 11
41.523235
 21
936.981285
 31
0.0
  0
LINE
  5
112
330
1E
100
AcDbEntity
  8
0
100
AcDbLine
 10
41.02323499999999
 20
936.4812849999999
 30
0.0
 11
41.42323499999999
 21
936.4812849999999
 31
0.0
  0
LINE
  5
113
330
1E
100
AcDbEntity
  8
0
100
AcDbLine
 10
41.02323499999999
 20
936.4812849999999
 30
0.0
 11
41.02323499999999
 21
885.481285
 31
0.0
  0
LINE
  5
114
330
1E
100
AcDbEntity
  8
0
100
AcDbLine
 10
41.02323499999999
 20
884.480285
 30
0.0
 11
41.02323499999999
 21
831.6722849999999
 31
0.0
  0
LINE
  5
115
330
1E
100
AcDbEntity
  8
0
100
AcDbLine
 10
41.02323499999999
 20
884.480285
 30
0.0
 11
41.42323499999999
 21
884.480285
 31
0.0
  0
LINE
  5
116
330
1E
100
AcDbEntity
  8
0
100
AcDbLine
 10
41.02323499999999
 20
884.480285
 30
0.0
 11
41.523235
 21
884.9812849999999
 31
0.0
  0
LINE
  5
117
330
1E
100
AcDbEntity
  8
0
100
AcDbLine
 10
52.023235
 20
30.48228499999999
 30
0.0
 11
54.82323499999999
 21
30.48228499999999
 31
0.0
  0
LINE
  5
118
330
1E
100
AcDbEntity
  8
0
100
AcDbLine
 10
54.82323499999999
 20
30.48228499999999
 30
0.0
 11
57.523235
 21
30.48228499999999
 31
0.0
  0
LINE
  5
119
330
1E
100
AcDbEntity
  8
0
100
AcDbLine
 10
57.523235
 20
30.48228499999999
 30
0.0
 11
59.82323499999999
 21
30.48228499999999
 31
0.0
  0
LINE
  5
11A
330
1E
100
AcDbEntity
  8
0
100
AcDbLine
 10
59.82323499999999
 20
30.48228499999999
 30
0.0
 11
61.523235
 21
30.48228499999999
 31
0.0
  0
LINE
  5
11B
330
1E
100
AcDbEntity
  8
0
100
AcDbLine
 10
61.523235
 20
30.48228499999999
 30
0.0
 11
62.623235
 21
30.48228499999999
 31
0.0
  0
LINE
  5
11C
330
1E
100
AcDbEntity
  8
0
100
AcDbLine
 10
63.02323499999999
 20
30.48228499999999
 30
0.0
 11
63.02323500000001
 21
667.9812849999999
 31
0.0
  0
LINE
  5
11D
330
1E
100
AcDbEntity
  8
0
100
AcDbLine
 10
62.623235
 20
30.48228499999999
 30
0.0
 11
63.02323499999999
 21
30.48228499999999
 31
0.0
  0
LINE
  5
11E
330
1E
100
AcDbEntity
  8
0
100
AcDbLine
 10
49.223235
 20
30.48228499999999
 30
0.0
 11
52.023235
 21
30.48228499999999
 31
0.0
  0
LINE
  5
11F
330
1E
100
AcDbEntity
  8
0
100
AcDbLine
 10
46.523235
 20
30.48228499999999
 30
0.0
 11
49.223235
 21
30.48228499999999
 31
0.0
  0
LINE
  5
120
330
1E
100
AcDbEntity
  8
0
100
AcDbLine
 10
44.223235
 20
30.48228499999999
 30
0.0
 11
46.523235
 21
30.48228499999999
 31
0.0
  0
LINE
  5
121
330
1E
100
AcDbEntity
  8
0
100
AcDbLine
 10
42.523235
 20
30.48228499999999
 30
0.0
 11
44.223235
 21
30.48228499999999
 31
0.0
  0
LINE
  5
122
330
1E
100
AcDbEntity
  8
0
100
AcDbLine
 10
41.323235
 20
827.5662849999999
 30
0.0
 11
45.52323499999999
 21
832.6662849999999
 31
0.0
  0
LINE
  5
123
330
1E
100
AcDbEntity
  8
0
100
AcDbLine
 10
41.323235
 20
831.896285
 30
0.0
 11
45.52323499999999
 21
836.996285
 31
0.0
  0
LINE
  5
124
330
1E
100
AcDbEntity
  8
0
100
AcDbLine
 10
41.323235
 20
832.7622849999999
 30
0.0
 11
45.52323499999999
 21
837.8622849999999
 31
0.0
  0
LINE
  5
125
330
1E
100
AcDbEntity
  8
0
100
AcDbLine
 10
41.323235
 20
832.7622849999999
 30
0.0
 11
44.039595
 21
836.9132849999999
 31
0.0
  0
LINE
  5
126
330
1E
100
AcDbEntity
  8
0
100
AcDbLine
 10
41.42323499999999
 20
885.481285
 30
0.0
 11
42.523235
 21
885.481285
 31
0.0
  0
LINE
  5
127
330
1E
100
AcDbEntity
  8
0
100
AcDbLine
 10
41.42323499999999
 20
936.4812849999999
 30
0.0
 11
42.523235
 21
936.4812849999999
 31
0.0
  0
LINE
  5
128
330
1E
100
AcDbEntity
  8
0
100
AcDbLine
 10
43.323235
 20
810.420285
 30
0.0
 11
47.22323499999999
 21
805.620285
 31
0.0
  0
LINE
  5
129
330
1E
100
AcDbEntity
  8
0
100
AcDbLine
 10
42.32323499999999
 20
812.4352849999999
 30
0.0
 11
43.323235
 21
810.420285
 31
0.0
  0
LINE
  5
12A
330
1E
100
AcDbEntity
  8
0
100
AcDbLine
 10
41.82323499999999
 20
826.650285
 30
0.0
 11
46.02323499999999
 21
831.750285
 31
0.0
  0
LINE
  5
12B
330
1E
100
AcDbEntity
  8
0
100
AcDbLine
 10
44.039595
 20
836.9132849999999
 30
0.0
 11
47.908685
 21
841.6992849999999
 31
0.0
  0
LINE
  5
12C
330
1E
100
AcDbEntity
  8
0
100
AcDbLine
 10
45.32323499999999
 20
811.7232849999998
 30
0.0
 11
46.623235
 21
816.473285
 31
0.0
  0
LINE
  5
12D
330
1E
100
AcDbEntity
  8
0
100
AcDbLine
 10
45.32323499999999
 20
811.7232849999998
 30
0.0
 11
46.623235
 21
806.9732849999999
 31
0.0
  0
LINE
  5
12E
330
1E
100
AcDbEntity
  8
0
100
AcDbLine
 10
45.52323499999999
 20
832.6662849999999
 30
0.0
 11
52.32323499999999
 21
837.1162849999999
 31
0.0
  0
LINE
  5
12F
330
1E
100
AcDbEntity
  8
0
100
AcDbLine
 10
45.72323499999999
 20
811.377285
 30
0.0
 11
47.123235
 21
816.0772849999998
 31
0.0
  0
LINE
  5
130
330
1E
100
AcDbEntity
  8
0
100
AcDbLine
 10
45.72323499999999
 20
811.377285
 30
0.0
 11
47.123235
 21
806.6772849999999
 31
0.0
  0
LINE
  5
131
330
1E
100
AcDbEntity
  8
0
100
AcDbLine
 10
46.623235
 20
806.9732849999999
 30
0.0
 11
50.323235
 21
802.523285
 31
0.0
  0
LINE
  5
132
330
1E
100
AcDbEntity
  8
0
100
AcDbLine
 10
45.823235
 20
811.7232849999998
 30
0.0
 11
47.023235
 21
816.4232849999999
 31
0.0
  0
LINE
  5
133
330
1E
100
AcDbEntity
  8
0
100
AcDbLine
 10
47.123235
 20
806.6772849999999
 30
0.0
 11
50.72323499999999
 21
802.3272849999999
 31
0.0
  0
LINE
  5
134
330
1E
100
AcDbEntity
  8
0
100
AcDbLine
 10
47.22323499999999
 20
805.620285
 30
0.0
 11
49.423235
 21
803.089285
 31
0.0
  0
LINE
  5
135
330
1E
100
AcDbEntity
  8
0
100
AcDbLine
 10
46.69319961125999
 20
815.130646394102
 30
0.0
 11
46.8171045993716
 21
815.049561512176
 31
0.0
  0
LINE
  5
136
330
1E
100
AcDbEntity
  8
0
100
AcDbLine
 10
46.69319961125999
 20
815.130646394102
 30
0.0
 11
46.8171045993716
 21
815.049561512176
 31
0.0
  0
LINE
  5
137
330
1E
100
AcDbEntity
  8
0
100
AcDbLine
 10
46.623235
 20
816.473285
 30
0.0
 11
50.323235
 21
820.9232849999999
 31
0.0
  0
LINE
  5
138
330
1E
100
AcDbEntity
  8
0
100
AcDbLine
 10
46.02323499999999
 20
831.750285
 30
0.0
 11
52.623235
 21
836.100285
 31
0.0
  0
LINE
  5
139
330
1E
100
AcDbEntity
  8
0
100
AcDbLine
 10
47.023235
 20
816.4232849999999
 30
0.0
 11
50.623235
 21
820.8232849999999
 31
0.0
  0
LINE
  5
13A
330
1E
100
AcDbEntity
  8
0
100
AcDbLine
 10
46.8826516219839
 20
815.8726667694368
 30
0.0
 11
47.0329810068081
 21
815.7742894514269
 31
0.0
  0
LINE
  5
13B
330
1E
100
AcDbEntity
  8
0
100
AcDbLine
 10
46.8695793708609
 20
815.821467119205
 30
0.0
 11
47.0179124454325
 21
815.723702138238
 31
0.0
  0
LINE
  5
13C
330
1E
100
AcDbEntity
  8
0
100
AcDbLine
 10
45.52323499999999
 20
836.996285
 30
0.0
 11
46.02323499999999
 21
837.3792849999999
 31
0.0
  0
LINE
  5
13D
330
1E
100
AcDbEntity
  8
0
100
AcDbLine
 10
45.52323499999999
 20
836.996285
 30
0.0
 11
52.32323499999999
 21
841.4462849999999
 31
0.0
  0
LINE
  5
13E
330
1E
100
AcDbEntity
  8
0
100
AcDbLine
 10
47.908685
 20
841.6992849999999
 30
0.0
 11
52.388735
 21
846.440285
 31
0.0
  0
LINE
  5
13F
330
1E
100
AcDbEntity
  8
0
100
AcDbLine
 10
46.02323499999999
 20
837.3792849999999
 30
0.0
 11
52.623235
 21
841.729285
 31
0.0
  0
LINE
  5
140
330
1E
100
AcDbEntity
  8
0
100
AcDbLine
 10
45.52323499999999
 20
837.8622849999999
 30
0.0
 11
52.32323499999999
 21
842.312285
 31
0.0
  0
LINE
  5
141
330
1E
100
AcDbEntity
  8
0
100
AcDbLine
 10
45.932504260443
 20
837.269111959109
 30
0.0
 11
46.02323499999999
 21
837.3792849999999
 31
0.0
  0
LINE
  5
142
330
1E
100
AcDbEntity
  8
0
100
AcDbLine
 10
74.381935
 20
558.365285
 30
0.0
 11
74.397835
 21
525.364285
 31
0.0
  0
LINE
  5
143
330
1E
100
AcDbEntity
  8
0
100
AcDbLine
 10
74.353835
 20
581.3622849999999
 30
0.0
 11
74.381935
 21
558.365285
 31
0.0
  0
LINE
  5
144
330
1E
100
AcDbEntity
  8
0
100
AcDbLine
 10
74.31193499999999
 20
606.1592849999999
 30
0.0
 11
74.353835
 21
581.3622849999999
 31
0.0
  0
LINE
  5
145
330
1E
100
AcDbEntity
  8
0
100
AcDbLine
 10
74.25803499999999
 20
631.2562849999999
 30
0.0
 11
74.31193499999999
 21
606.1592849999999
 31
0.0
  0
LINE
  5
146
330
1E
100
AcDbEntity
  8
0
100
AcDbLine
 10
74.18783499999999
 20
654.3622849999999
 30
0.0
 11
74.4261354703669
 21
667.9812849999999
 31
0.0
  0
LINE
  5
147
330
1E
100
AcDbEntity
  8
0
100
AcDbLine
 10
74.18783499999999
 20
654.3622849999999
 30
0.0
 11
74.25803499999999
 21
631.2562849999999
 31
0.0
  0
LINE
  5
14D
330
1E
100
AcDbEntity
  8
0
100
AcDbLine
 10
90.381835
 20
558.364285
 30
0.0
 11
90.39803499999999
 21
525.363285
 31
0.0
  0
LINE
  5
14E
330
1E
100
AcDbEntity
  8
0
100
AcDbLine
 10
90.352835
 20
581.3712849999999
 30
0.0
 11
90.381835
 21
558.364285
 31
0.0
  0
LINE
  5
14F
330
1E
100
AcDbEntity
  8
0
100
AcDbLine
 10
90.311835
 20
606.1682849999999
 30
0.0
 11
90.352835
 21
581.3712849999999
 31
0.0
  0
LINE
  5
150
330
1E
100
AcDbEntity
  8
0
100
AcDbLine
 10
90.256935
 20
631.2652849999999
 30
0.0
 11
90.311835
 21
606.1682849999999
 31
0.0
  0
LINE
  5
151
330
1E
100
AcDbEntity
  8
0
100
AcDbLine
 10
90.18703499999999
 20
654.3612849999999
 30
0.0
 11
90.4266716087074
 21
667.9812849999999
 31
0.0
  0
LINE
  5
152
330
1E
100
AcDbEntity
  8
0
100
AcDbLine
 10
90.18703499999999
 20
654.3612849999999
 30
0.0
 11
90.256935
 21
631.2652849999999
 31
0.0
  0
LINE
  5
157
330
1E
100
AcDbEntity
  8
0
100
AcDbLine
 10
100.023235
 20
668.4252849999999
 30
0.0
 11
100.023235
 21
669.091285
 31
0.0
  0
LINE
  5
158
330
1E
100
AcDbEntity
  8
0
100
AcDbLine
 10
99.561235
 20
691.2172849999999
 30
0.0
 11
99.561235
 21
686.4812849999999
 31
0.0
  0
LINE
  5
159
330
1E
100
AcDbEntity
  8
0
100
AcDbLine
 10
99.561235
 20
691.2172849999999
 30
0.0
 11
99.561235
 21
695.657285
 31
0.0
  0
LINE
  5
15B
330
1E
100
AcDbEntity
  8
0
100
AcDbLine
 10
71.03923499999999
 20
700.7010849999999
 30
0.0
 11
73.119235
 21
699.071285
 31
0.0
  0
LINE
  5
15D
330
1E
100
AcDbEntity
  8
0
100
AcDbLine
 10
73.119235
 20
699.071285
 30
0.0
 11
73.827235
 21
698.6765849999999
 31
0.0
  0
LINE
  5
160
330
1E
100
AcDbEntity
  8
0
100
AcDbLine
 10
82.32223499999999
 20
696.7832849999999
 30
0.0
 11
85.32223499999998
 21
696.9832849999999
 31
0.0
  0
LINE
  5
161
330
1E
100
AcDbEntity
  8
0
100
AcDbLine
 10
85.32223499999998
 20
696.9832849999999
 30
0.0
 11
88.022235
 21
697.533285
 31
0.0
  0
LINE
  5
165
330
1E
100
AcDbEntity
  8
0
100
AcDbLine
 10
88.022235
 20
697.533285
 30
0.0
 11
90.40406538987008
 21
698.492369805065
 31
0.0
  0
LINE
  5
167
330
1E
100
AcDbEntity
  8
0
100
AcDbLine
 10
79.32223499999999
 20
696.9832849999999
 30
0.0
 11
82.32223499999999
 21
696.7832849999999
 31
0.0
  0
LINE
  5
168
330
1E
100
AcDbEntity
  8
0
100
AcDbLine
 10
76.622235
 20
697.533285
 30
0.0
 11
79.32223499999999
 21
696.9832849999999
 31
0.0
  0
LINE
  5
169
330
1E
100
AcDbEntity
  8
0
100
AcDbLine
 10
90.40406538987008
 20
698.492369805065
 30
0.0
 11
90.819235
 21
698.6765849999999
 31
0.0
  0
LINE
  5
16A
330
1E
100
AcDbEntity
  8
0
100
AcDbLine
 10
90.819235
 20
698.6765849999999
 30
0.0
 11
91.527235
 21
699.071285
 31
0.0
  0
LINE
  5
16C
330
1E
100
AcDbEntity
  8
0
100
AcDbLine
 10
91.527235
 20
699.071285
 30
0.0
 11
93.607235
 21
700.7010849999999
 31
0.0
  0
LINE
  5
16D
330
1E
100
AcDbEntity
  8
0
100
AcDbLine
 10
93.607235
 20
700.7010849999999
 30
0.0
 11
94.85523499999999
 21
702.5461849999999
 31
0.0
  0
LINE
  5
16E
330
1E
100
AcDbEntity
  8
0
100
AcDbLine
 10
73.827235
 20
698.6765849999999
 30
0.0
 11
74.24134496334549
 21
698.4928399816729
 31
0.0
  0
LINE
  5
16F
330
1E
100
AcDbEntity
  8
0
100
AcDbLine
 10
74.24134496334549
 20
698.4928399816729
 30
0.0
 11
76.622235
 21
697.533285
 31
0.0
  0
LINE
  5
171
330
1E
100
AcDbEntity
  8
0
100
AcDbLine
 10
99.561235
 20
695.657285
 30
0.0
 11
99.561235
 21
691.2172849999999
 31
0.0
  0
LINE
  5
172
330
1E
100
AcDbEntity
  8
0
100
AcDbLine
 10
99.561235
 20
695.657285
 30
0.0
 11
99.561235
 21
699.5792849999999
 31
0.0
  0
LINE
  5
173
330
1E
100
AcDbEntity
  8
0
100
AcDbLine
 10
99.561235
 20
699.5792849999999
 30
0.0
 11
99.561235
 21
695.657285
 31
0.0
  0
LINE
  5
174
330
1E
100
AcDbEntity
  8
0
100
AcDbLine
 10
99.561235
 20
699.5792849999999
 30
0.0
 11
99.561235
 21
702.5392849999999
 31
0.0
  0
LINE
  5
175
330
1E
100
AcDbEntity
  8
0
100
AcDbLine
 10
69.32323499999999
 20
704.4170849999999
 30
0.0
 11
69.791235
 21
702.5461849999999
 31
0.0
  0
LINE
  5
176
330
1E
100
AcDbEntity
  8
0
100
AcDbLine
 10
95.323235
 20
704.4170849999999
 30
0.0
 11
96.082535
 21
716.2445849999999
 31
0.0
  0
LINE
  5
177
330
1E
100
AcDbEntity
  8
0
100
AcDbLine
 10
94.85523499999999
 20
702.5461849999999
 30
0.0
 11
95.323235
 21
704.4170849999999
 31
0.0
  0
LINE
  5
178
330
1E
100
AcDbEntity
  8
0
100
AcDbLine
 10
69.791235
 20
702.5461849999999
 30
0.0
 11
71.03923499999999
 21
700.7010849999999
 31
0.0
  0
LINE
  5
179
330
1E
100
AcDbEntity
  8
0
100
AcDbLine
 10
99.561235
 20
702.5392849999999
 30
0.0
 11
99.561235
 21
699.5792849999999
 31
0.0
  0
LINE
  5
17A
330
1E
100
AcDbEntity
  8
0
100
AcDbLine
 10
99.561235
 20
702.5392849999999
 30
0.0
 11
99.561235
 21
704.315285
 31
0.0
  0
LINE
  5
17B
330
1E
100
AcDbEntity
  8
0
100
AcDbLine
 10
99.561235
 20
704.315285
 30
0.0
 11
99.561235
 21
702.5392849999999
 31
0.0
  0
LINE
  5
17C
330
1E
100
AcDbEntity
  8
0
100
AcDbLine
 10
99.561235
 20
704.315285
 30
0.0
 11
99.561235
 21
704.9812849999999
 31
0.0
  0
LINE
  5
17D
330
1E
100
AcDbEntity
  8
0
100
AcDbLine
 10
95.35945542358909
 20
704.9812849999999
 30
0.0
 11
99.561235
 21
704.9812849999999
 31
0.0
  0
LINE
  5
17E
330
1E
100
AcDbEntity
  8
0
100
AcDbLine
 10
100.023235
 20
691.1432849999999
 30
0.0
 11
100.023235
 21
686.4812849999999
 31
0.0
  0
LINE
  5
17F
330
1E
100
AcDbEntity
  8
0
100
AcDbLine
 10
100.023235
 20
691.1432849999999
 30
0.0
 11
100.023235
 21
695.4352849999999
 31
0.0
  0
LINE
  5
180
330
1E
100
AcDbEntity
  8
0
100
AcDbLine
 10
100.023235
 20
695.4352849999999
 30
0.0
 11
100.023235
 21
691.1432849999999
 31
0.0
  0
LINE
  5
181
330
1E
100
AcDbEntity
  8
0
100
AcDbLine
 10
100.023235
 20
695.4352849999999
 30
0.0
 11
100.023235
 21
699.2092849999998
 31
0.0
  0
LINE
  5
182
330
1E
100
AcDbEntity
  8
0
100
AcDbLine
 10
100.023235
 20
699.2092849999998
 30
0.0
 11
100.023235
 21
695.4352849999999
 31
0.0
  0
LINE
  5
183
330
1E
100
AcDbEntity
  8
0
100
AcDbLine
 10
100.023235
 20
699.2092849999998
 30
0.0
 11
100.023235
 21
702.095285
 31
0.0
  0
LINE
  5
184
330
1E
100
AcDbEntity
  8
0
100
AcDbLine
 10
100.023235
 20
702.095285
 30
0.0
 11
100.023235
 21
699.2092849999998
 31
0.0
  0
LINE
  5
185
330
1E
100
AcDbEntity
  8
0
100
AcDbLine
 10
100.023235
 20
702.095285
 30
0.0
 11
100.023235
 21
703.8712849999999
 31
0.0
  0
LINE
  5
186
330
1E
100
AcDbEntity
  8
0
100
AcDbLine
 10
100.023235
 20
703.8712849999999
 30
0.0
 11
100.023235
 21
702.095285
 31
0.0
  0
LINE
  5
187
330
1E
100
AcDbEntity
  8
0
100
AcDbLine
 10
100.023235
 20
703.8712849999999
 30
0.0
 11
100.023235
 21
704.5372849999999
 31
0.0
  0
LINE
  5
188
330
1E
100
AcDbEntity
  8
0
100
AcDbLine
 10
100.023235
 20
704.5372849999999
 30
0.0
 11
100.023235
 21
703.8712849999999
 31
0.0
  0
LINE
  5
189
330
1E
100
AcDbEntity
  8
0
100
AcDbLine
 10
99.561235
 20
704.9812849999999
 30
0.0
 11
99.561235
 21
704.315285
 31
0.0
  0
LINE
  5
18A
330
1E
100
AcDbEntity
  8
0
100
AcDbLine
 10
99.561235
 20
704.9812849999999
 30
0.0
 11
100.023235
 21
704.5372849999999
 31
0.0
  0
LINE
  5
18B
330
1E
100
AcDbEntity
  8
0
100
AcDbLine
 10
99.561235
 20
686.4812849999999
 30
0.0
 11
99.561235
 21
681.7452849999999
 31
0.0
  0
LINE
  5
18C
330
1E
100
AcDbEntity
  8
0
100
AcDbLine
 10
99.561235
 20
686.4812849999999
 30
0.0
 11
99.561235
 21
691.2172849999999
 31
0.0
  0
LINE
  5
18D
330
1E
100
AcDbEntity
  8
0
100
AcDbLine
 10
100.023235
 20
686.4812849999999
 30
0.0
 11
100.023235
 21
681.8192849999999
 31
0.0
  0
LINE
  5
18E
330
1E
100
AcDbEntity
  8
0
100
AcDbLine
 10
100.023235
 20
686.4812849999999
 30
0.0
 11
100.023235
 21
691.1432849999999
 31
0.0
  0
LINE
  5
18F
330
1E
100
AcDbEntity
  8
0
100
AcDbLine
 10
99.561235
 20
681.7452849999999
 30
0.0
 11
99.561235
 21
686.4812849999999
 31
0.0
  0
LINE
  5
190
330
1E
100
AcDbEntity
  8
0
100
AcDbLine
 10
99.561235
 20
681.7452849999999
 30
0.0
 11
99.561235
 21
677.3052849999999
 31
0.0
  0
LINE
  5
191
330
1E
100
AcDbEntity
  8
0
100
AcDbLine
 10
100.023235
 20
681.8192849999999
 30
0.0
 11
100.023235
 21
677.527285
 31
0.0
  0
LINE
  5
192
330
1E
100
AcDbEntity
  8
0
100
AcDbLine
 10
100.023235
 20
681.8192849999999
 30
0.0
 11
100.023235
 21
686.4812849999999
 31
0.0
  0
LINE
  5
193
330
1E
100
AcDbEntity
  8
0
100
AcDbLine
 10
99.561235
 20
677.3052849999999
 30
0.0
 11
99.561235
 21
681.7452849999999
 31
0.0
  0
LINE
  5
194
330
1E
100
AcDbEntity
  8
0
100
AcDbLine
 10
99.561235
 20
677.3052849999999
 30
0.0
 11
99.561235
 21
673.3832849999999
 31
0.0
  0
LINE
  5
195
330
1E
100
AcDbEntity
  8
0
100
AcDbLine
 10
100.023235
 20
677.527285
 30
0.0
 11
100.023235
 21
673.753285
 31
0.0
  0
LINE
  5
196
330
1E
100
AcDbEntity
  8
0
100
AcDbLine
 10
100.023235
 20
677.527285
 30
0.0
 11
100.023235
 21
681.8192849999999
 31
0.0
  0
LINE
  5
197
330
1E
100
AcDbEntity
  8
0
100
AcDbLine
 10
99.561235
 20
673.3832849999999
 30
0.0
 11
99.561235
 21
677.3052849999999
 31
0.0
  0
LINE
  5
198
330
1E
100
AcDbEntity
  8
0
100
AcDbLine
 10
99.561235
 20
673.3832849999999
 30
0.0
 11
99.561235
 21
670.4232849999999
 31
0.0
  0
LINE
  5
199
330
1E
100
AcDbEntity
  8
0
100
AcDbLine
 10
100.023235
 20
673.753285
 30
0.0
 11
100.023235
 21
670.8672849999999
 31
0.0
  0
LINE
  5
19A
330
1E
100
AcDbEntity
  8
0
100
AcDbLine
 10
100.023235
 20
673.753285
 30
0.0
 11
100.023235
 21
677.527285
 31
0.0
  0
LINE
  5
19B
330
1E
100
AcDbEntity
  8
0
100
AcDbLine
 10
99.561235
 20
670.4232849999999
 30
0.0
 11
99.561235
 21
673.3832849999999
 31
0.0
  0
LINE
  5
19C
330
1E
100
AcDbEntity
  8
0
100
AcDbLine
 10
99.561235
 20
670.4232849999999
 30
0.0
 11
99.561235
 21
668.647285
 31
0.0
  0
LINE
  5
19D
330
1E
100
AcDbEntity
  8
0
100
AcDbLine
 10
100.023235
 20
670.8672849999999
 30
0.0
 11
100.023235
 21
669.091285
 31
0.0
  0
LINE
  5
19E
330
1E
100
AcDbEntity
  8
0
100
AcDbLine
 10
100.023235
 20
670.8672849999999
 30
0.0
 11
100.023235
 21
673.753285
 31
0.0
  0
LINE
  5
19F
330
1E
100
AcDbEntity
  8
0
100
AcDbLine
 10
99.561235
 20
668.647285
 30
0.0
 11
99.561235
 21
670.4232849999999
 31
0.0
  0
LINE
  5
1A0
330
1E
100
AcDbEntity
  8
0
100
AcDbLine
 10
99.561235
 20
668.647285
 30
0.0
 11
99.561235
 21
667.9812849999999
 31
0.0
  0
LINE
  5
1A1
330
1E
100
AcDbEntity
  8
0
100
AcDbLine
 10
100.023235
 20
669.091285
 30
0.0
 11
100.023235
 21
668.4252849999999
 31
0.0
  0
LINE
  5
1A2
330
1E
100
AcDbEntity
  8
0
100
AcDbLine
 10
100.023235
 20
669.091285
 30
0.0
 11
100.023235
 21
670.8672849999999
 31
0.0
  0
LINE
  5
1A3
330
1E
100
AcDbEntity
  8
0
100
AcDbLine
 10
99.561235
 20
667.9812849999999
 30
0.0
 11
99.561235
 21
668.647285
 31
0.0
  0
LINE
  5
1A4
330
1E
100
AcDbEntity
  8
0
100
AcDbLine
 10
99.561235
 20
667.9812849999999
 30
0.0
 11
100.023235
 21
668.4252849999999
 31
0.0
  0
LINE
  5
1A5
330
1E
100
AcDbEntity
  8
0
100
AcDbLine
 10
63.02323499999999
 20
377.9812849999999
 30
0.0
 11
63.02323499999999
 21
30.48228499999999
 31
0.0
  0
LINE
  5
1A6
330
1E
100
AcDbEntity
  8
0
100
AcDbLine
 10
41.02323499999999
 20
667.9812849999999
 30
0.0
 11
99.561235
 21
667.9812849999999
 31
0.0
  0
LINE
  5
1A7
330
1E
100
AcDbEntity
  8
0
100
AcDbLine
 10
50.323235
 20
802.523285
 30
0.0
 11
51.46664585271309
 21
801.7771609689919
 31
0.0
  0
LINE
  5
1A8
330
1E
100
AcDbEntity
  8
0
100
AcDbLine
 10
49.423235
 20
803.089285
 30
0.0
 11
50.323235
 21
802.523285
 31
0.0
  0
LINE
  5
1A9
330
1E
100
AcDbEntity
  8
0
100
AcDbLine
 10
50.72323499999999
 20
802.3272849999999
 30
0.0
 11
53.02323499999999
 21
800.6252849999999
 31
0.0
  0
LINE
  5
1AA
330
1E
100
AcDbEntity
  8
0
100
AcDbLine
 10
50.623235
 20
820.8232849999999
 30
0.0
 11
56.523235
 21
824.623285
 31
0.0
  0
LINE
  5
1AB
330
1E
100
AcDbEntity
  8
0
100
AcDbLine
 10
50.323235
 20
820.9232849999999
 30
0.0
 11
56.223235
 21
824.773285
 31
0.0
  0
LINE
  5
1AC
330
1E
100
AcDbEntity
  8
0
100
AcDbLine
 10
53.02323499999999
 20
800.6252849999999
 30
0.0
 11
58.323235
 21
797.1252849999999
 31
0.0
  0
LINE
  5
1AD
330
1E
100
AcDbEntity
  8
0
100
AcDbLine
 10
52.623235
 20
836.100285
 30
0.0
 11
53.02323499999999
 21
836.3332849999999
 31
0.0
  0
LINE
  5
1AE
330
1E
100
AcDbEntity
  8
0
100
AcDbLine
 10
52.623235
 20
836.100285
 30
0.0
 11
61.323235
 21
839.4002849999999
 31
0.0
  0
LINE
  5
1AF
330
1E
100
AcDbEntity
  8
0
100
AcDbLine
 10
54.356535
 20
804.916285
 30
0.0
 11
54.96403499999999
 21
804.465285
 31
0.0
  0
LINE
  5
1B0
330
1E
100
AcDbEntity
  8
0
100
AcDbLine
 10
54.96403499999999
 20
804.465285
 30
0.0
 11
55.571635
 21
804.3142849999998
 31
0.0
  0
LINE
  5
1B1
330
1E
100
AcDbEntity
  8
0
100
AcDbLine
 10
55.488235
 20
801.3182849999999
 30
0.0
 11
56.152735
 21
800.950285
 31
0.0
  0
LINE
  5
1B2
330
1E
100
AcDbEntity
  8
0
100
AcDbLine
 10
55.125935
 20
801.9942849999999
 30
0.0
 11
55.635135
 21
801.916285
 31
0.0
  0
LINE
  5
1B4
330
1E
100
AcDbEntity
  8
0
100
AcDbLine
 10
55.055635
 20
801.7512849999999
 30
0.0
 11
55.488235
 21
801.3182849999999
 31
0.0
  0
LINE
  5
1B5
330
1E
100
AcDbEntity
  8
0
100
AcDbLine
 10
55.055635
 20
801.7512849999999
 30
0.0
 11
55.125935
 21
801.9942849999999
 31
0.0
  0
LINE
  5
1B6
330
1E
100
AcDbEntity
  8
0
100
AcDbLine
 10
55.635135
 20
801.916285
 30
0.0
 11
56.29963499999999
 21
801.5492849999999
 31
0.0
  0
LINE
  5
1B9
330
1E
100
AcDbEntity
  8
0
100
AcDbLine
 10
56.29963499999999
 20
801.5492849999999
 30
0.0
 11
56.732335
 21
801.1162849999999
 31
0.0
  0
LINE
  5
1BB
330
1E
100
AcDbEntity
  8
0
100
AcDbLine
 10
56.661935
 20
800.8732849999999
 30
0.0
 11
56.732335
 21
801.1162849999999
 31
0.0
  0
LINE
  5
1BD
330
1E
100
AcDbEntity
  8
0
100
AcDbLine
 10
56.152735
 20
800.950285
 30
0.0
 11
56.661935
 21
800.8732849999999
 31
0.0
  0
LINE
  5
1BF
330
1E
100
AcDbEntity
  8
0
100
AcDbLine
 10
55.571635
 20
804.3142849999998
 30
0.0
 11
55.83203499999999
 21
804.5352849999998
 31
0.0
  0
LINE
  5
1C0
330
1E
100
AcDbEntity
  8
0
100
AcDbLine
 10
55.571635
 20
805.014285
 30
0.0
 11
55.83203499999999
 21
804.5352849999998
 31
0.0
  0
LINE
  5
1C2
330
1E
100
AcDbEntity
  8
0
100
AcDbLine
 10
54.96403499999999
 20
805.465285
 30
0.0
 11
55.571635
 21
805.014285
 31
0.0
  0
LINE
  5
1C4
330
1E
100
AcDbEntity
  8
0
100
AcDbLine
 10
55.125935
 20
808.547285
 30
0.0
 11
55.635135
 21
808.0232849999999
 31
0.0
  0
LINE
  5
1C5
330
1E
100
AcDbEntity
  8
0
100
AcDbLine
 10
55.635135
 20
808.0232849999999
 30
0.0
 11
56.29963499999999
 21
807.7882849999999
 31
0.0
  0
LINE
  5
1C7
330
1E
100
AcDbEntity
  8
0
100
AcDbLine
 10
56.29963499999999
 20
807.7882849999999
 30
0.0
 11
56.732335
 21
807.9632849999999
 31
0.0
  0
LINE
  5
1C8
330
1E
100
AcDbEntity
  8
0
100
AcDbLine
 10
56.661935
 20
808.4642849999999
 30
0.0
 11
56.732335
 21
807.9632849999999
 31
0.0
  0
LINE
  5
1CA
330
1E
100
AcDbEntity
  8
0
100
AcDbLine
 10
56.152735
 20
808.989285
 30
0.0
 11
56.661935
 21
808.4642849999999
 31
0.0
  0
LINE
  5
1CC
330
1E
100
AcDbEntity
  8
0
100
AcDbLine
 10
56.523235
 20
824.623285
 30
0.0
 11
64.12323499999999
 21
827.5732849999998
 31
0.0
  0
LINE
  5
1CD
330
1E
100
AcDbEntity
  8
0
100
AcDbLine
 10
56.223235
 20
824.773285
 30
0.0
 11
63.92323499999999
 21
827.7232849999998
 31
0.0
  0
LINE
  5
1CE
330
1E
100
AcDbEntity
  8
0
100
AcDbLine
 10
55.488235
 20
809.2232849999998
 30
0.0
 11
56.152735
 21
808.989285
 31
0.0
  0
LINE
  5
1D0
330
1E
100
AcDbEntity
  8
0
100
AcDbLine
 10
55.055635
 20
809.0482849999999
 30
0.0
 11
55.488235
 21
809.2232849999998
 31
0.0
  0
LINE
  5
1D1
330
1E
100
AcDbEntity
  8
0
100
AcDbLine
 10
55.055635
 20
809.0482849999999
 30
0.0
 11
55.125935
 21
808.547285
 31
0.0
  0
LINE
  5
1D3
330
1E
100
AcDbEntity
  8
0
100
AcDbLine
 10
54.356535
 20
805.6162849999999
 30
0.0
 11
54.96403499999999
 21
805.465285
 31
0.0
  0
LINE
  5
1D5
330
1E
100
AcDbEntity
  8
0
100
AcDbLine
 10
54.09613499999999
 20
805.3952849999999
 30
0.0
 11
54.356535
 21
805.6162849999999
 31
0.0
  0
LINE
  5
1D6
330
1E
100
AcDbEntity
  8
0
100
AcDbLine
 10
54.09613499999999
 20
805.3952849999999
 30
0.0
 11
54.356535
 21
804.916285
 31
0.0
  0
LINE
  5
1D8
330
1E
100
AcDbEntity
  8
0
100
AcDbLine
 10
52.32323499999999
 20
837.1162849999999
 30
0.0
 11
61.223235
 21
840.5162849999999
 31
0.0
  0
LINE
  5
1D9
330
1E
100
AcDbEntity
  8
0
100
AcDbLine
 10
52.32323499999999
 20
841.4462849999999
 30
0.0
 11
61.223235
 21
844.846285
 31
0.0
  0
LINE
  5
1DA
330
1E
100
AcDbEntity
  8
0
100
AcDbLine
 10
53.02323499999999
 20
836.3332849999999
 30
0.0
 11
61.723235
 21
839.633285
 31
0.0
  0
LINE
  5
1DB
330
1E
100
AcDbEntity
  8
0
100
AcDbLine
 10
52.388735
 20
846.440285
 30
0.0
 11
57.886835
 21
850.055285
 31
0.0
  0
LINE
  5
1DC
330
1E
100
AcDbEntity
  8
0
100
AcDbLine
 10
52.623235
 20
841.729285
 30
0.0
 11
61.323235
 21
845.029285
 31
0.0
  0
LINE
  5
1DD
330
1E
100
AcDbEntity
  8
0
100
AcDbLine
 10
52.32323499999999
 20
842.312285
 30
0.0
 11
61.223235
 21
845.7122849999999
 31
0.0
  0
LINE
  5
1DE
330
1E
100
AcDbEntity
  8
0
100
AcDbLine
 10
52.7363472750072
 20
836.1441999085279
 30
0.0
 11
53.02323499999999
 21
836.3332849999999
 31
0.0
  0
LINE
  5
1DF
330
1E
100
AcDbEntity
  8
0
100
AcDbLine
 10
52.023235
 20
884.480285
 30
0.0
 11
54.82323499999999
 21
884.480285
 31
0.0
  0
LINE
  5
1E0
330
1E
100
AcDbEntity
  8
0
100
AcDbLine
 10
54.82323499999999
 20
884.480285
 30
0.0
 11
57.523235
 21
884.480285
 31
0.0
  0
LINE
  5
1E1
330
1E
100
AcDbEntity
  8
0
100
AcDbLine
 10
58.323235
 20
797.1252849999999
 30
0.0
 11
62.0733522961637
 21
795.705597737881
 31
0.0
  0
LINE
  5
1E3
330
1E
100
AcDbEntity
  8
0
100
AcDbLine
 10
58.801035
 20
798.288285
 30
0.0
 11
59.37653499999999
 21
797.9202849999999
 31
0.0
  0
LINE
  5
1E5
330
1E
100
AcDbEntity
  8
0
100
AcDbLine
 10
59.37653499999999
 20
797.9202849999999
 30
0.0
 11
59.50103499999999
 21
797.6812849999999
 31
0.0
  0
LINE
  5
1E7
330
1E
100
AcDbEntity
  8
0
100
AcDbLine
 10
59.124935
 20
797.701285
 30
0.0
 11
59.50103499999999
 21
797.6812849999999
 31
0.0
  0
LINE
  5
1E9
330
1E
100
AcDbEntity
  8
0
100
AcDbLine
 10
58.448735
 20
797.9802849999999
 30
0.0
 11
59.124935
 21
797.701285
 31
0.0
  0
LINE
  5
1EA
330
1E
100
AcDbEntity
  8
0
100
AcDbLine
 10
57.74873499999999
 20
798.586285
 30
0.0
 11
58.124935
 21
798.567285
 31
0.0
  0
LINE
  5
1EB
330
1E
100
AcDbEntity
  8
0
100
AcDbLine
 10
57.74873499999999
 20
798.586285
 30
0.0
 11
57.87333499999999
 21
798.3472849999999
 31
0.0
  0
LINE
  5
1ED
330
1E
100
AcDbEntity
  8
0
100
AcDbLine
 10
58.124935
 20
798.567285
 30
0.0
 11
58.801035
 21
798.288285
 31
0.0
  0
LINE
  5
1EF
330
1E
100
AcDbEntity
  8
0
100
AcDbLine
 10
57.87333499999999
 20
798.3472849999999
 30
0.0
 11
58.448735
 21
797.9802849999999
 31
0.0
  0
LINE
  5
1F1
330
1E
100
AcDbEntity
  8
0
100
AcDbLine
 10
60.36843499999999
 20
801.6252849999998
 30
0.0
 11
60.96623499999999
 21
801.575285
 31
0.0
  0
LINE
  5
1F3
330
1E
100
AcDbEntity
  8
0
100
AcDbLine
 10
60.96623499999999
 20
801.575285
 30
0.0
 11
61.64233499999999
 21
801.2272849999998
 31
0.0
  0
LINE
  5
1F5
330
1E
100
AcDbEntity
  8
0
100
AcDbLine
 10
60.551135
 20
800.931285
 30
0.0
 11
61.227235
 21
800.5832849999999
 31
0.0
  0
LINE
  5
1F6
330
1E
100
AcDbEntity
  8
0
100
AcDbLine
 10
60.18683499999999
 20
801.363285
 30
0.0
 11
60.551135
 21
800.931285
 31
0.0
  0
LINE
  5
1F7
330
1E
100
AcDbEntity
  8
0
100
AcDbLine
 10
60.18683499999999
 20
801.363285
 30
0.0
 11
60.36843499999999
 21
801.6252849999998
 31
0.0
  0
LINE
  5
1F9
330
1E
100
AcDbEntity
  8
0
100
AcDbLine
 10
60.36843499999999
 20
804.1952849999999
 30
0.0
 11
60.96623499999999
 21
803.7632849999999
 31
0.0
  0
LINE
  5
1FA
330
1E
100
AcDbEntity
  8
0
100
AcDbLine
 10
60.96623499999999
 20
803.7632849999999
 30
0.0
 11
61.64233499999999
 21
803.630285
 31
0.0
  0
LINE
  5
1FB
330
1E
100
AcDbEntity
  8
0
100
AcDbLine
 10
57.74873499999999
 20
811.9552849999999
 30
0.0
 11
58.124935
 21
811.3722849999998
 31
0.0
  0
LINE
  5
1FC
330
1E
100
AcDbEntity
  8
0
100
AcDbLine
 10
57.74873499999999
 20
811.9552849999999
 30
0.0
 11
57.87333499999999
 21
812.4522849999999
 31
0.0
  0
LINE
  5
1FD
330
1E
100
AcDbEntity
  8
0
100
AcDbLine
 10
58.124935
 20
811.3722849999998
 30
0.0
 11
58.801035
 21
811.0492849999999
 31
0.0
  0
LINE
  5
1FE
330
1E
100
AcDbEntity
  8
0
100
AcDbLine
 10
58.801035
 20
811.0492849999999
 30
0.0
 11
59.37653499999999
 21
811.1582849999999
 31
0.0
  0
LINE
  5
200
330
1E
100
AcDbEntity
  8
0
100
AcDbLine
 10
59.37653499999999
 20
811.1582849999999
 30
0.0
 11
59.50103499999999
 21
811.6552849999999
 31
0.0
  0
LINE
  5
202
330
1E
100
AcDbEntity
  8
0
100
AcDbLine
 10
59.124935
 20
812.2382850000001
 30
0.0
 11
59.50103499999999
 21
811.6552849999999
 31
0.0
  0
LINE
  5
204
330
1E
100
AcDbEntity
  8
0
100
AcDbLine
 10
58.448735
 20
812.5612849999999
 30
0.0
 11
59.124935
 21
812.2382850000001
 31
0.0
  0
LINE
  5
206
330
1E
100
AcDbEntity
  8
0
100
AcDbLine
 10
57.87333499999999
 20
812.4522849999999
 30
0.0
 11
58.448735
 21
812.5612849999999
 31
0.0
  0
LINE
  5
208
330
1E
100
AcDbEntity
  8
0
100
AcDbLine
 10
60.551135
 20
804.8892849999999
 30
0.0
 11
61.227235
 21
804.7552849999998
 31
0.0
  0
LINE
  5
209
330
1E
100
AcDbEntity
  8
0
100
AcDbLine
 10
60.18683499999999
 20
804.6632849999999
 30
0.0
 11
60.551135
 21
804.8892849999999
 31
0.0
  0
LINE
  5
20A
330
1E
100
AcDbEntity
  8
0
100
AcDbLine
 10
60.18683499999999
 20
804.6632849999999
 30
0.0
 11
60.36843499999999
 21
804.1952849999999
 31
0.0
  0
LINE
  5
20B
330
1E
100
AcDbEntity
  8
0
100
AcDbLine
 10
61.227235
 20
800.5832849999999
 30
0.0
 11
61.825035
 21
800.533285
 31
0.0
  0
LINE
  5
20C
330
1E
100
AcDbEntity
  8
0
100
AcDbLine
 10
61.323235
 20
839.4002849999999
 30
0.0
 11
71.523235
 21
841.500285
 31
0.0
  0
LINE
  5
20D
330
1E
100
AcDbEntity
  8
0
100
AcDbLine
 10
61.227235
 20
804.7552849999998
 30
0.0
 11
61.825035
 21
804.3242849999998
 31
0.0
  0
LINE
  5
20F
330
1E
100
AcDbEntity
  8
0
100
AcDbLine
 10
61.223235
 20
840.5162849999999
 30
0.0
 11
71.42323499999999
 21
842.6162849999998
 31
0.0
  0
LINE
  5
210
330
1E
100
AcDbEntity
  8
0
100
AcDbLine
 10
61.223235
 20
844.846285
 30
0.0
 11
71.42323499999999
 21
846.9462849999999
 31
0.0
  0
LINE
  5
211
330
1E
100
AcDbEntity
  8
0
100
AcDbLine
 10
61.323235
 20
845.029285
 30
0.0
 11
71.523235
 21
847.1292849999999
 31
0.0
  0
LINE
  5
212
330
1E
100
AcDbEntity
  8
0
100
AcDbLine
 10
57.886835
 20
850.055285
 30
0.0
 11
62.87593499999999
 21
852.3712849999999
 31
0.0
  0
LINE
  5
213
330
1E
100
AcDbEntity
  8
0
100
AcDbLine
 10
61.223235
 20
845.7122849999999
 30
0.0
 11
71.42323499999999
 21
847.812285
 31
0.0
  0
LINE
  5
214
330
1E
100
AcDbEntity
  8
0
100
AcDbLine
 10
57.523235
 20
884.480285
 30
0.0
 11
59.82323499999999
 21
884.480285
 31
0.0
  0
LINE
  5
215
330
1E
100
AcDbEntity
  8
0
100
AcDbLine
 10
59.82323499999999
 20
884.480285
 30
0.0
 11
61.523235
 21
884.480285
 31
0.0
  0
LINE
  5
216
330
1E
100
AcDbEntity
  8
0
100
AcDbLine
 10
61.78173499999999
 20
798.8272849999999
 30
0.0
 11
62.260435
 21
798.8482849999999
 31
0.0
  0
LINE
  5
217
330
1E
100
AcDbEntity
  8
0
100
AcDbLine
 10
61.78173499999999
 20
798.8272849999999
 30
0.0
 11
61.795235
 21
798.5552849999999
 31
0.0
  0
LINE
  5
219
330
1E
100
AcDbEntity
  8
0
100
AcDbLine
 10
61.795235
 20
798.5552849999999
 30
0.0
 11
62.317435
 21
798.1812849999999
 31
0.0
  0
LINE
  5
21A
330
1E
100
AcDbEntity
  8
0
100
AcDbLine
 10
61.64233499999999
 20
801.2272849999998
 30
0.0
 11
62.006635
 21
800.7952849999998
 31
0.0
  0
LINE
  5
21C
330
1E
100
AcDbEntity
  8
0
100
AcDbLine
 10
61.825035
 20
800.533285
 30
0.0
 11
62.006635
 21
800.7952849999998
 31
0.0
  0
LINE
  5
21D
330
1E
100
AcDbEntity
  8
0
100
AcDbLine
 10
61.78173499999999
 20
806.9922849999999
 30
0.0
 11
62.260435
 21
806.4902849999999
 31
0.0
  0
LINE
  5
21E
330
1E
100
AcDbEntity
  8
0
100
AcDbLine
 10
61.78173499999999
 20
806.9922849999999
 30
0.0
 11
61.795235
 21
807.4712849999999
 31
0.0
  0
LINE
  5
21F
330
1E
100
AcDbEntity
  8
0
100
AcDbLine
 10
61.795235
 20
807.4712849999999
 30
0.0
 11
62.317435
 21
807.6392849999999
 31
0.0
  0
LINE
  5
220
330
1E
100
AcDbEntity
  8
0
100
AcDbLine
 10
61.64233499999999
 20
803.630285
 30
0.0
 11
62.006635
 21
803.855285
 31
0.0
  0
LINE
  5
221
330
1E
100
AcDbEntity
  8
0
100
AcDbLine
 10
62.04633499999999
 20
795.6342849999999
 30
0.0
 11
62.263835
 21
795.653285
 31
0.0
  0
LINE
  5
222
330
1E
100
AcDbEntity
  8
0
100
AcDbLine
 10
62.04633499999999
 20
795.6342849999999
 30
0.0
 11
62.35723499999999
 21
795.4232849999999
 31
0.0
  0
LINE
  5
224
330
1E
100
AcDbEntity
  8
0
100
AcDbLine
 10
62.263835
 20
795.653285
 30
0.0
 11
62.905535
 21
795.461285
 31
0.0
  0
LINE
  5
226
330
1E
100
AcDbEntity
  8
0
100
AcDbLine
 10
62.35723499999999
 20
795.4232849999999
 30
0.0
 11
63.036235
 21
795.1392849999999
 31
0.0
  0
LINE
  5
228
330
1E
100
AcDbEntity
  8
0
100
AcDbLine
 10
62.260435
 20
798.8482849999999
 30
0.0
 11
62.96883499999999
 21
798.5922849999999
 31
0.0
  0
LINE
  5
22A
330
1E
100
AcDbEntity
  8
0
100
AcDbLine
 10
62.317435
 20
798.1812849999999
 30
0.0
 11
63.025835
 21
797.9242849999999
 31
0.0
  0
LINE
  5
22C
330
1E
100
AcDbEntity
  8
0
100
AcDbLine
 10
62.260435
 20
806.4902849999999
 30
0.0
 11
62.96883499999999
 21
806.2652849999999
 31
0.0
  0
LINE
  5
22D
330
1E
100
AcDbEntity
  8
0
100
AcDbLine
 10
62.317435
 20
807.6392849999999
 30
0.0
 11
63.025835
 21
807.4142849999999
 31
0.0
  0
LINE
  5
22F
330
1E
100
AcDbEntity
  8
0
100
AcDbLine
 10
61.825035
 20
804.3242849999998
 30
0.0
 11
62.006635
 21
803.855285
 31
0.0
  0
LINE
  5
231
330
1E
100
AcDbEntity
  8
0
100
AcDbLine
 10
62.04633499999999
 20
814.9082849999999
 30
0.0
 11
62.263835
 21
814.2862849999998
 31
0.0
  0
LINE
  5
232
330
1E
100
AcDbEntity
  8
0
100
AcDbLine
 10
62.04633499999999
 20
814.9082849999999
 30
0.0
 11
62.35723499999999
 21
815.3762849999999
 31
0.0
  0
LINE
  5
234
330
1E
100
AcDbEntity
  8
0
100
AcDbLine
 10
62.263835
 20
814.2862849999998
 30
0.0
 11
62.905535
 21
813.8762849999999
 31
0.0
  0
LINE
  5
235
330
1E
100
AcDbEntity
  8
0
100
AcDbLine
 10
62.905535
 20
795.461285
 30
0.0
 11
63.584635
 21
795.177285
 31
0.0
  0
LINE
  5
237
330
1E
100
AcDbEntity
  8
0
100
AcDbLine
 10
62.96883499999999
 20
798.5922849999999
 30
0.0
 11
63.491035
 21
798.2182849999999
 31
0.0
  0
LINE
  5
239
330
1E
100
AcDbEntity
  8
0
100
AcDbLine
 10
62.96883499999999
 20
806.2652849999999
 30
0.0
 11
63.491035
 21
806.4322849999999
 31
0.0
  0
LINE
  5
23A
330
1E
100
AcDbEntity
  8
0
100
AcDbLine
 10
62.905535
 20
813.8762849999999
 30
0.0
 11
63.584635
 21
813.9022849999999
 31
0.0
  0
LINE
  5
23B
330
1E
100
AcDbEntity
  8
0
100
AcDbLine
 10
62.35723499999999
 20
815.3762849999999
 30
0.0
 11
63.036235
 21
815.403285
 31
0.0
  0
LINE
  5
23D
330
1E
100
AcDbEntity
  8
0
100
AcDbLine
 10
62.87593499999999
 20
852.3712849999999
 30
0.0
 11
68.679635
 21
854.5602849999999
 31
0.0
  0
LINE
  5
23E
330
1E
100
AcDbEntity
  8
0
100
AcDbLine
 10
61.723235
 20
839.633285
 30
0.0
 11
71.62323499999999
 21
841.683285
 31
0.0
  0
LINE
  5
23F
330
1E
100
AcDbEntity
  8
0
100
AcDbLine
 10
63.02323499999999
 20
795.144722407953
 30
0.0
 11
63.02323499999999
 21
704.9812849999999
 31
0.0
  0
LINE
  5
240
330
1E
100
AcDbEntity
  8
0
100
AcDbLine
 10
63.02323499999999
 20
884.480285
 30
0.0
 11
63.02323499999999
 21
852.4268426098011
 31
0.0
  0
LINE
  5
241
330
1E
100
AcDbEntity
  8
0
100
AcDbLine
 10
61.523235
 20
884.480285
 30
0.0
 11
62.623235
 21
884.480285
 31
0.0
  0
LINE
  5
242
330
1E
100
AcDbEntity
  8
0
100
AcDbLine
 10
62.623235
 20
884.480285
 30
0.0
 11
63.02323499999999
 21
884.480285
 31
0.0
  0
LINE
  5
243
330
1E
100
AcDbEntity
  8
0
100
AcDbLine
 10
63.025835
 20
797.9242849999999
 30
0.0
 11
63.504535
 21
797.945285
 31
0.0
  0
LINE
  5
244
330
1E
100
AcDbEntity
  8
0
100
AcDbLine
 10
63.036235
 20
795.1392849999999
 30
0.0
 11
63.67803499999999
 21
794.9462849999999
 31
0.0
  0
LINE
  5
246
330
1E
100
AcDbEntity
  8
0
100
AcDbLine
 10
63.584635
 20
795.177285
 30
0.0
 11
63.895435
 21
794.966285
 31
0.0
  0
LINE
  5
248
330
1E
100
AcDbEntity
  8
0
100
AcDbLine
 10
63.67803499999999
 20
794.9462849999999
 30
0.0
 11
63.895435
 21
794.966285
 31
0.0
  0
LINE
  5
24B
330
1E
100
AcDbEntity
  8
0
100
AcDbLine
 10
63.491035
 20
798.2182849999999
 30
0.0
 11
63.504535
 21
797.945285
 31
0.0
  0
LINE
  5
24E
330
1E
100
AcDbEntity
  8
0
100
AcDbLine
 10
63.491035
 20
806.4322849999999
 30
0.0
 11
63.504535
 21
806.9122849999999
 31
0.0
  0
LINE
  5
250
330
1E
100
AcDbEntity
  8
0
100
AcDbLine
 10
63.025835
 20
807.4142849999999
 30
0.0
 11
63.504535
 21
806.9122849999999
 31
0.0
  0
LINE
  5
251
330
1E
100
AcDbEntity
  8
0
100
AcDbLine
 10
63.584635
 20
813.9022849999999
 30
0.0
 11
63.895435
 21
814.371285
 31
0.0
  0
LINE
  5
252
330
1E
100
AcDbEntity
  8
0
100
AcDbLine
 10
63.911838436808
 20
795.0095994132079
 30
0.0
 11
65.323235
 21
794.475285
 31
0.0
  0
LINE
  5
254
330
1E
100
AcDbEntity
  8
0
100
AcDbLine
 10
64.59483500000001
 20
796.308285
 30
0.0
 11
64.92193499999999
 21
796.3822849999999
 31
0.0
  0
LINE
  5
255
330
1E
100
AcDbEntity
  8
0
100
AcDbLine
 10
64.59483500000001
 20
796.308285
 30
0.0
 11
64.80253499999999
 21
796.0502849999999
 31
0.0
  0
LINE
  5
257
330
1E
100
AcDbEntity
  8
0
100
AcDbLine
 10
65.323235
 20
794.475285
 30
0.0
 11
67.8645358770747
 21
793.8118239495919
 31
0.0
  0
LINE
  5
258
330
1E
100
AcDbEntity
  8
0
100
AcDbLine
 10
66.13943499999999
 20
795.589285
 30
0.0
 11
66.46653499999999
 21
795.662285
 31
0.0
  0
LINE
  5
259
330
1E
100
AcDbEntity
  8
0
100
AcDbLine
 10
64.92193499999999
 20
796.3822849999999
 30
0.0
 11
65.614235
 21
796.2182849999999
 31
0.0
  0
LINE
  5
25B
330
1E
100
AcDbEntity
  8
0
100
AcDbLine
 10
65.614235
 20
796.2182849999999
 30
0.0
 11
66.25883499999999
 21
795.921285
 31
0.0
  0
LINE
  5
25D
330
1E
100
AcDbEntity
  8
0
100
AcDbLine
 10
65.447135
 20
795.753285
 30
0.0
 11
66.13943499999999
 21
795.589285
 31
0.0
  0
LINE
  5
25E
330
1E
100
AcDbEntity
  8
0
100
AcDbLine
 10
64.80253499999999
 20
796.0502849999999
 30
0.0
 11
65.447135
 21
795.753285
 31
0.0
  0
LINE
  5
25F
330
1E
100
AcDbEntity
  8
0
100
AcDbLine
 10
64.59483500000001
 20
809.5112849999999
 30
0.0
 11
64.92193499999999
 21
808.956285
 31
0.0
  0
LINE
  5
260
330
1E
100
AcDbEntity
  8
0
100
AcDbLine
 10
64.59483500000001
 20
809.5112849999999
 30
0.0
 11
64.80253499999999
 21
809.9762849999999
 31
0.0
  0
LINE
  5
261
330
1E
100
AcDbEntity
  8
0
100
AcDbLine
 10
64.92193499999999
 20
808.956285
 30
0.0
 11
65.614235
 21
808.6392849999999
 31
0.0
  0
LINE
  5
262
330
1E
100
AcDbEntity
  8
0
100
AcDbLine
 10
65.614235
 20
808.6392849999999
 30
0.0
 11
66.25883499999999
 21
808.729285
 31
0.0
  0
LINE
  5
264
330
1E
100
AcDbEntity
  8
0
100
AcDbLine
 10
66.25883499999999
 20
795.921285
 30
0.0
 11
66.46653499999999
 21
795.662285
 31
0.0
  0
LINE
  5
267
330
1E
100
AcDbEntity
  8
0
100
AcDbLine
 10
66.25883499999999
 20
808.729285
 30
0.0
 11
66.46653499999999
 21
809.1942849999998
 31
0.0
  0
LINE
  5
269
330
1E
100
AcDbEntity
  8
0
100
AcDbLine
 10
66.13943499999999
 20
809.749285
 30
0.0
 11
66.46653499999999
 21
809.1942849999998
 31
0.0
  0
LINE
  5
26A
330
1E
100
AcDbEntity
  8
0
100
AcDbLine
 10
65.447135
 20
810.067285
 30
0.0
 11
66.13943499999999
 21
809.749285
 31
0.0
  0
LINE
  5
26B
330
1E
100
AcDbEntity
  8
0
100
AcDbLine
 10
64.80253499999999
 20
809.9762849999999
 30
0.0
 11
65.447135
 21
810.067285
 31
0.0
  0
LINE
  5
26C
330
1E
100
AcDbEntity
  8
0
100
AcDbLine
 10
63.67803499999999
 20
814.993285
 30
0.0
 11
63.895435
 21
814.371285
 31
0.0
  0
LINE
  5
26E
330
1E
100
AcDbEntity
  8
0
100
AcDbLine
 10
64.12323499999999
 20
827.5732849999998
 30
0.0
 11
72.92323499999999
 21
829.3732849999999
 31
0.0
  0
LINE
  5
26F
330
1E
100
AcDbEntity
  8
0
100
AcDbLine
 10
63.92323499999999
 20
827.7232849999998
 30
0.0
 11
72.823235
 21
829.573285
 31
0.0
  0
LINE
  5
270
330
1E
100
AcDbEntity
  8
0
100
AcDbLine
 10
63.036235
 20
815.403285
 30
0.0
 11
63.67803499999999
 21
814.993285
 31
0.0
  0
LINE
  5
272
330
1E
100
AcDbEntity
  8
0
100
AcDbLine
 10
67.297535
 20
769.113485
 30
0.0
 11
67.59553499999999
 21
775.859285
 31
0.0
  0
LINE
  5
273
330
1E
100
AcDbEntity
  8
0
100
AcDbLine
 10
67.297535
 20
750.540085
 30
0.0
 11
67.521035
 21
739.769085
 31
0.0
  0
LINE
  5
274
330
1E
100
AcDbEntity
  8
0
100
AcDbLine
 10
67.785535
 20
793.3702849999999
 30
0.0
 11
68.349135
 21
793.2572849999999
 31
0.0
  0
LINE
  5
276
330
1E
100
AcDbEntity
  8
0
100
AcDbLine
 10
67.741635
 20
793.3332849999999
 30
0.0
 11
68.217635
 21
793.1752849999999
 31
0.0
  0
LINE
  5
277
330
1E
100
AcDbEntity
  8
0
100
AcDbLine
 10
67.741635
 20
793.3332849999999
 30
0.0
 11
67.785535
 21
793.3702849999999
 31
0.0
  0
LINE
  5
278
330
1E
100
AcDbEntity
  8
0
100
AcDbLine
 10
67.741635
 20
793.3332849999999
 30
0.0
 11
67.87231214325089
 21
793.842102384834
 31
0.0
  0
LINE
  5
279
330
1E
100
AcDbEntity
  8
0
100
AcDbLine
 10
67.785535
 20
816.5692849999999
 30
0.0
 11
68.349135
 21
816.0792849999999
 31
0.0
  0
LINE
  5
27A
330
1E
100
AcDbEntity
  8
0
100
AcDbLine
 10
67.741635
 20
817.2082849999998
 30
0.0
 11
68.217635
 21
817.6252849999999
 31
0.0
  0
LINE
  5
27B
330
1E
100
AcDbEntity
  8
0
100
AcDbLine
 10
67.741635
 20
817.2082849999998
 30
0.0
 11
67.785535
 21
816.5692849999999
 31
0.0
  0
LINE
  5
27C
330
1E
100
AcDbEntity
  8
0
100
AcDbLine
 10
67.80702269031879
 20
793.82683899942
 30
0.0
 11
67.82900516233289
 21
793.6734780621139
 31
0.0
  0
LINE
  5
27D
330
1E
100
AcDbEntity
  8
0
100
AcDbLine
 10
67.59553499999999
 20
775.859285
 30
0.0
 11
68.340535
 21
784.777285
 31
0.0
  0
LINE
  5
27E
330
1E
100
AcDbEntity
  8
0
100
AcDbLine
 10
67.148535
 20
759.017385
 30
0.0
 11
67.297535
 21
769.113485
 31
0.0
  0
LINE
  5
27F
330
1E
100
AcDbEntity
  8
0
100
AcDbLine
 10
67.148535
 20
759.017385
 30
0.0
 11
67.297535
 21
750.540085
 31
0.0
  0
LINE
  5
280
330
1E
100
AcDbEntity
  8
0
100
AcDbLine
 10
67.521035
 20
739.769085
 30
0.0
 11
67.819035
 21
728.264585
 31
0.0
  0
LINE
  5
281
330
1E
100
AcDbEntity
  8
0
100
AcDbLine
 10
68.16253499999999
 20
794.5772849999999
 30
0.0
 11
68.791535
 21
794.5002849999999
 31
0.0
  0
LINE
  5
283
330
1E
100
AcDbEntity
  8
0
100
AcDbLine
 10
68.00943499999999
 20
794.4722849999999
 30
0.0
 11
68.39713499999999
 21
794.253285
 31
0.0
  0
LINE
  5
284
330
1E
100
AcDbEntity
  8
0
100
AcDbLine
 10
68.00943499999999
 20
794.4722849999999
 30
0.0
 11
68.16253499999999
 21
794.5772849999999
 31
0.0
  0
LINE
  5
286
330
1E
100
AcDbEntity
  8
0
100
AcDbLine
 10
68.217635
 20
793.1752849999999
 30
0.0
 11
68.954035
 21
792.9832849999999
 31
0.0
  0
LINE
  5
288
330
1E
100
AcDbEntity
  8
0
100
AcDbLine
 10
68.349135
 20
793.2572849999999
 30
0.0
 11
69.085535
 21
793.066285
 31
0.0
  0
LINE
  5
28A
330
1E
100
AcDbEntity
  8
0
100
AcDbLine
 10
68.39713499999999
 20
794.253285
 30
0.0
 11
69.120135
 21
794.046285
 31
0.0
  0
LINE
  5
28C
330
1E
100
AcDbEntity
  8
0
100
AcDbLine
 10
68.954035
 20
792.9832849999999
 30
0.0
 11
69.517635
 21
792.8702849999999
 31
0.0
  0
LINE
  5
28E
330
1E
100
AcDbEntity
  8
0
100
AcDbLine
 10
69.085535
 20
793.066285
 30
0.0
 11
69.56163499999999
 21
792.9072849999999
 31
0.0
  0
LINE
  5
290
330
1E
100
AcDbEntity
  8
0
100
AcDbLine
 10
68.791535
 20
794.5002849999999
 30
0.0
 11
69.51453499999999
 21
794.293285
 31
0.0
  0
LINE
  5
292
330
1E
100
AcDbEntity
  8
0
100
AcDbLine
 10
68.791535
 20
810.3572849999999
 30
0.0
 11
69.51453499999999
 21
810.3572849999999
 31
0.0
  0
LINE
  5
293
330
1E
100
AcDbEntity
  8
0
100
AcDbLine
 10
68.16253499999999
 20
810.7612849999998
 30
0.0
 11
68.791535
 21
810.3572849999999
 31
0.0
  0
LINE
  5
294
330
1E
100
AcDbEntity
  8
0
100
AcDbLine
 10
68.39713499999999
 20
811.7732849999999
 30
0.0
 11
69.120135
 21
811.7742849999999
 31
0.0
  0
LINE
  5
295
330
1E
100
AcDbEntity
  8
0
100
AcDbLine
 10
68.00943499999999
 20
811.3482849999998
 30
0.0
 11
68.39713499999999
 21
811.7732849999999
 31
0.0
  0
LINE
  5
296
330
1E
100
AcDbEntity
  8
0
100
AcDbLine
 10
68.00943499999999
 20
811.3482849999998
 30
0.0
 11
68.16253499999999
 21
810.7612849999998
 31
0.0
  0
LINE
  5
298
330
1E
100
AcDbEntity
  8
0
100
AcDbLine
 10
69.120135
 20
794.046285
 30
0.0
 11
69.749235
 21
793.9682849999999
 31
0.0
  0
LINE
  5
29A
330
1E
100
AcDbEntity
  8
0
100
AcDbLine
 10
69.6947090441226
 20
793.425435193946
 30
0.0
 11
74.36216518193159
 21
792.478415108014
 31
0.0
  0
LINE
  5
29C
330
1E
100
AcDbEntity
  8
0
100
AcDbLine
 10
69.517635
 20
792.8702849999999
 30
0.0
 11
69.56163499999999
 21
792.9072849999999
 31
0.0
  0
LINE
  5
29E
330
1E
100
AcDbEntity
  8
0
100
AcDbLine
 10
69.749235
 20
793.9682849999999
 30
0.0
 11
69.902235
 21
794.0742849999999
 31
0.0
  0
LINE
  5
2A0
330
1E
100
AcDbEntity
  8
0
100
AcDbLine
 10
69.51453499999999
 20
794.293285
 30
0.0
 11
69.902235
 21
794.0742849999999
 31
0.0
  0
LINE
  5
2A2
330
1E
100
AcDbEntity
  8
0
100
AcDbLine
 10
69.120135
 20
811.7742849999999
 30
0.0
 11
69.749235
 21
811.3702849999999
 31
0.0
  0
LINE
  5
2A4
330
1E
100
AcDbEntity
  8
0
100
AcDbLine
 10
69.749235
 20
811.3702849999999
 30
0.0
 11
69.902235
 21
810.7832849999999
 31
0.0
  0
LINE
  5
2A6
330
1E
100
AcDbEntity
  8
0
100
AcDbLine
 10
69.51453499999999
 20
810.3572849999999
 30
0.0
 11
69.902235
 21
810.7832849999999
 31
0.0
  0
LINE
  5
2A7
330
1E
100
AcDbEntity
  8
0
100
AcDbLine
 10
69.085535
 20
816.013285
 30
0.0
 11
69.56163499999999
 21
816.4292849999998
 31
0.0
  0
LINE
  5
2A8
330
1E
100
AcDbEntity
  8
0
100
AcDbLine
 10
68.217635
 20
817.6252849999999
 30
0.0
 11
68.954035
 21
817.5582849999999
 31
0.0
  0
LINE
  5
2AA
330
1E
100
AcDbEntity
  8
0
100
AcDbLine
 10
68.954035
 20
817.5582849999999
 30
0.0
 11
69.517635
 21
817.069285
 31
0.0
  0
LINE
  5
2AC
330
1E
100
AcDbEntity
  8
0
100
AcDbLine
 10
69.517635
 20
817.069285
 30
0.0
 11
69.56163499999999
 21
816.4292849999998
 31
0.0
  0
LINE
  5
2AE
330
1E
100
AcDbEntity
  8
0
100
AcDbLine
 10
68.349135
 20
816.0792849999999
 30
0.0
 11
69.085535
 21
816.013285
 31
0.0
  0
LINE
  5
2AF
330
1E
100
AcDbEntity
  8
0
100
AcDbLine
 10
67.8845683781776
 20
793.2858407274119
 30
0.0
 11
68.191535
 21
791.144285
 31
0.0
  0
LINE
  5
2B0
330
1E
100
AcDbEntity
  8
0
100
AcDbLine
 10
68.191535
 20
791.144285
 30
0.0
 11
68.340535
 21
784.777285
 31
0.0
  0
LINE
  5
2B1
330
1E
100
AcDbEntity
  8
0
100
AcDbLine
 10
67.819035
 20
728.264585
 30
0.0
 11
68.563935
 21
716.2445849999999
 31
0.0
  0
LINE
  5
2B2
330
1E
100
AcDbEntity
  8
0
100
AcDbLine
 10
68.563935
 20
716.2445849999999
 30
0.0
 11
69.32323499999999
 21
704.4170849999999
 31
0.0
  0
LINE
  5
2B3
330
1E
100
AcDbEntity
  8
0
100
AcDbLine
 10
71.523235
 20
841.500285
 30
0.0
 11
82.32323499999999
 21
842.2502849999998
 31
0.0
  0
LINE
  5
2B4
330
1E
100
AcDbEntity
  8
0
100
AcDbLine
 10
71.42323499999999
 20
842.6162849999998
 30
0.0
 11
82.32323499999999
 21
843.3662849999999
 31
0.0
  0
LINE
  5
2B5
330
1E
100
AcDbEntity
  8
0
100
AcDbLine
 10
71.42323499999999
 20
846.9462849999999
 30
0.0
 11
82.32323499999999
 21
847.6962849999999
 31
0.0
  0
LINE
  5
2B9
330
1E
100
AcDbEntity
  8
0
100
AcDbLine
 10
96.082535
 20
716.2445849999999
 30
0.0
 11
96.827435
 21
728.264585
 31
0.0
  0
LINE
  5
2BA
330
1E
100
AcDbEntity
  8
0
100
AcDbLine
 10
81.323235
 20
786.888285
 30
0.0
 11
81.323235
 21
786.947285
 31
0.0
  0
LINE
  5
2BB
330
1E
100
AcDbEntity
  8
0
100
AcDbLine
 10
81.323235
 20
786.888285
 30
0.0
 11
83.32323499999999
 21
786.888285
 31
0.0
  0
LINE
  5
2BC
330
1E
100
AcDbEntity
  8
0
100
AcDbLine
 10
81.323235
 20
786.888285
 30
0.0
 11
81.323235
 21
787.325285
 31
0.0
  0
LINE
  5
2BD
330
1E
100
AcDbEntity
  8
0
100
AcDbLine
 10
81.323235
 20
787.325285
 30
0.0
 11
81.323235
 21
786.888285
 31
0.0
  0
LINE
  5
2BE
330
1E
100
AcDbEntity
  8
0
100
AcDbLine
 10
81.323235
 20
787.325285
 30
0.0
 11
81.323235
 21
788.0772849999999
 31
0.0
  0
LINE
  5
2BF
330
1E
100
AcDbEntity
  8
0
100
AcDbLine
 10
81.323235
 20
786.947285
 30
0.0
 11
81.323235
 21
787.5552849999999
 31
0.0
  0
LINE
  5
2C0
330
1E
100
AcDbEntity
  8
0
100
AcDbLine
 10
81.323235
 20
786.947285
 30
0.0
 11
81.323235
 21
786.888285
 31
0.0
  0
LINE
  5
2C1
330
1E
100
AcDbEntity
  8
0
100
AcDbLine
 10
81.323235
 20
787.5552849999999
 30
0.0
 11
81.323235
 21
788.8142849999999
 31
0.0
  0
LINE
  5
2C2
330
1E
100
AcDbEntity
  8
0
100
AcDbLine
 10
81.323235
 20
787.5552849999999
 30
0.0
 11
81.323235
 21
786.947285
 31
0.0
  0
LINE
  5
2C3
330
1E
100
AcDbEntity
  8
0
100
AcDbLine
 10
83.32323499999999
 20
786.888285
 30
0.0
 11
83.32323499999999
 21
786.947285
 31
0.0
  0
LINE
  5
2C4
330
1E
100
AcDbEntity
  8
0
100
AcDbLine
 10
83.32323499999999
 20
786.947285
 30
0.0
 11
83.32323499999999
 21
786.888285
 31
0.0
  0
LINE
  5
2C5
330
1E
100
AcDbEntity
  8
0
100
AcDbLine
 10
83.32323499999999
 20
786.947285
 30
0.0
 11
83.32323499999999
 21
787.5552849999999
 31
0.0
  0
LINE
  5
2C6
330
1E
100
AcDbEntity
  8
0
100
AcDbLine
 10
81.323235
 20
788.0772849999999
 30
0.0
 11
81.323235
 21
787.325285
 31
0.0
  0
LINE
  5
2C7
330
1E
100
AcDbEntity
  8
0
100
AcDbLine
 10
81.323235
 20
788.0772849999999
 30
0.0
 11
81.323235
 21
789.082285
 31
0.0
  0
LINE
  5
2C8
330
1E
100
AcDbEntity
  8
0
100
AcDbLine
 10
81.323235
 20
789.082285
 30
0.0
 11
81.323235
 21
788.0772849999999
 31
0.0
  0
LINE
  5
2C9
330
1E
100
AcDbEntity
  8
0
100
AcDbLine
 10
81.323235
 20
789.082285
 30
0.0
 11
81.323235
 21
790.6262849999999
 31
0.0
  0
LINE
  5
2CA
330
1E
100
AcDbEntity
  8
0
100
AcDbLine
 10
81.323235
 20
788.8142849999999
 30
0.0
 11
81.323235
 21
790.2322849999999
 31
0.0
  0
LINE
  5
2CB
330
1E
100
AcDbEntity
  8
0
100
AcDbLine
 10
81.323235
 20
788.8142849999999
 30
0.0
 11
81.323235
 21
787.5552849999999
 31
0.0
  0
LINE
  5
2CC
330
1E
100
AcDbEntity
  8
0
100
AcDbLine
 10
81.323235
 20
790.2322849999999
 30
0.0
 11
81.323235
 21
791.9127781506849
 31
0.0
  0
LINE
  5
2CD
330
1E
100
AcDbEntity
  8
0
100
AcDbLine
 10
81.323235
 20
790.2322849999999
 30
0.0
 11
81.323235
 21
788.8142849999999
 31
0.0
  0
LINE
  5
2CE
330
1E
100
AcDbEntity
  8
0
100
AcDbLine
 10
83.32323499999999
 20
787.5552849999999
 30
0.0
 11
83.32323499999999
 21
786.947285
 31
0.0
  0
LINE
  5
2CF
330
1E
100
AcDbEntity
  8
0
100
AcDbLine
 10
83.32323499999999
 20
787.5552849999999
 30
0.0
 11
83.32323499999999
 21
788.8142849999999
 31
0.0
  0
LINE
  5
2D0
330
1E
100
AcDbEntity
  8
0
100
AcDbLine
 10
83.32323499999999
 20
788.8142849999999
 30
0.0
 11
83.32323499999999
 21
787.5552849999999
 31
0.0
  0
LINE
  5
2D1
330
1E
100
AcDbEntity
  8
0
100
AcDbLine
 10
83.32323499999999
 20
788.8142849999999
 30
0.0
 11
83.32323499999999
 21
790.2322849999999
 31
0.0
  0
LINE
  5
2D8
330
1E
100
AcDbEntity
  8
0
100
AcDbLine
 10
72.833635
 20
793.0202849999999
 30
0.0
 11
72.86503499999999
 21
792.9072849999999
 31
0.0
  0
LINE
  5
2D9
330
1E
100
AcDbEntity
  8
0
100
AcDbLine
 10
72.833635
 20
793.0202849999999
 30
0.0
 11
73.356735
 21
793.019285
 31
0.0
  0
LINE
  5
2DB
330
1E
100
AcDbEntity
  8
0
100
AcDbLine
 10
72.86503499999999
 20
792.9072849999999
 30
0.0
 11
73.406335
 21
792.749285
 31
0.0
  0
LINE
  5
2DC
330
1E
100
AcDbEntity
  8
0
100
AcDbLine
 10
72.86503499999999
 20
792.9072849999999
 30
0.0
 11
72.8810680636347
 21
793.01047905222
 31
0.0
  0
LINE
  5
2DD
330
1E
100
AcDbEntity
  8
0
100
AcDbLine
 10
72.823235
 20
829.573285
 30
0.0
 11
82.32323499999999
 21
830.2232849999999
 31
0.0
  0
LINE
  5
2DE
330
1E
100
AcDbEntity
  8
0
100
AcDbLine
 10
72.833635
 20
812.3182849999999
 30
0.0
 11
72.86503499999999
 21
812.9132849999999
 31
0.0
  0
LINE
  5
2DF
330
1E
100
AcDbEntity
  8
0
100
AcDbLine
 10
72.833635
 20
812.3182849999999
 30
0.0
 11
73.356735
 21
811.8382849999999
 31
0.0
  0
LINE
  5
2E0
330
1E
100
AcDbEntity
  8
0
100
AcDbLine
 10
73.406335
 20
792.749285
 30
0.0
 11
74.158435
 21
792.639285
 31
0.0
  0
LINE
  5
2E2
330
1E
100
AcDbEntity
  8
0
100
AcDbLine
 10
74.108735
 20
792.9092849999999
 30
0.0
 11
74.65013499999999
 21
792.7512849999999
 31
0.0
  0
LINE
  5
2E7
330
1E
100
AcDbEntity
  8
0
100
AcDbLine
 10
73.356735
 20
793.019285
 30
0.0
 11
74.108735
 21
792.9092849999999
 31
0.0
  0
LINE
  5
2E9
330
1E
100
AcDbEntity
  8
0
100
AcDbLine
 10
74.285135
 20
791.8842849999999
 30
0.0
 11
74.417635
 21
791.8532849999999
 31
0.0
  0
LINE
  5
2EA
330
1E
100
AcDbEntity
  8
0
100
AcDbLine
 10
74.285135
 20
791.8842849999999
 30
0.0
 11
74.73213499999999
 21
791.8382849999999
 31
0.0
  0
LINE
  5
2EB
330
1E
100
AcDbEntity
  8
0
100
AcDbLine
 10
74.285135
 20
791.8842849999999
 30
0.0
 11
74.3829666304437
 21
792.6388556852189
 31
0.0
  0
LINE
  5
2EC
330
1E
100
AcDbEntity
  8
0
100
AcDbLine
 10
75.02643499999999
 20
791.7662849999999
 30
0.0
 11
75.769935
 21
791.672285
 31
0.0
  0
LINE
  5
2ED
330
1E
100
AcDbEntity
  8
0
100
AcDbLine
 10
76.21693499999999
 20
791.625285
 30
0.0
 11
76.2987862933085
 21
792.2569184730611
 31
0.0
  0
LINE
  5
2EE
330
1E
100
AcDbEntity
  8
0
100
AcDbLine
 10
75.769935
 20
791.672285
 30
0.0
 11
76.21693499999999
 21
791.625285
 31
0.0
  0
LINE
  5
2EF
330
1E
100
AcDbEntity
  8
0
100
AcDbLine
 10
76.08443499999999
 20
791.657285
 30
0.0
 11
76.21693499999999
 21
791.625285
 31
0.0
  0
LINE
  5
2F1
330
1E
100
AcDbEntity
  8
0
100
AcDbLine
 10
75.47563499999999
 20
791.744285
 30
0.0
 11
76.08443499999999
 21
791.657285
 31
0.0
  0
LINE
  5
2F3
330
1E
100
AcDbEntity
  8
0
100
AcDbLine
 10
74.73213499999999
 20
791.8382849999999
 30
0.0
 11
75.47563499999999
 21
791.744285
 31
0.0
  0
LINE
  5
2F5
330
1E
100
AcDbEntity
  8
0
100
AcDbLine
 10
74.417635
 20
791.8532849999999
 30
0.0
 11
75.02643499999999
 21
791.7662849999999
 31
0.0
  0
LINE
  5
2F6
330
1E
100
AcDbEntity
  8
0
100
AcDbLine
 10
79.023235
 20
791.9452849999999
 30
0.0
 11
79.753135
 21
791.932285
 31
0.0
  0
LINE
  5
2F8
330
1E
100
AcDbEntity
  8
0
100
AcDbLine
 10
80.1345870407496
 20
791.994192394469
 30
0.0
 11
81.332435
 21
791.912148013699
 31
0.0
  0
LINE
  5
2FA
330
1E
100
AcDbEntity
  8
0
100
AcDbLine
 10
79.753135
 20
791.932285
 30
0.0
 11
80.13443499999999
 21
791.9912849999999
 31
0.0
  0
LINE
  5
2FC
330
1E
100
AcDbEntity
  8
0
100
AcDbLine
 10
76.2987862933085
 20
792.2569184730611
 30
0.0
 11
78.1519900515393
 21
792.1299867087989
 31
0.0
  0
LINE
  5
2FE
330
1E
100
AcDbEntity
  8
0
100
AcDbLine
 10
74.158435
 20
792.639285
 30
0.0
 11
74.681435
 21
792.638285
 31
0.0
  0
LINE
  5
306
330
1E
100
AcDbEntity
  8
0
100
AcDbLine
 10
74.65013499999999
 20
792.7512849999999
 30
0.0
 11
74.681435
 21
792.638285
 31
0.0
  0
LINE
  5
308
330
1E
100
AcDbEntity
  8
0
100
AcDbLine
 10
79.92083499999999
 20
792.0882849999999
 30
0.0
 11
80.13443499999999
 21
791.9912849999999
 31
0.0
  0
LINE
  5
30A
330
1E
100
AcDbEntity
  8
0
100
AcDbLine
 10
79.262835
 20
792.167285
 30
0.0
 11
79.92083499999999
 21
792.0882849999999
 31
0.0
  0
LINE
  5
30F
330
1E
100
AcDbEntity
  8
0
100
AcDbLine
 10
78.53283499999999
 20
792.1792849999999
 30
0.0
 11
79.262835
 21
792.167285
 31
0.0
  0
LINE
  5
311
330
1E
100
AcDbEntity
  8
0
100
AcDbLine
 10
78.151535
 20
792.1212849999999
 30
0.0
 11
78.36513499999999
 21
792.024285
 31
0.0
  0
LINE
  5
312
330
1E
100
AcDbEntity
  8
0
100
AcDbLine
 10
78.151535
 20
792.1212849999999
 30
0.0
 11
78.53283499999999
 21
792.1792849999999
 31
0.0
  0
LINE
  5
314
330
1E
100
AcDbEntity
  8
0
100
AcDbLine
 10
78.36513499999999
 20
792.024285
 30
0.0
 11
79.023235
 21
791.9452849999999
 31
0.0
  0
LINE
  5
316
330
1E
100
AcDbEntity
  8
0
100
AcDbLine
 10
74.108735
 20
811.7412849999999
 30
0.0
 11
74.65013499999999
 21
812.1062849999999
 31
0.0
  0
LINE
  5
318
330
1E
100
AcDbEntity
  8
0
100
AcDbLine
 10
72.92323499999999
 20
829.3732849999999
 30
0.0
 11
82.32323499999999
 21
829.9732849999999
 31
0.0
  0
LINE
  5
319
330
1E
100
AcDbEntity
  8
0
100
AcDbLine
 10
74.285135
 20
818.0552849999999
 30
0.0
 11
74.417635
 21
818.6882849999999
 31
0.0
  0
LINE
  5
31A
330
1E
100
AcDbEntity
  8
0
100
AcDbLine
 10
74.285135
 20
818.0552849999999
 30
0.0
 11
74.73213499999999
 21
817.499285
 31
0.0
  0
LINE
  5
31B
330
1E
100
AcDbEntity
  8
0
100
AcDbLine
 10
74.417635
 20
818.6882849999999
 30
0.0
 11
75.02643499999999
 21
819.033285
 31
0.0
  0
LINE
  5
31C
330
1E
100
AcDbEntity
  8
0
100
AcDbLine
 10
73.406335
 20
813.277285
 30
0.0
 11
74.158435
 21
813.1812849999999
 31
0.0
  0
LINE
  5
31D
330
1E
100
AcDbEntity
  8
0
100
AcDbLine
 10
74.158435
 20
813.1812849999999
 30
0.0
 11
74.681435
 21
812.700285
 31
0.0
  0
LINE
  5
31E
330
1E
100
AcDbEntity
  8
0
100
AcDbLine
 10
79.262835
 20
812.4832849999998
 30
0.0
 11
79.92083499999999
 21
812.7692849999998
 31
0.0
  0
LINE
  5
31F
330
1E
100
AcDbEntity
  8
0
100
AcDbLine
 10
78.53283499999999
 20
812.677285
 30
0.0
 11
79.262835
 21
812.4832849999998
 31
0.0
  0
LINE
  5
320
330
1E
100
AcDbEntity
  8
0
100
AcDbLine
 10
75.02643499999999
 20
819.033285
 30
0.0
 11
75.769935
 21
818.869285
 31
0.0
  0
LINE
  5
322
330
1E
100
AcDbEntity
  8
0
100
AcDbLine
 10
75.769935
 20
818.869285
 30
0.0
 11
76.21693499999999
 21
818.3142849999999
 31
0.0
  0
LINE
  5
325
330
1E
100
AcDbEntity
  8
0
100
AcDbLine
 10
76.08443499999999
 20
817.6802849999999
 30
0.0
 11
76.21693499999999
 21
818.3142849999999
 31
0.0
  0
LINE
  5
326
330
1E
100
AcDbEntity
  8
0
100
AcDbLine
 10
75.47563499999999
 20
817.335285
 30
0.0
 11
76.08443499999999
 21
817.6802849999999
 31
0.0
  0
LINE
  5
327
330
1E
100
AcDbEntity
  8
0
100
AcDbLine
 10
74.73213499999999
 20
817.499285
 30
0.0
 11
75.47563499999999
 21
817.335285
 31
0.0
  0
LINE
  5
328
330
1E
100
AcDbEntity
  8
0
100
AcDbLine
 10
78.151535
 20
813.2172849999999
 30
0.0
 11
78.36513499999999
 21
813.796285
 31
0.0
  0
LINE
  5
329
330
1E
100
AcDbEntity
  8
0
100
AcDbLine
 10
78.151535
 20
813.2172849999999
 30
0.0
 11
78.53283499999999
 21
812.677285
 31
0.0
  0
LINE
  5
32A
330
1E
100
AcDbEntity
  8
0
100
AcDbLine
 10
79.023235
 20
814.0812849999999
 30
0.0
 11
79.753135
 21
813.8872849999998
 31
0.0
  0
LINE
  5
32B
330
1E
100
AcDbEntity
  8
0
100
AcDbLine
 10
79.753135
 20
813.8872849999998
 30
0.0
 11
80.13443499999999
 21
813.348285
 31
0.0
  0
LINE
  5
32C
330
1E
100
AcDbEntity
  8
0
100
AcDbLine
 10
79.92083499999999
 20
812.7692849999998
 30
0.0
 11
80.13443499999999
 21
813.348285
 31
0.0
  0
LINE
  5
32D
330
1E
100
AcDbEntity
  8
0
100
AcDbLine
 10
78.36513499999999
 20
813.796285
 30
0.0
 11
79.023235
 21
814.0812849999999
 31
0.0
  0
LINE
  5
32F
330
1E
100
AcDbEntity
  8
0
100
AcDbLine
 10
74.65013499999999
 20
812.1062849999999
 30
0.0
 11
74.681435
 21
812.700285
 31
0.0
  0
LINE
  5
331
330
1E
100
AcDbEntity
  8
0
100
AcDbLine
 10
73.356735
 20
811.8382849999999
 30
0.0
 11
74.108735
 21
811.7412849999999
 31
0.0
  0
LINE
  5
332
330
1E
100
AcDbEntity
  8
0
100
AcDbLine
 10
72.86503499999999
 20
812.9132849999999
 30
0.0
 11
73.406335
 21
813.277285
 31
0.0
  0
LINE
  5
334
330
1E
100
AcDbEntity
  8
0
100
AcDbLine
 10
81.323235
 20
790.6262849999999
 30
0.0
 11
81.323235
 21
789.082285
 31
0.0
  0
LINE
  5
335
330
1E
100
AcDbEntity
  8
0
100
AcDbLine
 10
81.323235
 20
790.6262849999999
 30
0.0
 11
81.323235
 21
791.9127781506849
 31
0.0
  0
LINE
  5
336
330
1E
100
AcDbEntity
  8
0
100
AcDbLine
 10
81.332435
 20
792.2016797945198
 30
0.0
 11
81.332435
 21
791.2902849999999
 31
0.0
  0
LINE
  5
337
330
1E
100
AcDbEntity
  8
0
100
AcDbLine
 10
81.332435
 20
791.2902849999999
 30
0.0
 11
81.632435
 21
791.287285
 31
0.0
  0
LINE
  5
338
330
1E
100
AcDbEntity
  8
0
100
AcDbLine
 10
81.332435
 20
791.2902849999999
 30
0.0
 11
81.632435
 21
791.2932849999999
 31
0.0
  0
LINE
  5
339
330
1E
100
AcDbEntity
  8
0
100
AcDbLine
 10
81.332435
 20
791.2902849999999
 30
0.0
 11
81.332435
 21
792.2016797945198
 31
0.0
  0
LINE
  5
33A
330
1E
100
AcDbEntity
  8
0
100
AcDbLine
 10
82.332435
 20
791.2862849999998
 30
0.0
 11
83.03243499999998
 21
791.287285
 31
0.0
  0
LINE
  5
340
330
1E
100
AcDbEntity
  8
0
100
AcDbLine
 10
82.332435
 20
791.2942849999999
 30
0.0
 11
83.03243499999998
 21
791.2932849999999
 31
0.0
  0
LINE
  5
342
330
1E
100
AcDbEntity
  8
0
100
AcDbLine
 10
81.632435
 20
791.2932849999999
 30
0.0
 11
82.332435
 21
791.2942849999999
 31
0.0
  0
LINE
  5
344
330
1E
100
AcDbEntity
  8
0
100
AcDbLine
 10
81.632435
 20
791.287285
 30
0.0
 11
82.332435
 21
791.2862849999998
 31
0.0
  0
LINE
  5
346
330
1E
100
AcDbEntity
  8
0
100
AcDbLine
 10
83.03243499999998
 20
791.287285
 30
0.0
 11
83.332435
 21
791.2902849999999
 31
0.0
  0
LINE
  5
347
330
1E
100
AcDbEntity
  8
0
100
AcDbLine
 10
83.03243499999998
 20
791.2932849999999
 30
0.0
 11
83.332435
 21
791.2902849999999
 31
0.0
  0
LINE
  5
349
330
1E
100
AcDbEntity
  8
0
100
AcDbLine
 10
83.03243499999998
 20
818.044285
 30
0.0
 11
83.332435
 21
818.649285
 31
0.0
  0
LINE
  5
34A
330
1E
100
AcDbEntity
  8
0
100
AcDbLine
 10
82.332435
 20
817.7852849999998
 30
0.0
 11
83.03243499999998
 21
818.044285
 31
0.0
  0
LINE
  5
34B
330
1E
100
AcDbEntity
  8
0
100
AcDbLine
 10
83.03243499999998
 20
819.254285
 30
0.0
 11
83.332435
 21
818.649285
 31
0.0
  0
LINE
  5
34C
330
1E
100
AcDbEntity
  8
0
100
AcDbLine
 10
81.632435
 20
818.044285
 30
0.0
 11
82.332435
 21
817.7852849999998
 31
0.0
  0
LINE
  5
34D
330
1E
100
AcDbEntity
  8
0
100
AcDbLine
 10
81.332435
 20
818.649285
 30
0.0
 11
81.632435
 21
819.254285
 31
0.0
  0
LINE
  5
34E
330
1E
100
AcDbEntity
  8
0
100
AcDbLine
 10
81.332435
 20
818.649285
 30
0.0
 11
81.632435
 21
818.044285
 31
0.0
  0
LINE
  5
350
330
1E
100
AcDbEntity
  8
0
100
AcDbLine
 10
82.32323499999999
 20
829.9732849999999
 30
0.0
 11
91.723235
 21
829.3732849999999
 31
0.0
  0
LINE
  5
351
330
1E
100
AcDbEntity
  8
0
100
AcDbLine
 10
82.32323499999999
 20
830.2232849999999
 30
0.0
 11
91.823235
 21
829.573285
 31
0.0
  0
LINE
  5
352
330
1E
100
AcDbEntity
  8
0
100
AcDbLine
 10
82.332435
 20
819.513285
 30
0.0
 11
83.03243499999998
 21
819.254285
 31
0.0
  0
LINE
  5
353
330
1E
100
AcDbEntity
  8
0
100
AcDbLine
 10
81.632435
 20
819.254285
 30
0.0
 11
82.332435
 21
819.513285
 31
0.0
  0
LINE
  5
354
330
1E
100
AcDbEntity
  8
0
100
AcDbLine
 10
81.323235
 20
791.9127781506849
 30
0.0
 11
81.323235
 21
790.6262849999999
 31
0.0
  0
LINE
  5
355
330
1E
100
AcDbEntity
  8
0
100
AcDbLine
 10
81.323235
 20
791.9127781506849
 30
0.0
 11
81.323235
 21
790.2322849999999
 31
0.0
  0
LINE
  5
356
330
1E
100
AcDbEntity
  8
0
100
AcDbLine
 10
83.32323499999999
 20
790.2322849999999
 30
0.0
 11
83.32323499999999
 21
788.8142849999999
 31
0.0
  0
LINE
  5
357
330
1E
100
AcDbEntity
  8
0
100
AcDbLine
 10
83.32323499999999
 20
790.2322849999999
 30
0.0
 11
83.32323499999999
 21
791.2901929999999
 31
0.0
  0
LINE
  5
358
330
1E
100
AcDbEntity
  8
0
100
AcDbLine
 10
83.332435
 20
791.913408287671
 30
0.0
 11
84.51188295925041
 21
791.994192394469
 31
0.0
  0
LINE
  5
359
330
1E
100
AcDbEntity
  8
0
100
AcDbLine
 10
83.332435
 20
791.2902849999999
 30
0.0
 11
83.332435
 21
792.2020956849309
 31
0.0
  0
LINE
  5
35A
330
1E
100
AcDbEntity
  8
0
100
AcDbLine
 10
84.512035
 20
791.9912849999999
 30
0.0
 11
84.72563499999999
 21
792.0882849999999
 31
0.0
  0
LINE
  5
35B
330
1E
100
AcDbEntity
  8
0
100
AcDbLine
 10
84.512035
 20
791.9912849999999
 30
0.0
 11
84.89333499999998
 21
791.932285
 31
0.0
  0
LINE
  5
35E
330
1E
100
AcDbEntity
  8
0
100
AcDbLine
 10
84.89333499999998
 20
791.932285
 30
0.0
 11
85.62323499999999
 21
791.9452849999999
 31
0.0
  0
LINE
  5
35F
330
1E
100
AcDbEntity
  8
0
100
AcDbLine
 10
84.72563499999999
 20
792.0882849999999
 30
0.0
 11
85.383635
 21
792.167285
 31
0.0
  0
LINE
  5
360
330
1E
100
AcDbEntity
  8
0
100
AcDbLine
 10
83.332435
 20
792.2020956849309
 30
0.0
 11
83.332435
 21
791.2902849999999
 31
0.0
  0
LINE
  5
367
330
1E
100
AcDbEntity
  8
0
100
AcDbLine
 10
85.383635
 20
792.167285
 30
0.0
 11
86.11363500000001
 21
792.1792849999999
 31
0.0
  0
LINE
  5
368
330
1E
100
AcDbEntity
  8
0
100
AcDbLine
 10
88.429535
 20
791.625285
 30
0.0
 11
88.56203499999999
 21
791.657285
 31
0.0
  0
LINE
  5
369
330
1E
100
AcDbEntity
  8
0
100
AcDbLine
 10
88.429535
 20
791.625285
 30
0.0
 11
88.876535
 21
791.672285
 31
0.0
  0
LINE
  5
36A
330
1E
100
AcDbEntity
  8
0
100
AcDbLine
 10
88.876535
 20
791.672285
 30
0.0
 11
89.62003499999999
 21
791.7662849999999
 31
0.0
  0
LINE
  5
36B
330
1E
100
AcDbEntity
  8
0
100
AcDbLine
 10
88.56203499999999
 20
791.657285
 30
0.0
 11
89.170835
 21
791.744285
 31
0.0
  0
LINE
  5
36C
330
1E
100
AcDbEntity
  8
0
100
AcDbLine
 10
89.170835
 20
791.744285
 30
0.0
 11
89.91433499999999
 21
791.8382849999999
 31
0.0
  0
LINE
  5
36D
330
1E
100
AcDbEntity
  8
0
100
AcDbLine
 10
89.91433499999999
 20
791.8382849999999
 30
0.0
 11
90.361335
 21
791.8842849999999
 31
0.0
  0
LINE
  5
36E
330
1E
100
AcDbEntity
  8
0
100
AcDbLine
 10
90.228835
 20
791.8532849999999
 30
0.0
 11
90.361335
 21
791.8842849999999
 31
0.0
  0
LINE
  5
36F
330
1E
100
AcDbEntity
  8
0
100
AcDbLine
 10
89.62003499999999
 20
791.7662849999999
 30
0.0
 11
90.228835
 21
791.8532849999999
 31
0.0
  0
LINE
  5
371
330
1E
100
AcDbEntity
  8
0
100
AcDbLine
 10
86.4944799484607
 20
792.1299867087989
 30
0.0
 11
88.3476837066915
 21
792.2569184730611
 31
0.0
  0
LINE
  5
372
330
1E
100
AcDbEntity
  8
0
100
AcDbLine
 10
88.34012042827579
 20
792.315283095297
 30
0.0
 11
88.429535
 21
791.625285
 31
0.0
  0
LINE
  5
375
330
1E
100
AcDbEntity
  8
0
100
AcDbLine
 10
90.28430481806841
 20
792.478415108014
 30
0.0
 11
94.95176095587741
 21
793.425435193946
 31
0.0
  0
LINE
  5
376
330
1E
100
AcDbEntity
  8
0
100
AcDbLine
 10
90.26350336955628
 20
792.6388556852189
 30
0.0
 11
90.361335
 21
791.8842849999999
 31
0.0
  0
LINE
  5
378
330
1E
100
AcDbEntity
  8
0
100
AcDbLine
 10
90.48803499999999
 20
792.639285
 30
0.0
 11
91.240135
 21
792.749285
 31
0.0
  0
LINE
  5
379
330
1E
100
AcDbEntity
  8
0
100
AcDbLine
 10
89.96503500000001
 20
792.638285
 30
0.0
 11
89.99633499999999
 21
792.7512849999999
 31
0.0
  0
LINE
  5
37A
330
1E
100
AcDbEntity
  8
0
100
AcDbLine
 10
89.96503500000001
 20
792.638285
 30
0.0
 11
90.48803499999999
 21
792.639285
 31
0.0
  0
LINE
  5
37C
330
1E
100
AcDbEntity
  8
0
100
AcDbLine
 10
89.99633499999999
 20
792.7512849999999
 30
0.0
 11
90.537735
 21
792.9092849999999
 31
0.0
  0
LINE
  5
37F
330
1E
100
AcDbEntity
  8
0
100
AcDbLine
 10
90.537735
 20
792.9092849999999
 30
0.0
 11
91.28973499999998
 21
793.019285
 31
0.0
  0
LINE
  5
38E
330
1E
100
AcDbEntity
  8
0
100
AcDbLine
 10
91.28973499999998
 20
793.019285
 30
0.0
 11
91.81283499999999
 21
793.0202849999999
 31
0.0
  0
LINE
  5
38F
330
1E
100
AcDbEntity
  8
0
100
AcDbLine
 10
94.95176095587742
 20
793.425435193946
 30
0.0
 11
95.084835
 21
792.9072849999999
 31
0.0
  0
LINE
  5
390
330
1E
100
AcDbEntity
  8
0
100
AcDbLine
 10
95.12883499999999
 20
792.8702849999999
 30
0.0
 11
95.692435
 21
792.9832849999999
 31
0.0
  0
LINE
  5
391
330
1E
100
AcDbEntity
  8
0
100
AcDbLine
 10
95.084835
 20
792.9072849999999
 30
0.0
 11
95.56093500000001
 21
793.066285
 31
0.0
  0
LINE
  5
392
330
1E
100
AcDbEntity
  8
0
100
AcDbLine
 10
95.084835
 20
792.9072849999999
 30
0.0
 11
95.12883499999999
 21
792.8702849999999
 31
0.0
  0
LINE
  5
393
330
1E
100
AcDbEntity
  8
0
100
AcDbLine
 10
94.897235
 20
793.9682849999999
 30
0.0
 11
95.526335
 21
794.046285
 31
0.0
  0
LINE
  5
395
330
1E
100
AcDbEntity
  8
0
100
AcDbLine
 10
94.744235
 20
794.0742849999999
 30
0.0
 11
95.13193499999999
 21
794.293285
 31
0.0
  0
LINE
  5
396
330
1E
100
AcDbEntity
  8
0
100
AcDbLine
 10
94.744235
 20
794.0742849999999
 30
0.0
 11
94.897235
 21
793.9682849999999
 31
0.0
  0
LINE
  5
399
330
1E
100
AcDbEntity
  8
0
100
AcDbLine
 10
95.692435
 20
792.9832849999999
 30
0.0
 11
96.42883499999999
 21
793.1752849999999
 31
0.0
  0
LINE
  5
39A
330
1E
100
AcDbEntity
  8
0
100
AcDbLine
 10
95.56093500000001
 20
793.066285
 30
0.0
 11
96.297335
 21
793.2572849999999
 31
0.0
  0
LINE
  5
39C
330
1E
100
AcDbEntity
  8
0
100
AcDbLine
 10
95.526335
 20
794.046285
 30
0.0
 11
96.249335
 21
794.253285
 31
0.0
  0
LINE
  5
39D
330
1E
100
AcDbEntity
  8
0
100
AcDbLine
 10
95.13193499999999
 20
794.293285
 30
0.0
 11
95.854935
 21
794.5002849999999
 31
0.0
  0
LINE
  5
3A4
330
1E
100
AcDbEntity
  8
0
100
AcDbLine
 10
95.854935
 20
794.5002849999999
 30
0.0
 11
96.484035
 21
794.5772849999999
 31
0.0
  0
LINE
  5
3A5
330
1E
100
AcDbEntity
  8
0
100
AcDbLine
 10
91.781435
 20
792.9072849999999
 30
0.0
 11
91.81283499999999
 21
793.0202849999999
 31
0.0
  0
LINE
  5
3A6
330
1E
100
AcDbEntity
  8
0
100
AcDbLine
 10
91.240135
 20
792.749285
 30
0.0
 11
91.781435
 21
792.9072849999999
 31
0.0
  0
LINE
  5
3A9
330
1E
100
AcDbEntity
  8
0
100
AcDbLine
 10
86.11363500000001
 20
792.1792849999999
 30
0.0
 11
86.494935
 21
792.1212849999999
 31
0.0
  0
LINE
  5
3AA
330
1E
100
AcDbEntity
  8
0
100
AcDbLine
 10
86.281335
 20
792.024285
 30
0.0
 11
86.494935
 21
792.1212849999999
 31
0.0
  0
LINE
  5
3AB
330
1E
100
AcDbEntity
  8
0
100
AcDbLine
 10
85.62323499999999
 20
791.9452849999999
 30
0.0
 11
86.281335
 21
792.024285
 31
0.0
  0
LINE
  5
3AC
330
1E
100
AcDbEntity
  8
0
100
AcDbLine
 10
90.537735
 20
811.7412849999999
 30
0.0
 11
91.28973499999998
 21
811.8382849999999
 31
0.0
  0
LINE
  5
3AF
330
1E
100
AcDbEntity
  8
0
100
AcDbLine
 10
94.897235
 20
811.3702849999999
 30
0.0
 11
95.526335
 21
811.7742849999999
 31
0.0
  0
LINE
  5
3B0
330
1E
100
AcDbEntity
  8
0
100
AcDbLine
 10
94.744235
 20
810.7832849999999
 30
0.0
 11
95.13193499999999
 21
810.3572849999999
 31
0.0
  0
LINE
  5
3B1
330
1E
100
AcDbEntity
  8
0
100
AcDbLine
 10
94.744235
 20
810.7832849999999
 30
0.0
 11
94.897235
 21
811.3702849999999
 31
0.0
  0
LINE
  5
3B2
330
1E
100
AcDbEntity
  8
0
100
AcDbLine
 10
95.13193499999999
 20
810.3572849999999
 30
0.0
 11
95.854935
 21
810.3572849999999
 31
0.0
  0
LINE
  5
3B5
330
1E
100
AcDbEntity
  8
0
100
AcDbLine
 10
96.297335
 20
793.2572849999999
 30
0.0
 11
96.860935
 21
793.3702849999999
 31
0.0
  0
LINE
  5
3B6
330
1E
100
AcDbEntity
  8
0
100
AcDbLine
 10
96.42883499999999
 20
793.1752849999999
 30
0.0
 11
96.90483499999999
 21
793.3332849999999
 31
0.0
  0
LINE
  5
3BA
330
1E
100
AcDbEntity
  8
0
100
AcDbLine
 10
96.249335
 20
794.253285
 30
0.0
 11
96.637035
 21
794.4722849999999
 31
0.0
  0
LINE
  5
3BB
330
1E
100
AcDbEntity
  8
0
100
AcDbLine
 10
95.854935
 20
810.3572849999999
 30
0.0
 11
96.484035
 21
810.7612849999998
 31
0.0
  0
LINE
  5
3BC
330
1E
100
AcDbEntity
  8
0
100
AcDbLine
 10
85.383635
 20
812.4832849999998
 30
0.0
 11
86.11363500000001
 21
812.677285
 31
0.0
  0
LINE
  5
3BD
330
1E
100
AcDbEntity
  8
0
100
AcDbLine
 10
86.11363500000001
 20
812.677285
 30
0.0
 11
86.494935
 21
813.2172849999999
 31
0.0
  0
LINE
  5
3BF
330
1E
100
AcDbEntity
  8
0
100
AcDbLine
 10
84.72563499999999
 20
812.7692849999998
 30
0.0
 11
85.383635
 21
812.4832849999998
 31
0.0
  0
LINE
  5
3C0
330
1E
100
AcDbEntity
  8
0
100
AcDbLine
 10
89.96503500000001
 20
812.700285
 30
0.0
 11
89.99633499999999
 21
812.1062849999999
 31
0.0
  0
LINE
  5
3C1
330
1E
100
AcDbEntity
  8
0
100
AcDbLine
 10
89.96503500000001
 20
812.700285
 30
0.0
 11
90.48803499999999
 21
813.1812849999999
 31
0.0
  0
LINE
  5
3C2
330
1E
100
AcDbEntity
  8
0
100
AcDbLine
 10
90.48803499999999
 20
813.1812849999999
 30
0.0
 11
91.240135
 21
813.277285
 31
0.0
  0
LINE
  5
3C3
330
1E
100
AcDbEntity
  8
0
100
AcDbLine
 10
89.99633499999999
 20
812.1062849999999
 30
0.0
 11
90.537735
 21
811.7412849999999
 31
0.0
  0
LINE
  5
3C4
330
1E
100
AcDbEntity
  8
0
100
AcDbLine
 10
91.28973499999998
 20
811.8382849999999
 30
0.0
 11
91.81283499999999
 21
812.3182849999999
 31
0.0
  0
LINE
  5
3C5
330
1E
100
AcDbEntity
  8
0
100
AcDbLine
 10
91.781435
 20
812.9132849999999
 30
0.0
 11
91.81283499999999
 21
812.3182849999999
 31
0.0
  0
LINE
  5
3C6
330
1E
100
AcDbEntity
  8
0
100
AcDbLine
 10
84.89333499999998
 20
813.8872849999998
 30
0.0
 11
85.62323499999999
 21
814.0812849999999
 31
0.0
  0
LINE
  5
3C7
330
1E
100
AcDbEntity
  8
0
100
AcDbLine
 10
84.512035
 20
813.348285
 30
0.0
 11
84.72563499999999
 21
812.7692849999998
 31
0.0
  0
LINE
  5
3C8
330
1E
100
AcDbEntity
  8
0
100
AcDbLine
 10
84.512035
 20
813.348285
 30
0.0
 11
84.89333499999998
 21
813.8872849999998
 31
0.0
  0
LINE
  5
3C9
330
1E
100
AcDbEntity
  8
0
100
AcDbLine
 10
86.281335
 20
813.796285
 30
0.0
 11
86.494935
 21
813.2172849999999
 31
0.0
  0
LINE
  5
3CB
330
1E
100
AcDbEntity
  8
0
100
AcDbLine
 10
85.62323499999999
 20
814.0812849999999
 30
0.0
 11
86.281335
 21
813.796285
 31
0.0
  0
LINE
  5
3CC
330
1E
100
AcDbEntity
  8
0
100
AcDbLine
 10
89.170835
 20
817.335285
 30
0.0
 11
89.91433499999999
 21
817.499285
 31
0.0
  0
LINE
  5
3CD
330
1E
100
AcDbEntity
  8
0
100
AcDbLine
 10
88.429535
 20
818.3142849999999
 30
0.0
 11
88.56203499999999
 21
817.6802849999999
 31
0.0
  0
LINE
  5
3CE
330
1E
100
AcDbEntity
  8
0
100
AcDbLine
 10
88.429535
 20
818.3142849999999
 30
0.0
 11
88.876535
 21
818.869285
 31
0.0
  0
LINE
  5
3CF
330
1E
100
AcDbEntity
  8
0
100
AcDbLine
 10
88.876535
 20
818.869285
 30
0.0
 11
89.62003499999999
 21
819.033285
 31
0.0
  0
LINE
  5
3D0
330
1E
100
AcDbEntity
  8
0
100
AcDbLine
 10
88.56203499999999
 20
817.6802849999999
 30
0.0
 11
89.170835
 21
817.335285
 31
0.0
  0
LINE
  5
3D1
330
1E
100
AcDbEntity
  8
0
100
AcDbLine
 10
89.91433499999999
 20
817.499285
 30
0.0
 11
90.361335
 21
818.0552849999999
 31
0.0
  0
LINE
  5
3D2
330
1E
100
AcDbEntity
  8
0
100
AcDbLine
 10
90.228835
 20
818.6882849999999
 30
0.0
 11
90.361335
 21
818.0552849999999
 31
0.0
  0
LINE
  5
3D6
330
1E
100
AcDbEntity
  8
0
100
AcDbLine
 10
89.62003499999999
 20
819.033285
 30
0.0
 11
90.228835
 21
818.6882849999999
 31
0.0
  0
LINE
  5
3D7
330
1E
100
AcDbEntity
  8
0
100
AcDbLine
 10
91.723235
 20
829.3732849999999
 30
0.0
 11
100.5232349999999
 21
827.5732849999998
 31
0.0
  0
LINE
  5
3D8
330
1E
100
AcDbEntity
  8
0
100
AcDbLine
 10
91.823235
 20
829.573285
 30
0.0
 11
100.7232349999999
 21
827.7232849999998
 31
0.0
  0
LINE
  5
3D9
330
1E
100
AcDbEntity
  8
0
100
AcDbLine
 10
93.12323499999999
 20
841.500285
 30
0.0
 11
103.323235
 21
839.4002849999999
 31
0.0
  0
LINE
  5
3DC
330
1E
100
AcDbEntity
  8
0
100
AcDbLine
 10
95.12883499999999
 20
817.069285
 30
0.0
 11
95.692435
 21
817.5582849999999
 31
0.0
  0
LINE
  5
3DD
330
1E
100
AcDbEntity
  8
0
100
AcDbLine
 10
95.084835
 20
816.4292849999998
 30
0.0
 11
95.56093500000001
 21
816.013285
 31
0.0
  0
LINE
  5
3DE
330
1E
100
AcDbEntity
  8
0
100
AcDbLine
 10
95.084835
 20
816.4292849999998
 30
0.0
 11
95.12883499999999
 21
817.069285
 31
0.0
  0
LINE
  5
3E0
330
1E
100
AcDbEntity
  8
0
100
AcDbLine
 10
91.240135
 20
813.277285
 30
0.0
 11
91.781435
 21
812.9132849999999
 31
0.0
  0
LINE
  5
3E1
330
1E
100
AcDbEntity
  8
0
100
AcDbLine
 10
95.692435
 20
817.5582849999999
 30
0.0
 11
96.42883499999999
 21
817.6252849999999
 31
0.0
  0
LINE
  5
3E2
330
1E
100
AcDbEntity
  8
0
100
AcDbLine
 10
95.56093500000001
 20
816.013285
 30
0.0
 11
96.297335
 21
816.0792849999999
 31
0.0
  0
LINE
  5
3E3
330
1E
100
AcDbEntity
  8
0
100
AcDbLine
 10
96.297335
 20
816.0792849999999
 30
0.0
 11
96.860935
 21
816.5692849999999
 31
0.0
  0
LINE
  5
3E5
330
1E
100
AcDbEntity
  8
0
100
AcDbLine
 10
96.42883499999999
 20
817.6252849999999
 30
0.0
 11
96.90483499999999
 21
817.2082849999998
 31
0.0
  0
LINE
  5
3E6
330
1E
100
AcDbEntity
  8
0
100
AcDbLine
 10
95.526335
 20
811.7742849999999
 30
0.0
 11
96.249335
 21
811.7732849999999
 31
0.0
  0
LINE
  5
3E7
330
1E
100
AcDbEntity
  8
0
100
AcDbLine
 10
96.249335
 20
811.7732849999999
 30
0.0
 11
96.637035
 21
811.3482849999998
 31
0.0
  0
LINE
  5
3E8
330
1E
100
AcDbEntity
  8
0
100
AcDbLine
 10
83.32323499999999
 20
791.2901929999999
 30
0.0
 11
83.32323499999999
 21
790.2322849999999
 31
0.0
  0
LINE
  5
3E9
330
1E
100
AcDbEntity
  8
0
100
AcDbLine
 10
96.30593499999999
 20
784.777285
 30
0.0
 11
96.454935
 21
791.144285
 31
0.0
  0
LINE
  5
3EA
330
1E
100
AcDbEntity
  8
0
100
AcDbLine
 10
96.30593499999999
 20
784.777285
 30
0.0
 11
97.050935
 21
775.859285
 31
0.0
  0
LINE
  5
3EB
330
1E
100
AcDbEntity
  8
0
100
AcDbLine
 10
96.860935
 20
793.3702849999999
 30
0.0
 11
96.90483499999999
 21
793.3332849999999
 31
0.0
  0
LINE
  5
3EC
330
1E
100
AcDbEntity
  8
0
100
AcDbLine
 10
96.827435
 20
728.264585
 30
0.0
 11
97.125435
 21
739.769085
 31
0.0
  0
LINE
  5
3ED
330
1E
100
AcDbEntity
  8
0
100
AcDbLine
 10
97.125435
 20
739.769085
 30
0.0
 11
97.348935
 21
750.540085
 31
0.0
  0
LINE
  5
3EE
330
1E
100
AcDbEntity
  8
0
100
AcDbLine
 10
97.348935
 20
750.540085
 30
0.0
 11
97.497935
 21
759.017385
 31
0.0
  0
LINE
  5
3EF
330
1E
100
AcDbEntity
  8
0
100
AcDbLine
 10
97.348935
 20
769.113485
 30
0.0
 11
97.497935
 21
759.017385
 31
0.0
  0
LINE
  5
3F0
330
1E
100
AcDbEntity
  8
0
100
AcDbLine
 10
97.050935
 20
775.859285
 30
0.0
 11
97.348935
 21
769.113485
 31
0.0
  0
LINE
  5
3F2
330
1E
100
AcDbEntity
  8
0
100
AcDbLine
 10
96.78193412292531
 20
793.8118239495919
 30
0.0
 11
99.323235
 21
794.475285
 31
0.0
  0
LINE
  5
3F3
330
1E
100
AcDbEntity
  8
0
100
AcDbLine
 10
96.77415785674909
 20
793.842102384834
 30
0.0
 11
96.90483499999999
 21
793.3332849999999
 31
0.0
  0
LINE
  5
3F4
330
1E
100
AcDbEntity
  8
0
100
AcDbLine
 10
98.179935
 20
795.662285
 30
0.0
 11
98.50703500000001
 21
795.589285
 31
0.0
  0
LINE
  5
3F5
330
1E
100
AcDbEntity
  8
0
100
AcDbLine
 10
98.179935
 20
795.662285
 30
0.0
 11
98.387635
 21
795.921285
 31
0.0
  0
LINE
  5
3F6
330
1E
100
AcDbEntity
  8
0
100
AcDbLine
 10
99.323235
 20
794.475285
 30
0.0
 11
100.734631563192
 21
795.0095994132079
 31
0.0
  0
LINE
  5
3F8
330
1E
100
AcDbEntity
  8
0
100
AcDbLine
 10
100.7510349999999
 20
794.966285
 30
0.0
 11
100.968435
 21
794.9462849999999
 31
0.0
  0
LINE
  5
3F9
330
1E
100
AcDbEntity
  8
0
100
AcDbLine
 10
100.7510349999999
 20
794.966285
 30
0.0
 11
101.061835
 21
795.177285
 31
0.0
  0
LINE
  5
3FA
330
1E
100
AcDbEntity
  8
0
100
AcDbLine
 10
100.968435
 20
794.9462849999999
 30
0.0
 11
101.610135
 21
795.1392849999999
 31
0.0
  0
LINE
  5
3FC
330
1E
100
AcDbEntity
  8
0
100
AcDbLine
 10
102.289235
 20
795.4232849999999
 30
0.0
 11
102.600135
 21
795.6342849999999
 31
0.0
  0
LINE
  5
3FE
330
1E
100
AcDbEntity
  8
0
100
AcDbLine
 10
102.573117703836
 20
795.705597737881
 30
0.0
 11
106.323235
 21
797.1252849999999
 31
0.0
  0
LINE
  5
3FF
330
1E
100
AcDbEntity
  8
0
100
AcDbLine
 10
102.3826349999999
 20
795.653285
 30
0.0
 11
102.600135
 21
795.6342849999999
 31
0.0
  0
LINE
  5
400
330
1E
100
AcDbEntity
  8
0
100
AcDbLine
 10
101.7409349999999
 20
795.461285
 30
0.0
 11
102.3826349999999
 21
795.653285
 31
0.0
  0
LINE
  5
401
330
1E
100
AcDbEntity
  8
0
100
AcDbLine
 10
101.061835
 20
795.177285
 30
0.0
 11
101.7409349999999
 21
795.461285
 31
0.0
  0
LINE
  5
402
330
1E
100
AcDbEntity
  8
0
100
AcDbLine
 10
101.610135
 20
795.1392849999999
 30
0.0
 11
102.289235
 21
795.4232849999999
 31
0.0
  0
LINE
  5
403
330
1E
100
AcDbEntity
  8
0
100
AcDbLine
 10
98.50703500000001
 20
795.589285
 30
0.0
 11
99.19933499999999
 21
795.753285
 31
0.0
  0
LINE
  5
40B
330
1E
100
AcDbEntity
  8
0
100
AcDbLine
 10
99.84393500000001
 20
796.0502849999999
 30
0.0
 11
100.051635
 21
796.308285
 31
0.0
  0
LINE
  5
412
330
1E
100
AcDbEntity
  8
0
100
AcDbLine
 10
101.6776349999999
 20
798.5922849999999
 30
0.0
 11
102.3860349999999
 21
798.8482849999999
 31
0.0
  0
LINE
  5
413
330
1E
100
AcDbEntity
  8
0
100
AcDbLine
 10
101.1554349999999
 20
798.2182849999999
 30
0.0
 11
101.6776349999999
 21
798.5922849999999
 31
0.0
  0
LINE
  5
414
330
1E
100
AcDbEntity
  8
0
100
AcDbLine
 10
101.141935
 20
797.945285
 30
0.0
 11
101.620635
 21
797.9242849999999
 31
0.0
  0
LINE
  5
415
330
1E
100
AcDbEntity
  8
0
100
AcDbLine
 10
101.141935
 20
797.945285
 30
0.0
 11
101.1554349999999
 21
798.2182849999999
 31
0.0
  0
LINE
  5
416
330
1E
100
AcDbEntity
  8
0
100
AcDbLine
 10
101.620635
 20
797.9242849999999
 30
0.0
 11
102.329035
 21
798.1812849999999
 31
0.0
  0
LINE
  5
419
330
1E
100
AcDbEntity
  8
0
100
AcDbLine
 10
102.639835
 20
800.7952849999998
 30
0.0
 11
102.821435
 21
800.533285
 31
0.0
  0
LINE
  5
41A
330
1E
100
AcDbEntity
  8
0
100
AcDbLine
 10
102.639835
 20
800.7952849999998
 30
0.0
 11
103.0041349999999
 21
801.2272849999998
 31
0.0
  0
LINE
  5
41B
330
1E
100
AcDbEntity
  8
0
100
AcDbLine
 10
102.821435
 20
800.533285
 30
0.0
 11
103.419235
 21
800.5832849999999
 31
0.0
  0
LINE
  5
41D
330
1E
100
AcDbEntity
  8
0
100
AcDbLine
 10
102.3860349999999
 20
798.8482849999999
 30
0.0
 11
102.8647349999999
 21
798.8272849999999
 31
0.0
  0
LINE
  5
41E
330
1E
100
AcDbEntity
  8
0
100
AcDbLine
 10
102.329035
 20
798.1812849999999
 30
0.0
 11
102.8512349999999
 21
798.5552849999999
 31
0.0
  0
LINE
  5
420
330
1E
100
AcDbEntity
  8
0
100
AcDbLine
 10
99.724535
 20
796.3822849999999
 30
0.0
 11
100.051635
 21
796.308285
 31
0.0
  0
LINE
  5
421
330
1E
100
AcDbEntity
  8
0
100
AcDbLine
 10
99.03223500000001
 20
796.2182849999999
 30
0.0
 11
99.724535
 21
796.3822849999999
 31
0.0
  0
LINE
  5
422
330
1E
100
AcDbEntity
  8
0
100
AcDbLine
 10
98.387635
 20
795.921285
 30
0.0
 11
99.03223500000001
 21
796.2182849999999
 31
0.0
  0
LINE
  5
423
330
1E
100
AcDbEntity
  8
0
100
AcDbLine
 10
99.19933499999999
 20
795.753285
 30
0.0
 11
99.84393500000001
 21
796.0502849999999
 31
0.0
  0
LINE
  5
424
330
1E
100
AcDbEntity
  8
0
100
AcDbLine
 10
96.484035
 20
794.5772849999999
 30
0.0
 11
96.637035
 21
794.4722849999999
 31
0.0
  0
LINE
  5
427
330
1E
100
AcDbEntity
  8
0
100
AcDbLine
 10
101.6776349999999
 20
806.2652849999999
 30
0.0
 11
102.3860349999999
 21
806.4902849999999
 31
0.0
  0
LINE
  5
428
330
1E
100
AcDbEntity
  8
0
100
AcDbLine
 10
101.1554349999999
 20
806.4322849999999
 30
0.0
 11
101.6776349999999
 21
806.2652849999999
 31
0.0
  0
LINE
  5
429
330
1E
100
AcDbEntity
  8
0
100
AcDbLine
 10
101.141935
 20
806.9122849999999
 30
0.0
 11
101.620635
 21
807.4142849999999
 31
0.0
  0
LINE
  5
42A
330
1E
100
AcDbEntity
  8
0
100
AcDbLine
 10
101.141935
 20
806.9122849999999
 30
0.0
 11
101.1554349999999
 21
806.4322849999999
 31
0.0
  0
LINE
  5
42B
330
1E
100
AcDbEntity
  8
0
100
AcDbLine
 10
98.387635
 20
808.729285
 30
0.0
 11
99.03223500000001
 21
808.6392849999999
 31
0.0
  0
LINE
  5
42E
330
1E
100
AcDbEntity
  8
0
100
AcDbLine
 10
98.179935
 20
809.1942849999998
 30
0.0
 11
98.50703500000001
 21
809.749285
 31
0.0
  0
LINE
  5
42F
330
1E
100
AcDbEntity
  8
0
100
AcDbLine
 10
98.179935
 20
809.1942849999998
 30
0.0
 11
98.387635
 21
808.729285
 31
0.0
  0
LINE
  5
430
330
1E
100
AcDbEntity
  8
0
100
AcDbLine
 10
99.84393500000001
 20
809.9762849999999
 30
0.0
 11
100.051635
 21
809.5112849999999
 31
0.0
  0
LINE
  5
431
330
1E
100
AcDbEntity
  8
0
100
AcDbLine
 10
99.724535
 20
808.956285
 30
0.0
 11
100.051635
 21
809.5112849999999
 31
0.0
  0
LINE
  5
432
330
1E
100
AcDbEntity
  8
0
100
AcDbLine
 10
99.03223500000001
 20
808.6392849999999
 30
0.0
 11
99.724535
 21
808.956285
 31
0.0
  0
LINE
  5
433
330
1E
100
AcDbEntity
  8
0
100
AcDbLine
 10
98.50703500000001
 20
809.749285
 30
0.0
 11
99.19933499999999
 21
810.067285
 31
0.0
  0
LINE
  5
435
330
1E
100
AcDbEntity
  8
0
100
AcDbLine
 10
96.484035
 20
810.7612849999998
 30
0.0
 11
96.637035
 21
811.3482849999998
 31
0.0
  0
LINE
  5
436
330
1E
100
AcDbEntity
  8
0
100
AcDbLine
 10
99.19933499999999
 20
810.067285
 30
0.0
 11
99.84393500000001
 21
809.9762849999999
 31
0.0
  0
LINE
  5
437
330
1E
100
AcDbEntity
  8
0
100
AcDbLine
 10
101.061835
 20
813.9022849999999
 30
0.0
 11
101.7409349999999
 21
813.8762849999999
 31
0.0
  0
LINE
  5
438
330
1E
100
AcDbEntity
  8
0
100
AcDbLine
 10
100.7510349999999
 20
814.371285
 30
0.0
 11
100.968435
 21
814.993285
 31
0.0
  0
LINE
  5
439
330
1E
100
AcDbEntity
  8
0
100
AcDbLine
 10
100.7510349999999
 20
814.371285
 30
0.0
 11
101.061835
 21
813.9022849999999
 31
0.0
  0
LINE
  5
43A
330
1E
100
AcDbEntity
  8
0
100
AcDbLine
 10
100.5232349999999
 20
827.5732849999998
 30
0.0
 11
108.123235
 21
824.623285
 31
0.0
  0
LINE
  5
43B
330
1E
100
AcDbEntity
  8
0
100
AcDbLine
 10
100.7232349999999
 20
827.7232849999998
 30
0.0
 11
108.423235
 21
824.773285
 31
0.0
  0
LINE
  5
43C
330
1E
100
AcDbEntity
  8
0
100
AcDbLine
 10
96.860935
 20
816.5692849999999
 30
0.0
 11
96.90483499999999
 21
817.2082849999998
 31
0.0
  0
LINE
  5
43F
330
1E
100
AcDbEntity
  8
0
100
AcDbLine
 10
100.968435
 20
814.993285
 30
0.0
 11
101.610135
 21
815.403285
 31
0.0
  0
LINE
  5
442
330
1E
100
AcDbEntity
  8
0
100
AcDbLine
 10
101.7409349999999
 20
813.8762849999999
 30
0.0
 11
102.3826349999999
 21
814.2862849999998
 31
0.0
  0
LINE
  5
443
330
1E
100
AcDbEntity
  8
0
100
AcDbLine
 10
101.610135
 20
815.403285
 30
0.0
 11
102.289235
 21
815.3762849999999
 31
0.0
  0
LINE
  5
444
330
1E
100
AcDbEntity
  8
0
100
AcDbLine
 10
101.620635
 20
807.4142849999999
 30
0.0
 11
102.329035
 21
807.6392849999999
 31
0.0
  0
LINE
  5
445
330
1E
100
AcDbEntity
  8
0
100
AcDbLine
 10
102.3860349999999
 20
806.4902849999999
 30
0.0
 11
102.8647349999999
 21
806.9922849999999
 31
0.0
  0
LINE
  5
446
330
1E
100
AcDbEntity
  8
0
100
AcDbLine
 10
102.289235
 20
815.3762849999999
 30
0.0
 11
102.600135
 21
814.9082849999999
 31
0.0
  0
LINE
  5
447
330
1E
100
AcDbEntity
  8
0
100
AcDbLine
 10
102.3826349999999
 20
814.2862849999998
 30
0.0
 11
102.600135
 21
814.9082849999999
 31
0.0
  0
LINE
  5
448
330
1E
100
AcDbEntity
  8
0
100
AcDbLine
 10
102.329035
 20
807.6392849999999
 30
0.0
 11
102.8512349999999
 21
807.4712849999999
 31
0.0
  0
LINE
  5
44C
330
1E
100
AcDbEntity
  8
0
100
AcDbLine
 10
102.639835
 20
803.855285
 30
0.0
 11
102.821435
 21
804.3242849999998
 31
0.0
  0
LINE
  5
44D
330
1E
100
AcDbEntity
  8
0
100
AcDbLine
 10
102.639835
 20
803.855285
 30
0.0
 11
103.0041349999999
 21
803.630285
 31
0.0
  0
LINE
  5
44E
330
1E
100
AcDbEntity
  8
0
100
AcDbLine
 10
102.8512349999999
 20
798.5552849999999
 30
0.0
 11
102.8647349999999
 21
798.8272849999999
 31
0.0
  0
LINE
  5
44F
330
1E
100
AcDbEntity
  8
0
100
AcDbLine
 10
102.8512349999999
 20
807.4712849999999
 30
0.0
 11
102.8647349999999
 21
806.9922849999999
 31
0.0
  0
LINE
  5
450
330
1E
100
AcDbEntity
  8
0
100
AcDbLine
 10
102.821435
 20
804.3242849999998
 30
0.0
 11
103.419235
 21
804.7552849999998
 31
0.0
  0
LINE
  5
451
330
1E
100
AcDbEntity
  8
0
100
AcDbLine
 10
96.8174648376671
 20
793.6734780621139
 30
0.0
 11
96.83944730968121
 21
793.82683899942
 31
0.0
  0
LINE
  5
452
330
1E
100
AcDbEntity
  8
0
100
AcDbLine
 10
96.454935
 20
791.144285
 30
0.0
 11
96.76190162182242
 21
793.2858407274119
 31
0.0
  0
LINE
  5
454
330
1E
100
AcDbEntity
  8
0
100
AcDbLine
 10
103.0041349999999
 20
801.2272849999998
 30
0.0
 11
103.6802349999999
 21
801.575285
 31
0.0
  0
LINE
  5
456
330
1E
100
AcDbEntity
  8
0
100
AcDbLine
 10
103.419235
 20
800.5832849999999
 30
0.0
 11
104.0952349999999
 21
800.931285
 31
0.0
  0
LINE
  5
457
330
1E
100
AcDbEntity
  8
0
100
AcDbLine
 10
103.0041349999999
 20
803.630285
 30
0.0
 11
103.6802349999999
 21
803.7632849999999
 31
0.0
  0
LINE
  5
458
330
1E
100
AcDbEntity
  8
0
100
AcDbLine
 10
103.323235
 20
839.4002849999999
 30
0.0
 11
112.023235
 21
836.100285
 31
0.0
  0
LINE
  5
459
330
1E
100
AcDbEntity
  8
0
100
AcDbLine
 10
103.419235
 20
804.7552849999998
 30
0.0
 11
104.0952349999999
 21
804.8892849999999
 31
0.0
  0
LINE
  5
45A
330
1E
100
AcDbEntity
  8
0
100
AcDbLine
 10
102.923235
 20
839.633285
 30
0.0
 11
111.623235
 21
836.3332849999999
 31
0.0
  0
LINE
  5
45B
330
1E
100
AcDbEntity
  8
0
100
AcDbLine
 10
93.02323499999999
 20
841.683285
 30
0.0
 11
102.923235
 21
839.633285
 31
0.0
  0
LINE
  5
45C
330
1E
100
AcDbEntity
  8
0
100
AcDbLine
 10
103.6802349999999
 20
801.575285
 30
0.0
 11
104.278035
 21
801.6252849999998
 31
0.0
  0
LINE
  5
45F
330
1E
100
AcDbEntity
  8
0
100
AcDbLine
 10
105.1454349999999
 20
797.6812849999999
 30
0.0
 11
105.521535
 21
797.701285
 31
0.0
  0
LINE
  5
460
330
1E
100
AcDbEntity
  8
0
100
AcDbLine
 10
105.1454349999999
 20
797.6812849999999
 30
0.0
 11
105.269935
 21
797.9202849999999
 31
0.0
  0
LINE
  5
465
330
1E
100
AcDbEntity
  8
0
100
AcDbLine
 10
105.845435
 20
798.288285
 30
0.0
 11
106.521535
 21
798.567285
 31
0.0
  0
LINE
  5
466
330
1E
100
AcDbEntity
  8
0
100
AcDbLine
 10
105.269935
 20
797.9202849999999
 30
0.0
 11
105.845435
 21
798.288285
 31
0.0
  0
LINE
  5
467
330
1E
100
AcDbEntity
  8
0
100
AcDbLine
 10
105.521535
 20
797.701285
 30
0.0
 11
106.197735
 21
797.9802849999999
 31
0.0
  0
LINE
  5
468
330
1E
100
AcDbEntity
  8
0
100
AcDbLine
 10
106.323235
 20
797.1252849999999
 30
0.0
 11
111.623235
 21
800.6252849999999
 31
0.0
  0
LINE
  5
46A
330
1E
100
AcDbEntity
  8
0
100
AcDbLine
 10
106.773235
 20
798.3472849999999
 30
0.0
 11
106.897735
 21
798.586285
 31
0.0
  0
LINE
  5
46B
330
1E
100
AcDbEntity
  8
0
100
AcDbLine
 10
107.984535
 20
800.8732849999999
 30
0.0
 11
108.493735
 21
800.950285
 31
0.0
  0
LINE
  5
46C
330
1E
100
AcDbEntity
  8
0
100
AcDbLine
 10
108.346835
 20
801.5492849999999
 30
0.0
 11
109.0113349999999
 21
801.916285
 31
0.0
  0
LINE
  5
46D
330
1E
100
AcDbEntity
  8
0
100
AcDbLine
 10
107.914135
 20
801.1162849999999
 30
0.0
 11
107.984535
 21
800.8732849999999
 31
0.0
  0
LINE
  5
46E
330
1E
100
AcDbEntity
  8
0
100
AcDbLine
 10
107.914135
 20
801.1162849999999
 30
0.0
 11
108.346835
 21
801.5492849999999
 31
0.0
  0
LINE
  5
46F
330
1E
100
AcDbEntity
  8
0
100
AcDbLine
 10
108.493735
 20
800.950285
 30
0.0
 11
109.158235
 21
801.3182849999999
 31
0.0
  0
LINE
  5
470
330
1E
100
AcDbEntity
  8
0
100
AcDbLine
 10
111.623235
 20
800.6252849999999
 30
0.0
 11
113.923235
 21
802.3272849999999
 31
0.0
  0
LINE
  5
471
330
1E
100
AcDbEntity
  8
0
100
AcDbLine
 10
109.158235
 20
801.3182849999999
 30
0.0
 11
109.590835
 21
801.7512849999999
 31
0.0
  0
LINE
  5
474
330
1E
100
AcDbEntity
  8
0
100
AcDbLine
 10
106.521535
 20
798.567285
 30
0.0
 11
106.897735
 21
798.586285
 31
0.0
  0
LINE
  5
475
330
1E
100
AcDbEntity
  8
0
100
AcDbLine
 10
106.197735
 20
797.9802849999999
 30
0.0
 11
106.773235
 21
798.3472849999999
 31
0.0
  0
LINE
  5
47A
330
1E
100
AcDbEntity
  8
0
100
AcDbLine
 10
113.179824147287
 20
801.7771609689919
 30
0.0
 11
114.323235
 21
802.523285
 31
0.0
  0
LINE
  5
47B
330
1E
100
AcDbEntity
  8
0
100
AcDbLine
 10
113.923235
 20
802.3272849999999
 30
0.0
 11
117.523235
 21
806.6772849999999
 31
0.0
  0
LINE
  5
47C
330
1E
100
AcDbEntity
  8
0
100
AcDbLine
 10
114.323235
 20
802.523285
 30
0.0
 11
118.023235
 21
806.9732849999999
 31
0.0
  0
LINE
  5
47D
330
1E
100
AcDbEntity
  8
0
100
AcDbLine
 10
114.323235
 20
802.523285
 30
0.0
 11
115.223235
 21
803.089285
 31
0.0
  0
LINE
  5
47E
330
1E
100
AcDbEntity
  8
0
100
AcDbLine
 10
115.223235
 20
803.089285
 30
0.0
 11
117.423235
 21
805.620285
 31
0.0
  0
LINE
  5
480
330
1E
100
AcDbEntity
  8
0
100
AcDbLine
 10
109.520535
 20
801.9942849999999
 30
0.0
 11
109.590835
 21
801.7512849999999
 31
0.0
  0
LINE
  5
481
330
1E
100
AcDbEntity
  8
0
100
AcDbLine
 10
109.0113349999999
 20
801.916285
 30
0.0
 11
109.520535
 21
801.9942849999999
 31
0.0
  0
LINE
  5
482
330
1E
100
AcDbEntity
  8
0
100
AcDbLine
 10
104.278035
 20
801.6252849999998
 30
0.0
 11
104.4596349999999
 21
801.363285
 31
0.0
  0
LINE
  5
483
330
1E
100
AcDbEntity
  8
0
100
AcDbLine
 10
104.0952349999999
 20
800.931285
 30
0.0
 11
104.4596349999999
 21
801.363285
 31
0.0
  0
LINE
  5
484
330
1E
100
AcDbEntity
  8
0
100
AcDbLine
 10
109.682435
 20
804.465285
 30
0.0
 11
110.289935
 21
804.916285
 31
0.0
  0
LINE
  5
485
330
1E
100
AcDbEntity
  8
0
100
AcDbLine
 10
109.074835
 20
804.3142849999998
 30
0.0
 11
109.682435
 21
804.465285
 31
0.0
  0
LINE
  5
486
330
1E
100
AcDbEntity
  8
0
100
AcDbLine
 10
108.814435
 20
804.5352849999998
 30
0.0
 11
109.074835
 21
805.014285
 31
0.0
  0
LINE
  5
487
330
1E
100
AcDbEntity
  8
0
100
AcDbLine
 10
108.814435
 20
804.5352849999998
 30
0.0
 11
109.074835
 21
804.3142849999998
 31
0.0
  0
LINE
  5
488
330
1E
100
AcDbEntity
  8
0
100
AcDbLine
 10
104.278035
 20
804.1952849999999
 30
0.0
 11
104.4596349999999
 21
804.6632849999999
 31
0.0
  0
LINE
  5
489
330
1E
100
AcDbEntity
  8
0
100
AcDbLine
 10
103.6802349999999
 20
803.7632849999999
 30
0.0
 11
104.278035
 21
804.1952849999999
 31
0.0
  0
LINE
  5
48C
330
1E
100
AcDbEntity
  8
0
100
AcDbLine
 10
107.914135
 20
807.9632849999999
 30
0.0
 11
107.984535
 21
808.4642849999999
 31
0.0
  0
LINE
  5
48D
330
1E
100
AcDbEntity
  8
0
100
AcDbLine
 10
107.914135
 20
807.9632849999999
 30
0.0
 11
108.346835
 21
807.7882849999999
 31
0.0
  0
LINE
  5
490
330
1E
100
AcDbEntity
  8
0
100
AcDbLine
 10
109.074835
 20
805.014285
 30
0.0
 11
109.682435
 21
805.465285
 31
0.0
  0
LINE
  5
491
330
1E
100
AcDbEntity
  8
0
100
AcDbLine
 10
109.0113349999999
 20
808.0232849999999
 30
0.0
 11
109.520535
 21
808.547285
 31
0.0
  0
LINE
  5
492
330
1E
100
AcDbEntity
  8
0
100
AcDbLine
 10
108.346835
 20
807.7882849999999
 30
0.0
 11
109.0113349999999
 21
808.0232849999999
 31
0.0
  0
LINE
  5
493
330
1E
100
AcDbEntity
  8
0
100
AcDbLine
 10
107.984535
 20
808.4642849999999
 30
0.0
 11
108.493735
 21
808.989285
 31
0.0
  0
LINE
  5
496
330
1E
100
AcDbEntity
  8
0
100
AcDbLine
 10
105.845435
 20
811.0492849999999
 30
0.0
 11
106.521535
 21
811.3722849999998
 31
0.0
  0
LINE
  5
497
330
1E
100
AcDbEntity
  8
0
100
AcDbLine
 10
105.269935
 20
811.1582849999999
 30
0.0
 11
105.845435
 21
811.0492849999999
 31
0.0
  0
LINE
  5
498
330
1E
100
AcDbEntity
  8
0
100
AcDbLine
 10
105.1454349999999
 20
811.6552849999999
 30
0.0
 11
105.521535
 21
812.2382850000001
 31
0.0
  0
LINE
  5
499
330
1E
100
AcDbEntity
  8
0
100
AcDbLine
 10
105.1454349999999
 20
811.6552849999999
 30
0.0
 11
105.269935
 21
811.1582849999999
 31
0.0
  0
LINE
  5
49C
330
1E
100
AcDbEntity
  8
0
100
AcDbLine
 10
105.521535
 20
812.2382850000001
 30
0.0
 11
106.197735
 21
812.5612849999999
 31
0.0
  0
LINE
  5
49E
330
1E
100
AcDbEntity
  8
0
100
AcDbLine
 10
106.773235
 20
812.4522849999999
 30
0.0
 11
106.897735
 21
811.9552849999999
 31
0.0
  0
LINE
  5
49F
330
1E
100
AcDbEntity
  8
0
100
AcDbLine
 10
106.521535
 20
811.3722849999998
 30
0.0
 11
106.897735
 21
811.9552849999999
 31
0.0
  0
LINE
  5
4A0
330
1E
100
AcDbEntity
  8
0
100
AcDbLine
 10
106.197735
 20
812.5612849999999
 30
0.0
 11
106.773235
 21
812.4522849999999
 31
0.0
  0
LINE
  5
4A3
330
1E
100
AcDbEntity
  8
0
100
AcDbLine
 10
108.493735
 20
808.989285
 30
0.0
 11
109.158235
 21
809.2232849999998
 31
0.0
  0
LINE
  5
4A4
330
1E
100
AcDbEntity
  8
0
100
AcDbLine
 10
110.289935
 20
804.916285
 30
0.0
 11
110.5503349999999
 21
805.3952849999999
 31
0.0
  0
LINE
  5
4A8
330
1E
100
AcDbEntity
  8
0
100
AcDbLine
 10
109.682435
 20
805.465285
 30
0.0
 11
110.289935
 21
805.6162849999999
 31
0.0
  0
LINE
  5
4A9
330
1E
100
AcDbEntity
  8
0
100
AcDbLine
 10
117.523235
 20
806.6772849999999
 30
0.0
 11
118.923235
 21
811.377285
 31
0.0
  0
LINE
  5
4AA
330
1E
100
AcDbEntity
  8
0
100
AcDbLine
 10
117.423235
 20
805.620285
 30
0.0
 11
121.323235
 21
810.420285
 31
0.0
  0
LINE
  5
4AB
330
1E
100
AcDbEntity
  8
0
100
AcDbLine
 10
110.289935
 20
805.6162849999999
 30
0.0
 11
110.5503349999999
 21
805.3952849999999
 31
0.0
  0
LINE
  5
4AD
330
1E
100
AcDbEntity
  8
0
100
AcDbLine
 10
109.520535
 20
808.547285
 30
0.0
 11
109.590835
 21
809.0482849999999
 31
0.0
  0
LINE
  5
4AE
330
1E
100
AcDbEntity
  8
0
100
AcDbLine
 10
109.158235
 20
809.2232849999998
 30
0.0
 11
109.590835
 21
809.0482849999999
 31
0.0
  0
LINE
  5
4AF
330
1E
100
AcDbEntity
  8
0
100
AcDbLine
 10
104.0952349999999
 20
804.8892849999999
 30
0.0
 11
104.4596349999999
 21
804.6632849999999
 31
0.0
  0
LINE
  5
4B0
330
1E
100
AcDbEntity
  8
0
100
AcDbLine
 10
117.613488993192
 20
815.7742894514269
 30
0.0
 11
117.7638183780159
 21
815.8726667694368
 31
0.0
  0
LINE
  5
4B1
330
1E
100
AcDbEntity
  8
0
100
AcDbLine
 10
108.123235
 20
824.623285
 30
0.0
 11
114.023235
 21
820.8232849999999
 31
0.0
  0
LINE
  5
4B2
330
1E
100
AcDbEntity
  8
0
100
AcDbLine
 10
114.023235
 20
820.8232849999999
 30
0.0
 11
117.623235
 21
816.4232849999999
 31
0.0
  0
LINE
  5
4B3
330
1E
100
AcDbEntity
  8
0
100
AcDbLine
 10
108.423235
 20
824.773285
 30
0.0
 11
114.323235
 21
820.9232849999999
 31
0.0
  0
LINE
  5
4B4
330
1E
100
AcDbEntity
  8
0
100
AcDbLine
 10
117.523235
 20
816.0772849999998
 30
0.0
 11
118.923235
 21
811.377285
 31
0.0
  0
LINE
  5
4B5
330
1E
100
AcDbEntity
  8
0
100
AcDbLine
 10
117.623235
 20
816.4232849999999
 30
0.0
 11
118.823235
 21
811.7232849999998
 31
0.0
  0
LINE
  5
4B6
330
1E
100
AcDbEntity
  8
0
100
AcDbLine
 10
114.323235
 20
820.9232849999999
 30
0.0
 11
118.023235
 21
816.473285
 31
0.0
  0
LINE
  5
4B7
330
1E
100
AcDbEntity
  8
0
100
AcDbLine
 10
117.613488993192
 20
815.7742894514269
 30
0.0
 11
117.7638183780159
 21
815.8726667694368
 31
0.0
  0
LINE
  5
4B8
330
1E
100
AcDbEntity
  8
0
100
AcDbLine
 10
118.023235
 20
806.9732849999999
 30
0.0
 11
119.323235
 21
811.7232849999998
 31
0.0
  0
LINE
  5
4B9
330
1E
100
AcDbEntity
  8
0
100
AcDbLine
 10
121.323235
 20
810.420285
 30
0.0
 11
122.323235
 21
812.4352849999999
 31
0.0
  0
LINE
  5
4BA
330
1E
100
AcDbEntity
  8
0
100
AcDbLine
 10
122.323235
 20
812.4352849999999
 30
0.0
 11
123.823235
 21
817.7852849999998
 31
0.0
  0
LINE
  5
4BB
330
1E
100
AcDbEntity
  8
0
100
AcDbLine
 10
118.023235
 20
816.473285
 30
0.0
 11
119.323235
 21
811.7232849999998
 31
0.0
  0
LINE
  5
4BC
330
1E
100
AcDbEntity
  8
0
100
AcDbLine
 10
122.823235
 20
826.650285
 30
0.0
 11
124.323235
 21
821.2502849999999
 31
0.0
  0
LINE
  5
4BD
330
1E
100
AcDbEntity
  8
0
100
AcDbLine
 10
117.829365400628
 20
815.049561512176
 30
0.0
 11
117.9532703887399
 21
815.130646394102
 31
0.0
  0
LINE
  5
4BE
330
1E
100
AcDbEntity
  8
0
100
AcDbLine
 10
117.628557554567
 20
815.723702138238
 30
0.0
 11
117.776890629139
 21
815.821467119205
 31
0.0
  0
LINE
  5
4BF
330
1E
100
AcDbEntity
  8
0
100
AcDbLine
 10
118.623235
 20
831.750285
 30
0.0
 11
122.823235
 21
826.650285
 31
0.0
  0
LINE
  5
4C0
330
1E
100
AcDbEntity
  8
0
100
AcDbLine
 10
119.123235
 20
832.6662849999999
 30
0.0
 11
123.323235
 21
827.5662849999999
 31
0.0
  0
LINE
  5
4C1
330
1E
100
AcDbEntity
  8
0
100
AcDbLine
 10
123.323235
 20
827.5662849999999
 30
0.0
 11
124.823235
 21
822.1162849999998
 31
0.0
  0
LINE
  5
4C2
330
1E
100
AcDbEntity
  8
0
100
AcDbLine
 10
123.823235
 20
817.7852849999998
 30
0.0
 11
124.323235
 21
821.2502849999999
 31
0.0
  0
LINE
  5
4C3
330
1E
100
AcDbEntity
  8
0
100
AcDbLine
 10
124.034862906977
 20
819.2518663953489
 30
0.0
 11
124.823235
 21
822.1162849999998
 31
0.0
  0
LINE
  5
4C4
330
1E
100
AcDbEntity
  8
0
100
AcDbLine
 10
124.823235
 20
826.4462849999999
 30
0.0
 11
124.823235
 21
822.1162849999998
 31
0.0
  0
LINE
  5
4C5
330
1E
100
AcDbEntity
  8
0
100
AcDbLine
 10
124.704060688073
 20
826.879285
 30
0.0
 11
124.823235
 21
827.312285
 31
0.0
  0
LINE
  5
4C6
330
1E
100
AcDbEntity
  8
0
100
AcDbLine
 10
124.823235
 20
822.1162849999998
 30
0.0
 11
124.823235
 21
826.4462849999999
 31
0.0
  0
LINE
  5
4C7
330
1E
100
AcDbEntity
  8
0
100
AcDbLine
 10
123.323235
 20
831.896285
 30
0.0
 11
124.823235
 21
826.4462849999999
 31
0.0
  0
LINE
  5
4C8
330
1E
100
AcDbEntity
  8
0
100
AcDbLine
 10
112.023235
 20
836.100285
 30
0.0
 11
118.623235
 21
831.750285
 31
0.0
  0
LINE
  5
4C9
330
1E
100
AcDbEntity
  8
0
100
AcDbLine
 10
111.623235
 20
836.3332849999999
 30
0.0
 11
111.910122724993
 21
836.1441999085279
 31
0.0
  0
LINE
  5
4CA
330
1E
100
AcDbEntity
  8
0
100
AcDbLine
 10
111.623235
 20
836.3332849999999
 30
0.0
 11
112.023235
 21
836.100285
 31
0.0
  0
LINE
  5
4CB
330
1E
100
AcDbEntity
  8
0
100
AcDbLine
 10
112.323235
 20
837.1162849999999
 30
0.0
 11
119.123235
 21
832.6662849999999
 31
0.0
  0
LINE
  5
4CC
330
1E
100
AcDbEntity
  8
0
100
AcDbLine
 10
112.323235
 20
841.4462849999999
 30
0.0
 11
119.123235
 21
836.996285
 31
0.0
  0
LINE
  5
4CD
330
1E
100
AcDbEntity
  8
0
100
AcDbLine
 10
120.606835
 20
836.9132849999999
 30
0.0
 11
123.323235
 21
832.7622849999999
 31
0.0
  0
LINE
  5
4CE
330
1E
100
AcDbEntity
  8
0
100
AcDbLine
 10
119.123235
 20
836.996285
 30
0.0
 11
123.323235
 21
831.896285
 31
0.0
  0
LINE
  5
4CF
330
1E
100
AcDbEntity
  8
0
100
AcDbLine
 10
119.123235
 20
837.8622849999999
 30
0.0
 11
123.323235
 21
832.7622849999999
 31
0.0
  0
LINE
  5
4D0
330
1E
100
AcDbEntity
  8
0
100
AcDbLine
 10
118.623235
 20
837.3792849999999
 30
0.0
 11
118.7139657395569
 21
837.269111959109
 31
0.0
  0
LINE
  5
4D1
330
1E
100
AcDbEntity
  8
0
100
AcDbLine
 10
118.623235
 20
837.3792849999999
 30
0.0
 11
119.123235
 21
836.996285
 31
0.0
  0
LINE
  5
4D2
330
1E
100
AcDbEntity
  8
0
100
AcDbLine
 10
123.323235
 20
832.7622849999999
 30
0.0
 11
124.823235
 21
827.312285
 31
0.0
  0
LINE
  5
4D3
330
1E
100
AcDbEntity
  8
0
100
AcDbLine
 10
103.4232349999999
 20
840.5162849999999
 30
0.0
 11
112.323235
 21
837.1162849999999
 31
0.0
  0
LINE
  5
4D4
330
1E
100
AcDbEntity
  8
0
100
AcDbLine
 10
82.32323499999999
 20
842.2502849999998
 30
0.0
 11
93.12323499999999
 21
841.500285
 31
0.0
  0
LINE
  5
4D5
330
1E
100
AcDbEntity
  8
0
100
AcDbLine
 10
82.32323499999999
 20
842.4332849999998
 30
0.0
 11
93.02323499999999
 21
841.683285
 31
0.0
  0
LINE
  5
4D6
330
1E
100
AcDbEntity
  8
0
100
AcDbLine
 10
93.22323500000001
 20
842.6162849999998
 30
0.0
 11
103.4232349999999
 21
840.5162849999999
 31
0.0
  0
LINE
  5
4D7
330
1E
100
AcDbEntity
  8
0
100
AcDbLine
 10
82.32323499999999
 20
843.3662849999999
 30
0.0
 11
93.22323500000001
 21
842.6162849999998
 31
0.0
  0
LINE
  5
4D8
330
1E
100
AcDbEntity
  8
0
100
AcDbLine
 10
93.22323500000001
 20
846.9462849999999
 30
0.0
 11
103.4232349999999
 21
844.846285
 31
0.0
  0
LINE
  5
4D9
330
1E
100
AcDbEntity
  8
0
100
AcDbLine
 10
82.32323499999999
 20
847.6962849999999
 30
0.0
 11
93.22323500000001
 21
846.9462849999999
 31
0.0
  0
LINE
  5
4DA
330
1E
100
AcDbEntity
  8
0
100
AcDbLine
 10
93.12323499999999
 20
847.1292849999999
 30
0.0
 11
103.323235
 21
845.029285
 31
0.0
  0
LINE
  5
4DB
330
1E
100
AcDbEntity
  8
0
100
AcDbLine
 10
112.023235
 20
841.729285
 30
0.0
 11
118.623235
 21
837.3792849999999
 31
0.0
  0
LINE
  5
4DC
330
1E
100
AcDbEntity
  8
0
100
AcDbLine
 10
116.737835
 20
841.6992849999999
 30
0.0
 11
120.606835
 21
836.9132849999999
 31
0.0
  0
LINE
  5
4DD
330
1E
100
AcDbEntity
  8
0
100
AcDbLine
 10
112.323235
 20
842.312285
 30
0.0
 11
119.123235
 21
837.8622849999999
 31
0.0
  0
LINE
  5
4DE
330
1E
100
AcDbEntity
  8
0
100
AcDbLine
 10
103.4232349999999
 20
844.846285
 30
0.0
 11
112.323235
 21
841.4462849999999
 31
0.0
  0
LINE
  5
4DF
330
1E
100
AcDbEntity
  8
0
100
AcDbLine
 10
103.323235
 20
845.029285
 30
0.0
 11
112.023235
 21
841.729285
 31
0.0
  0
LINE
  5
4E0
330
1E
100
AcDbEntity
  8
0
100
AcDbLine
 10
112.257735
 20
846.440285
 30
0.0
 11
116.737835
 21
841.6992849999999
 31
0.0
  0
LINE
  5
4E1
330
1E
100
AcDbEntity
  8
0
100
AcDbLine
 10
103.4232349999999
 20
845.7122849999999
 30
0.0
 11
112.323235
 21
842.312285
 31
0.0
  0
LINE
  5
4E2
330
1E
100
AcDbEntity
  8
0
100
AcDbLine
 10
93.22323500000001
 20
847.812285
 30
0.0
 11
103.4232349999999
 21
845.7122849999999
 31
0.0
  0
LINE
  5
4E3
330
1E
100
AcDbEntity
  8
0
100
AcDbLine
 10
71.62323499999999
 20
841.683285
 30
0.0
 11
82.32323499999999
 21
842.4332849999998
 31
0.0
  0
LINE
  5
4E4
330
1E
100
AcDbEntity
  8
0
100
AcDbLine
 10
71.523235
 20
847.1292849999999
 30
0.0
 11
82.32323499999999
 21
847.8792849999999
 31
0.0
  0
LINE
  5
4E5
330
1E
100
AcDbEntity
  8
0
100
AcDbLine
 10
68.679635
 20
854.5602849999999
 30
0.0
 11
75.29773500000001
 21
855.8842849999999
 31
0.0
  0
LINE
  5
4E6
330
1E
100
AcDbEntity
  8
0
100
AcDbLine
 10
82.32323499999999
 20
856.393285
 30
0.0
 11
89.348735
 21
855.8842849999999
 31
0.0
  0
LINE
  5
4E7
330
1E
100
AcDbEntity
  8
0
100
AcDbLine
 10
75.29773500000001
 20
855.8842849999999
 30
0.0
 11
82.32323499999999
 21
856.393285
 31
0.0
  0
LINE
  5
4E8
330
1E
100
AcDbEntity
  8
0
100
AcDbLine
 10
82.32323499999999
 20
847.8792849999999
 30
0.0
 11
93.12323499999999
 21
847.1292849999999
 31
0.0
  0
LINE
  5
4E9
330
1E
100
AcDbEntity
  8
0
100
AcDbLine
 10
106.759635
 20
850.055285
 30
0.0
 11
112.257735
 21
846.440285
 31
0.0
  0
LINE
  5
4EA
330
1E
100
AcDbEntity
  8
0
100
AcDbLine
 10
101.7705349999999
 20
852.3712849999999
 30
0.0
 11
106.759635
 21
850.055285
 31
0.0
  0
LINE
  5
4EB
330
1E
100
AcDbEntity
  8
0
100
AcDbLine
 10
95.96683500000001
 20
854.5602849999999
 30
0.0
 11
101.7705349999999
 21
852.3712849999999
 31
0.0
  0
LINE
  5
4EC
330
1E
100
AcDbEntity
  8
0
100
AcDbLine
 10
89.348735
 20
855.8842849999999
 30
0.0
 11
95.96683500000001
 21
854.5602849999999
 31
0.0
  0
LINE
  5
4ED
330
1E
100
AcDbEntity
  8
0
100
AcDbLine
 10
82.32323499999999
 20
848.562285
 30
0.0
 11
93.22323500000001
 21
847.812285
 31
0.0
  0
LINE
  5
4EE
330
1E
100
AcDbEntity
  8
0
100
AcDbLine
 10
71.42323499999999
 20
847.812285
 30
0.0
 11
82.32323499999999
 21
848.562285
 31
0.0
  0
LINE
  5
4EF
330
1E
100
AcDbEntity
  8
0
100
AcDbLine
 10
63.02323499999999
 20
852.4268426098011
 30
0.0
 11
63.02323499999999
 21
884.480285
 31
0.0
  0
LINE
  5
4F0
330
1E
100
AcDbEntity
  8
0
100
AcDbLine
 10
63.02323499999999
 20
704.9812849999999
 30
0.0
 11
63.02323499999999
 21
795.144722407953
 31
0.0
  0
LINE
  5
4F1
330
1E
100
AcDbEntity
  8
0
100
AcDbLine
 10
41.02323499999999
 20
704.9536042881059
 30
0.0
 11
69.28701457641089
 21
704.9812849999999
 31
0.0
  0
LINE
  5
4F2
330
1E
100
AcDbEntity
  8
0
100
AcDbLine
 10
49.223235
 20
884.480285
 30
0.0
 11
52.023235
 21
884.480285
 31
0.0
  0
LINE
  5
4F3
330
1E
100
AcDbEntity
  8
0
100
AcDbLine
 10
46.523235
 20
884.480285
 30
0.0
 11
49.223235
 21
884.480285
 31
0.0
  0
LINE
  5
4F4
330
1E
100
AcDbEntity
  8
0
100
AcDbLine
 10
44.223235
 20
884.480285
 30
0.0
 11
46.523235
 21
884.480285
 31
0.0
  0
LINE
  5
4F5
330
1E
100
AcDbEntity
  8
0
100
AcDbLine
 10
41.523235
 20
936.981285
 30
0.0
 11
41.92323499999999
 21
936.981285
 31
0.0
  0
LINE
  5
4F6
330
1E
100
AcDbEntity
  8
0
100
AcDbLine
 10
52.023235
 20
884.9812849999999
 30
0.0
 11
54.72323499999999
 21
884.9812849999999
 31
0.0
  0
LINE
  5
4F7
330
1E
100
AcDbEntity
  8
0
100
AcDbLine
 10
54.72323499999999
 20
884.9812849999999
 30
0.0
 11
57.22323499999999
 21
884.9812849999999
 31
0.0
  0
LINE
  5
4F8
330
1E
100
AcDbEntity
  8
0
100
AcDbLine
 10
57.22323499999999
 20
884.9812849999999
 30
0.0
 11
59.423235
 21
884.9812849999999
 31
0.0
  0
LINE
  5
4F9
330
1E
100
AcDbEntity
  8
0
100
AcDbLine
 10
59.423235
 20
884.9812849999999
 30
0.0
 11
61.123235
 21
884.9812849999999
 31
0.0
  0
LINE
  5
4FA
330
1E
100
AcDbEntity
  8
0
100
AcDbLine
 10
61.123235
 20
884.9812849999999
 30
0.0
 11
62.123235
 21
884.9812849999999
 31
0.0
  0
LINE
  5
4FB
330
1E
100
AcDbEntity
  8
0
100
AcDbLine
 10
62.523235
 20
884.9812849999999
 30
0.0
 11
63.02323499999999
 21
884.480285
 31
0.0
  0
LINE
  5
4FC
330
1E
100
AcDbEntity
  8
0
100
AcDbLine
 10
62.123235
 20
884.9812849999999
 30
0.0
 11
62.523235
 21
884.9812849999999
 31
0.0
  0
LINE
  5
4FD
330
1E
100
AcDbEntity
  8
0
100
AcDbLine
 10
49.32323499999999
 20
884.9812849999999
 30
0.0
 11
52.023235
 21
884.9812849999999
 31
0.0
  0
LINE
  5
4FE
330
1E
100
AcDbEntity
  8
0
100
AcDbLine
 10
46.82323499999999
 20
884.9812849999999
 30
0.0
 11
49.32323499999999
 21
884.9812849999999
 31
0.0
  0
LINE
  5
4FF
330
1E
100
AcDbEntity
  8
0
100
AcDbLine
 10
44.623235
 20
884.9812849999999
 30
0.0
 11
46.82323499999999
 21
884.9812849999999
 31
0.0
  0
LINE
  5
500
330
1E
100
AcDbEntity
  8
0
100
AcDbLine
 10
42.923235
 20
884.9812849999999
 30
0.0
 11
44.623235
 21
884.9812849999999
 31
0.0
  0
LINE
  5
501
330
1E
100
AcDbEntity
  8
0
100
AcDbLine
 10
44.223235
 20
885.481285
 30
0.0
 11
46.523235
 21
885.481285
 31
0.0
  0
LINE
  5
502
330
1E
100
AcDbEntity
  8
0
100
AcDbLine
 10
42.523235
 20
885.481285
 30
0.0
 11
44.223235
 21
885.481285
 31
0.0
  0
LINE
  5
503
330
1E
100
AcDbEntity
  8
0
100
AcDbLine
 10
44.223235
 20
936.4812849999999
 30
0.0
 11
46.523235
 21
936.4812849999999
 31
0.0
  0
LINE
  5
504
330
1E
100
AcDbEntity
  8
0
100
AcDbLine
 10
42.523235
 20
936.4812849999999
 30
0.0
 11
44.223235
 21
936.4812849999999
 31
0.0
  0
LINE
  5
505
330
1E
100
AcDbEntity
  8
0
100
AcDbLine
 10
49.223235
 20
885.481285
 30
0.0
 11
52.023235
 21
885.481285
 31
0.0
  0
LINE
  5
506
330
1E
100
AcDbEntity
  8
0
100
AcDbLine
 10
46.523235
 20
885.481285
 30
0.0
 11
49.223235
 21
885.481285
 31
0.0
  0
LINE
  5
507
330
1E
100
AcDbEntity
  8
0
100
AcDbLine
 10
49.223235
 20
936.4812849999999
 30
0.0
 11
52.023235
 21
936.4812849999999
 31
0.0
  0
LINE
  5
508
330
1E
100
AcDbEntity
  8
0
100
AcDbLine
 10
46.523235
 20
936.4812849999999
 30
0.0
 11
49.223235
 21
936.4812849999999
 31
0.0
  0
LINE
  5
509
330
1E
100
AcDbEntity
  8
0
100
AcDbLine
 10
52.023235
 20
885.481285
 30
0.0
 11
54.82323499999999
 21
885.481285
 31
0.0
  0
LINE
  5
50A
330
1E
100
AcDbEntity
  8
0
100
AcDbLine
 10
52.023235
 20
936.4812849999999
 30
0.0
 11
54.82323499999999
 21
936.4812849999999
 31
0.0
  0
LINE
  5
50B
330
1E
100
AcDbEntity
  8
0
100
AcDbLine
 10
54.82323499999999
 20
885.481285
 30
0.0
 11
57.523235
 21
885.481285
 31
0.0
  0
LINE
  5
50C
330
1E
100
AcDbEntity
  8
0
100
AcDbLine
 10
54.82323499999999
 20
936.4812849999999
 30
0.0
 11
57.523235
 21
936.4812849999999
 31
0.0
  0
LINE
  5
50D
330
1E
100
AcDbEntity
  8
0
100
AcDbLine
 10
52.023235
 20
936.981285
 30
0.0
 11
54.72323499999999
 21
936.981285
 31
0.0
  0
LINE
  5
50E
330
1E
100
AcDbEntity
  8
0
100
AcDbLine
 10
54.72323499999999
 20
936.981285
 30
0.0
 11
57.22323499999999
 21
936.981285
 31
0.0
  0
LINE
  5
50F
330
1E
100
AcDbEntity
  8
0
100
AcDbLine
 10
57.523235
 20
885.481285
 30
0.0
 11
59.82323499999999
 21
885.481285
 31
0.0
  0
LINE
  5
510
330
1E
100
AcDbEntity
  8
0
100
AcDbLine
 10
59.82323499999999
 20
885.481285
 30
0.0
 11
61.523235
 21
885.481285
 31
0.0
  0
LINE
  5
511
330
1E
100
AcDbEntity
  8
0
100
AcDbLine
 10
57.523235
 20
936.4812849999999
 30
0.0
 11
59.82323499999999
 21
936.4812849999999
 31
0.0
  0
LINE
  5
512
330
1E
100
AcDbEntity
  8
0
100
AcDbLine
 10
59.82323499999999
 20
936.4812849999999
 30
0.0
 11
61.523235
 21
936.4812849999999
 31
0.0
  0
LINE
  5
513
330
1E
100
AcDbEntity
  8
0
100
AcDbLine
 10
57.22323499999999
 20
936.981285
 30
0.0
 11
59.423235
 21
936.981285
 31
0.0
  0
LINE
  5
514
330
1E
100
AcDbEntity
  8
0
100
AcDbLine
 10
59.423235
 20
936.981285
 30
0.0
 11
61.123235
 21
936.981285
 31
0.0
  0
LINE
  5
515
330
1E
100
AcDbEntity
  8
0
100
AcDbLine
 10
61.523235
 20
885.481285
 30
0.0
 11
62.623235
 21
885.481285
 31
0.0
  0
LINE
  5
516
330
1E
100
AcDbEntity
  8
0
100
AcDbLine
 10
62.623235
 20
885.481285
 30
0.0
 11
63.02323499999999
 21
885.481285
 31
0.0
  0
LINE
  5
517
330
1E
100
AcDbEntity
  8
0
100
AcDbLine
 10
61.523235
 20
936.4812849999999
 30
0.0
 11
62.623235
 21
936.4812849999999
 31
0.0
  0
LINE
  5
518
330
1E
100
AcDbEntity
  8
0
100
AcDbLine
 10
63.02323499999999
 20
885.481285
 30
0.0
 11
63.02323499999999
 21
936.4812849999999
 31
0.0
  0
LINE
  5
519
330
1E
100
AcDbEntity
  8
0
100
AcDbLine
 10
63.02323499999999
 20
936.4812849999999
 30
0.0
 11
63.02323499999999
 21
885.481285
 31
0.0
  0
LINE
  5
51A
330
1E
100
AcDbEntity
  8
0
100
AcDbLine
 10
62.623235
 20
936.4812849999999
 30
0.0
 11
63.02323499999999
 21
936.4812849999999
 31
0.0
  0
LINE
  5
51B
330
1E
100
AcDbEntity
  8
0
100
AcDbLine
 10
62.523235
 20
936.981285
 30
0.0
 11
63.02323499999999
 21
936.4812849999999
 31
0.0
  0
LINE
  5
51C
330
1E
100
AcDbEntity
  8
0
100
AcDbLine
 10
61.123235
 20
936.981285
 30
0.0
 11
62.123235
 21
936.981285
 31
0.0
  0
LINE
  5
51D
330
1E
100
AcDbEntity
  8
0
100
AcDbLine
 10
62.123235
 20
936.981285
 30
0.0
 11
62.523235
 21
936.981285
 31
0.0
  0
LINE
  5
51E
330
1E
100
AcDbEntity
  8
0
100
AcDbLine
 10
49.32323499999999
 20
936.981285
 30
0.0
 11
52.023235
 21
936.981285
 31
0.0
  0
LINE
  5
51F
330
1E
100
AcDbEntity
  8
0
100
AcDbLine
 10
46.82323499999999
 20
936.981285
 30
0.0
 11
49.32323499999999
 21
936.981285
 31
0.0
  0
LINE
  5
520
330
1E
100
AcDbEntity
  8
0
100
AcDbLine
 10
44.623235
 20
936.981285
 30
0.0
 11
46.82323499999999
 21
936.981285
 31
0.0
  0
LINE
  5
521
330
1E
100
AcDbEntity
  8
0
100
AcDbLine
 10
42.923235
 20
936.981285
 30
0.0
 11
44.623235
 21
936.981285
 31
0.0
  0
LINE
  5
522
330
1E
100
AcDbEntity
  8
0
100
AcDbLine
 10
41.92323499999999
 20
936.981285
 30
0.0
 11
42.923235
 21
936.981285
 31
0.0
  0
LINE
  5
523
330
1E
100
AcDbEntity
  8
0
100
AcDbLine
 10
41.92323499999999
 20
884.9812849999999
 30
0.0
 11
42.923235
 21
884.9812849999999
 31
0.0
  0
LINE
  5
524
330
1E
100
AcDbEntity
  8
0
100
AcDbLine
 10
41.523235
 20
884.9812849999999
 30
0.0
 11
41.92323499999999
 21
884.9812849999999
 31
0.0
  0
LINE
  5
525
330
1E
100
AcDbEntity
  8
0
100
AcDbLine
 10
42.523235
 20
884.480285
 30
0.0
 11
44.223235
 21
884.480285
 31
0.0
  0
LINE
  5
526
330
1E
100
AcDbEntity
  8
0
100
AcDbLine
 10
41.42323499999999
 20
884.480285
 30
0.0
 11
42.523235
 21
884.480285
 31
0.0
  0
LINE
  5
527
330
1E
100
AcDbEntity
  8
0
100
AcDbLine
 10
41.42323499999999
 20
30.48228499999999
 30
0.0
 11
42.523235
 21
30.48228499999999
 31
0.0
  0
LINE
  5
528
330
1E
100
AcDbEntity
  8
0
100
AcDbLine
 10
41.02323499999999
 20
30.48228499999999
 30
0.0
 11
41.42323499999999
 21
30.48228499999999
 31
0.0
  0
LINE
  5
529
330
1E
100
AcDbEntity
  8
0
100
AcDbLine
 10
41.02323499999999
 20
30.48228499999999
 30
0.0
 11
41.523235
 21
29.98128500000001
 31
0.0
  0
LINE
  5
52A
330
1E
100
AcDbEntity
  8
0
100
AcDbLine
 10
41.02323499999999
 20
30.48228499999999
 30
0.0
 11
41.02323500000001
 21
667.9812849999999
 31
0.0
  0
LINE
  5
52B
330
1E
100
AcDbEntity
  8
0
100
AcDbLine
 10
41.523235
 20
29.98128500000001
 30
0.0
 11
41.92323499999999
 21
29.98128500000001
 31
0.0
  0
LINE
  5
52C
330
1E
100
AcDbEntity
  8
0
100
AcDbLine
 10
5.952474999999999
 20
716.0492849999999
 30
0.0
 11
9.980970944476599
 21
704.9812849999999
 31
0.0
  0
LINE
  5
531
330
1E
100
AcDbEntity
  8
0
100
AcDbLine
 10
69.56163499999999
 20
792.9072849999999
 30
0.0
 11
69.6947090441226
 21
793.425435193946
 31
0.0
  0
LINE
  5
532
330
1E
100
AcDbEntity
  8
0
100
AcDbLine
 10
63.02323499999999
 20
-21.51871499999998
 30
0.0
 11
63.02323499999999
 21
29.48128500000001
 31
0.0
  0
ENDSEC
  0
SECTION
  2
OBJECTS
  0
DICTIONARY
  5
C
330
0
100
AcDbDictionary
281
     1
  3
ACAD_GROUP
350
D
  3
ACAD_LAYOUT
350
19
  3
ACAD_MLINESTYLE
350
16
  3
ACAD_PLOTSETTINGS
350
18
  3
ACAD_PLOTSTYLENAME
350
E
  3
AcDbVariableDictionary
350
533
  0
DICTIONARY
  5
D
102
{ACAD_REACTORS
330
C
102
}
330
C
100
AcDbDictionary
281
     1
  0
DICTIONARY
  5
19
102
{ACAD_REACTORS
330
C
102
}
330
C
100
AcDbDictionary
281
     1
  3
Layout1
350
1D
  3
Model
350
21
  0
DICTIONARY
  5
16
102
{ACAD_REACTORS
330
C
102
}
330
C
100
AcDbDictionary
281
     1
  3
Standard
350
17
  0
DICTIONARY
  5
18
102
{ACAD_REACTORS
330
C
102
}
330
C
100
AcDbDictionary
281
     1
  0
ACDBDICTIONARYWDFLT
  5
E
102
{ACAD_REACTORS
330
C
102
}
330
C
100
AcDbDictionary
281
     1
  3
Normal
350
F
100
AcDbDictionaryWithDefault
340
F
  0
DICTIONARY
  5
533
102
{ACAD_REACTORS
330
C
102
}
330
C
100
AcDbDictionary
281
     1
  3
DIMASSOC
350
534
  0
LAYOUT
  5
1D
102
{ACAD_REACTORS
330
19
102
}
330
19
100
AcDbPlotSettings
  1

  2
hp deskjet 980c series
  4

  6

 40
0.0
 41
0.0
 42
0.0
 43
0.0
 44
0.0
 45
0.0
 46
0.0
 47
0.0
 48
0.0
 49
0.0
140
0.0
141
0.0
142
1.0
143
1.0
 70
   688
 72
     0
 73
     0
 74
     5
  7

 75
    16
147
1.0
148
0.0
149
0.0
100
AcDbLayout
  1
Layout1
 70
     1
 71
     1
 10
0.0
 20
0.0
 11
12.0
 21
9.0
 12
0.0
 22
0.0
 32
0.0
 14
1.000000000000000E+20
 24
1.000000000000000E+20
 34
1.000000000000000E+20
 15
-1.000000000000000E+20
 25
-1.000000000000000E+20
 35
-1.000000000000000E+20
146
0.0
 13
0.0
 23
0.0
 33
0.0
 16
1.0
 26
0.0
 36
0.0
 17
0.0
 27
1.0
 37
0.0
 76
     0
330
1A
  0
LAYOUT
  5
21
102
{ACAD_REACTORS
330
19
102
}
330
19
100
AcDbPlotSettings
  1

  2
hp deskjet 980c series
  4

  6

 40
0.0
 41
0.0
 42
0.0
 43
0.0
 44
0.0
 45
0.0
 46
0.0
 47
0.0
 48
0.0
 49
0.0
140
0.0
141
0.0
142
1.0
143
1.0
 70
  1712
 72
     0
 73
     0
 74
     0
  7

 75
     0
147
1.0
148
0.0
149
0.0
100
AcDbLayout
  1
Model
 70
     1
 71
     0
 10
0.0
 20
0.0
 11
12.0
 21
9.0
 12
0.0
 22
0.0
 32
0.0
 14
0.0
 24
0.0
 34
0.0
 15
0.0
 25
0.0
 35
0.0
146
0.0
 13
0.0
 23
0.0
 33
0.0
 16
1.0
 26
0.0
 36
0.0
 17
0.0
 27
1.0
 37
0.0
 76
     0
330
1E
  0
MLINESTYLE
  5
17
102
{ACAD_REACTORS
330
16
102
}
330
16
100
AcDbMlineStyle
  2
STANDARD
 70
     0
  3

 62
   256
 51
90.0
 52
90.0
 71
     2
 49
0.5
 62
   256
  6
BYLAYER
 49
-0.5
 62
   256
  6
BYLAYER
  0
ACDBPLACEHOLDER
  5
F
102
{ACAD_REACTORS
330
E
102
}
330
E
  0
DICTIONARYVAR
  5
534
102
{ACAD_REACTORS
330
533
102
}
330
533
100
DictionaryVariables
280
     0
  1
1
  0
ENDSEC
  0
EOF
