  0
SECTION
  2
HEADER
  9
$ACADVER
  1
AC1015
  9
$ACADMAINTVER
 70
    13
  9
$DWGCODEPAGE
  3
ANSI_1252
  9
$INSBASE
 10
0.0
 20
0.0
 30
0.0
  9
$EXTMIN
 10
-0.158500000000033
 20
0.0187149999999621
 30
0.0
  9
$EXTMAX
 10
241.1585
 20
936.981285
 30
0.0
  9
$LIMMIN
 10
0.0
 20
0.0
  9
$LIMMAX
 10
12.0
 20
9.0
  9
$ORTHOMODE
 70
     0
  9
$REGENMODE
 70
     1
  9
$FILLMODE
 70
     1
  9
$QTEXTMODE
 70
     0
  9
$MIRRTEXT
 70
     1
  9
$LTSCALE
 40
1.0
  9
$ATTMODE
 70
     1
  9
$TEXTSIZE
 40
0.2
  9
$TRACEWID
 40
0.05
  9
$TEXTSTYLE
  7
Standard
  9
$CLAYER
  8
0
  9
$CELTYPE
  6
Continuous
  9
$CECOLOR
 62
   256
  9
$CELTSCALE
 40
1.0
  9
$DISPSILH
 70
     0
  9
$DIMSCALE
 40
1.0
  9
$DIMASZ
 40
0.18
  9
$DIMEXO
 40
0.0625
  9
$DIMDLI
 40
0.38
  9
$DIMRND
 40
0.0
  9
$DIMDLE
 40
0.0
  9
$DIMEXE
 40
0.18
  9
$DIMTP
 40
0.0
  9
$DIMTM
 40
0.0
  9
$DIMTXT
 40
0.18
  9
$DIMCEN
 40
0.09
  9
$DIMTSZ
 40
0.0
  9
$DIMTOL
 70
     0
  9
$DIMLIM
 70
     0
  9
$DIMTIH
 70
     1
  9
$DIMTOH
 70
     1
  9
$DIMSE1
 70
     0
  9
$DIMSE2
 70
     0
  9
$DIMTAD
 70
     0
  9
$DIMZIN
 70
     0
  9
$DIMBLK
  1

  9
$DIMASO
 70
     1
  9
$DIMSHO
 70
     1
  9
$DIMPOST
  1

  9
$DIMAPOST
  1

  9
$DIMALT
 70
     0
  9
$DIMALTD
 70
     2
  9
$DIMALTF
 40
25.4
  9
$DIMLFAC
 40
1.0
  9
$DIMTOFL
 70
     0
  9
$DIMTVP
 40
0.0
  9
$DIMTIX
 70
     0
  9
$DIMSOXD
 70
     0
  9
$DIMSAH
 70
     0
  9
$DIMBLK1
  1

  9
$DIMBLK2
  1

  9
$DIMSTYLE
  2
Standard
  9
$DIMCLRD
 70
     0
  9
$DIMCLRE
 70
     0
  9
$DIMCLRT
 70
     0
  9
$DIMTFAC
 40
1.0
  9
$DIMGAP
 40
0.09
  9
$DIMJUST
 70
     0
  9
$DIMSD1
 70
     0
  9
$DIMSD2
 70
     0
  9
$DIMTOLJ
 70
     1
  9
$DIMTZIN
 70
     0
  9
$DIMALTZ
 70
     0
  9
$DIMALTTZ
 70
     0
  9
$DIMUPT
 70
     0
  9
$DIMDEC
 70
     4
  9
$DIMTDEC
 70
     4
  9
$DIMALTU
 70
     2
  9
$DIMALTTD
 70
     2
  9
$DIMTXSTY
  7
Standard
  9
$DIMAUNIT
 70
     0
  9
$DIMADEC
 70
     0
  9
$DIMALTRND
 40
0.0
  9
$DIMAZIN
 70
     0
  9
$DIMDSEP
 70
    46
  9
$DIMATFIT
 70
     3
  9
$DIMFRAC
 70
     0
  9
$DIMLDRBLK
  1

  9
$DIMLUNIT
 70
     2
  9
$DIMLWD
 70
    -2
  9
$DIMLWE
 70
    -2
  9
$DIMTMOVE
 70
     0
  9
$LUNITS
 70
     2
  9
$LUPREC
 70
     4
  9
$SKETCHINC
 40
0.1
  9
$FILLETRAD
 40
0.0
  9
$AUNITS
 70
     0
  9
$AUPREC
 70
     0
  9
$MENU
  1
.
  9
$ELEVATION
 40
0.0
  9
$PELEVATION
 40
0.0
  9
$THICKNESS
 40
0.0
  9
$LIMCHECK
 70
     0
  9
$CHAMFERA
 40
0.0
  9
$CHAMFERB
 40
0.0
  9
$CHAMFERC
 40
0.0
  9
$CHAMFERD
 40
0.0
  9
$SKPOLY
 70
     0
  9
$TDCREATE
 40
2455656.897903229
  9
$TDUCREATE
 40
2455656.814569895
  9
$TDUPDATE
 40
2455656.899259919
  9
$TDUUPDATE
 40
2455656.815926586
  9
$TDINDWG
 40
0.0013566898
  9
$TDUSRTIMER
 40
0.0013566898
  9
$USRTIMER
 70
     1
  9
$ANGBASE
 50
0.0
  9
$ANGDIR
 70
     0
  9
$PDMODE
 70
     0
  9
$PDSIZE
 40
0.0
  9
$PLINEWID
 40
0.0
  9
$SPLFRAME
 70
     0
  9
$SPLINETYPE
 70
     6
  9
$SPLINESEGS
 70
     8
  9
$HANDSEED
  5
487
  9
$SURFTAB1
 70
     6
  9
$SURFTAB2
 70
     6
  9
$SURFTYPE
 70
     6
  9
$SURFU
 70
     6
  9
$SURFV
 70
     6
  9
$UCSBASE
  2

  9
$UCSNAME
  2

  9
$UCSORG
 10
0.0
 20
0.0
 30
0.0
  9
$UCSXDIR
 10
1.0
 20
0.0
 30
0.0
  9
$UCSYDIR
 10
0.0
 20
1.0
 30
0.0
  9
$UCSORTHOREF
  2

  9
$UCSORTHOVIEW
 70
     1
  9
$UCSORGTOP
 10
0.0
 20
0.0
 30
0.0
  9
$UCSORGBOTTOM
 10
0.0
 20
0.0
 30
0.0
  9
$UCSORGLEFT
 10
0.0
 20
0.0
 30
0.0
  9
$UCSORGRIGHT
 10
0.0
 20
0.0
 30
0.0
  9
$UCSORGFRONT
 10
0.0
 20
0.0
 30
0.0
  9
$UCSORGBACK
 10
0.0
 20
0.0
 30
0.0
  9
$PUCSBASE
  2

  9
$PUCSNAME
  2

  9
$PUCSORG
 10
0.0
 20
0.0
 30
0.0
  9
$PUCSXDIR
 10
1.0
 20
0.0
 30
0.0
  9
$PUCSYDIR
 10
0.0
 20
1.0
 30
0.0
  9
$PUCSORTHOREF
  2

  9
$PUCSORTHOVIEW
 70
     0
  9
$PUCSORGTOP
 10
0.0
 20
0.0
 30
0.0
  9
$PUCSORGBOTTOM
 10
0.0
 20
0.0
 30
0.0
  9
$PUCSORGLEFT
 10
0.0
 20
0.0
 30
0.0
  9
$PUCSORGRIGHT
 10
0.0
 20
0.0
 30
0.0
  9
$PUCSORGFRONT
 10
0.0
 20
0.0
 30
0.0
  9
$PUCSORGBACK
 10
0.0
 20
0.0
 30
0.0
  9
$USERI1
 70
     0
  9
$USERI2
 70
     0
  9
$USERI3
 70
     0
  9
$USERI4
 70
     0
  9
$USERI5
 70
     0
  9
$USERR1
 40
0.0
  9
$USERR2
 40
0.0
  9
$USERR3
 40
0.0
  9
$USERR4
 40
0.0
  9
$USERR5
 40
0.0
  9
$WORLDVIEW
 70
     1
  9
$SHADEDGE
 70
     3
  9
$SHADEDIF
 70
    70
  9
$TILEMODE
 70
     1
  9
$MAXACTVP
 70
    64
  9
$PINSBASE
 10
0.0
 20
0.0
 30
0.0
  9
$PLIMCHECK
 70
     0
  9
$PEXTMIN
 10
1.000000000000000E+20
 20
1.000000000000000E+20
 30
1.000000000000000E+20
  9
$PEXTMAX
 10
-1.000000000000000E+20
 20
-1.000000000000000E+20
 30
-1.000000000000000E+20
  9
$PLIMMIN
 10
0.0
 20
0.0
  9
$PLIMMAX
 10
12.0
 20
9.0
  9
$UNITMODE
 70
     0
  9
$VISRETAIN
 70
     1
  9
$PLINEGEN
 70
     0
  9
$PSLTSCALE
 70
     1
  9
$TREEDEPTH
 70
  3020
  9
$CMLSTYLE
  2
Standard
  9
$CMLJUST
 70
     0
  9
$CMLSCALE
 40
1.0
  9
$PROXYGRAPHICS
 70
     1
  9
$MEASUREMENT
 70
     0
  9
$CELWEIGHT
370
    -1
  9
$ENDCAPS
280
     0
  9
$JOINSTYLE
280
     0
  9
$LWDISPLAY
290
     0
  9
$INSUNITS
 70
     0
  9
$HYPERLINKBASE
  1

  9
$STYLESHEET
  1

  9
$XEDIT
290
     1
  9
$CEPSNTYPE
380
     0
  9
$PSTYLEMODE
290
     1
  9
$FINGERPRINTGUID
  2
{860E6A10-9403-45A0-A66A-08DEBEF29084}
  9
$VERSIONGUID
  2
{DD940AB0-3381-4E3E-A7A7-AE425E94E446}
  9
$EXTNAMES
290
     1
  9
$PSVPSCALE
 40
0.0
  9
$OLESTARTUP
290
     0
  0
ENDSEC
  0
SECTION
  2
CLASSES
  0
CLASS
  1
ACDBDICTIONARYWDFLT
  2
AcDbDictionaryWithDefault
  3
AutoCAD 2000
 90
        0
280
     0
281
     0
  0
CLASS
  1
ACDBPLACEHOLDER
  2
AcDbPlaceHolder
  3
AutoCAD 2000
 90
        0
280
     0
281
     0
  0
CLASS
  1
LAYOUT
  2
AcDbLayout
  3
AutoCAD 2000
 90
        0
280
     0
281
     0
  0
CLASS
  1
DICTIONARYVAR
  2
AcDbDictionaryVar
  3
AutoCAD 2000
 90
        0
280
     0
281
     0
  0
ENDSEC
  0
SECTION
  2
TABLES
  0
TABLE
  2
VPORT
  5
8
330
0
100
AcDbSymbolTable
 70
     3
  0
VPORT
  5
486
330
8
100
AcDbSymbolTableRecord
100
AcDbViewportTableRecord
  2
*Active
 70
     0
 10
0.0
 20
0.0
 11
1.0
 21
1.0
 12
120.4999999999999
 22
468.5
 13
0.0
 23
0.0
 14
1.0
 24
1.0
 15
0.0
 25
0.0
 16
0.0
 26
0.0
 36
1.0
 17
0.0
 27
0.0
 37
0.0
 40
943.3005355242391
 41
2.073363431151241
 42
50.0
 43
0.0
 44
0.0
 50
0.0
 51
0.0
 71
     0
 72
   100
 73
     1
 74
     3
 75
     0
 76
     0
 77
     0
 78
     0
281
     0
 65
     1
110
0.0
120
0.0
130
0.0
111
1.0
121
0.0
131
0.0
112
0.0
122
1.0
132
0.0
 79
     1
146
0.0
  0
ENDTAB
  0
TABLE
  2
LTYPE
  5
5
330
0
100
AcDbSymbolTable
 70
     1
  0
LTYPE
  5
13
330
5
100
AcDbSymbolTableRecord
100
AcDbLinetypeTableRecord
  2
ByBlock
 70
     0
  3

 72
    65
 73
     0
 40
0.0
  0
LTYPE
  5
14
330
5
100
AcDbSymbolTableRecord
100
AcDbLinetypeTableRecord
  2
ByLayer
 70
     0
  3

 72
    65
 73
     0
 40
0.0
  0
LTYPE
  5
15
330
5
100
AcDbSymbolTableRecord
100
AcDbLinetypeTableRecord
  2
Continuous
 70
     0
  3
Solid line
 72
    65
 73
     0
 40
0.0
  0
ENDTAB
  0
TABLE
  2
LAYER
  5
2
330
0
100
AcDbSymbolTable
 70
     1
  0
LAYER
  5
10
330
2
100
AcDbSymbolTableRecord
100
AcDbLayerTableRecord
  2
0
 70
     0
 62
     7
  6
Continuous
370
    -3
390
F
  0
ENDTAB
  0
TABLE
  2
STYLE
  5
3
330
0
100
AcDbSymbolTable
 70
     1
  0
STYLE
  5
11
330
3
100
AcDbSymbolTableRecord
100
AcDbTextStyleTableRecord
  2
Standard
 70
     0
 40
0.0
 41
1.0
 50
0.0
 71
     0
 42
0.2
  3
txt
  4

  0
ENDTAB
  0
TABLE
  2
VIEW
  5
6
330
0
100
AcDbSymbolTable
 70
     0
  0
ENDTAB
  0
TABLE
  2
UCS
  5
7
330
0
100
AcDbSymbolTable
 70
     0
  0
ENDTAB
  0
TABLE
  2
APPID
  5
9
330
0
100
AcDbSymbolTable
 70
     1
  0
APPID
  5
12
330
9
100
AcDbSymbolTableRecord
100
AcDbRegAppTableRecord
  2
ACAD
 70
     0
  0
ENDTAB
  0
TABLE
  2
DIMSTYLE
  5
A
330
0
100
AcDbSymbolTable
 70
     1
100
AcDbDimStyleTable
 71
     0
  0
DIMSTYLE
105
47D
330
A
100
AcDbSymbolTableRecord
100
AcDbDimStyleTableRecord
  2
Standard
 70
     0
340
11
  0
ENDTAB
  0
TABLE
  2
BLOCK_RECORD
  5
1
330
0
100
AcDbSymbolTable
 70
     0
  0
BLOCK_RECORD
  5
1E
330
1
100
AcDbSymbolTableRecord
100
AcDbBlockTableRecord
  2
*Model_Space
340
21
  0
BLOCK_RECORD
  5
1A
330
1
100
AcDbSymbolTableRecord
100
AcDbBlockTableRecord
  2
*Paper_Space
340
1D
  0
ENDTAB
  0
ENDSEC
  0
SECTION
  2
BLOCKS
  0
BLOCK
  5
1F
330
1E
100
AcDbEntity
  8
0
100
AcDbBlockBegin
  2
*Model_Space
 70
     0
 10
0.0
 20
0.0
 30
0.0
  3
*Model_Space
  1

  0
ENDBLK
  5
20
330
1E
100
AcDbEntity
  8
0
100
AcDbBlockEnd
  0
BLOCK
  5
1B
330
1A
100
AcDbEntity
 67
     1
  8
0
100
AcDbBlockBegin
  2
*Paper_Space
 70
     0
 10
0.0
 20
0.0
 30
0.0
  3
*Paper_Space
  1

  0
ENDBLK
  5
1C
330
1A
100
AcDbEntity
 67
     1
  8
0
100
AcDbBlockEnd
  0
ENDSEC
  0
SECTION
  2
ENTITIES
  0
LINE
  5
22
330
1E
100
AcDbEntity
  8
0
100
AcDbLine
 10
150.52
 20
707.580285
 30
0.0
 11
159.9890219999999
 21
695.5512849999999
 31
0.0
  0
LINE
  5
23
330
1E
100
AcDbEntity
  8
0
100
AcDbLine
 10
141.3614
 20
719.9672849999999
 30
0.0
 11
150.52
 21
707.580285
 31
0.0
  0
LINE
  5
24
330
1E
100
AcDbEntity
  8
0
100
AcDbLine
 10
48.6595
 20
793.7562849999999
 30
0.0
 11
49.2905
 21
793.6562849999999
 31
0.0
  0
LINE
  5
25
330
1E
100
AcDbEntity
  8
0
100
AcDbLine
 10
48.6595
 20
793.7562849999999
 30
0.0
 11
48.6790707813627
 21
794.194309988132
 31
0.0
  0
LINE
  5
26
330
1E
100
AcDbEntity
  8
0
100
AcDbLine
 10
50.3525
 20
793.421285
 30
0.0
 11
50.385173308099
 21
794.152565224691
 31
0.0
  0
LINE
  5
27
330
1E
100
AcDbEntity
  8
0
100
AcDbLine
 10
50.1465
 20
793.426285
 30
0.0
 11
50.3525
 21
793.421285
 31
0.0
  0
LINE
  5
28
330
1E
100
AcDbEntity
  8
0
100
AcDbLine
 10
49.9885
 20
793.517285
 30
0.0
 11
50.3525
 21
793.421285
 31
0.0
  0
LINE
  5
29
330
1E
100
AcDbEntity
  8
0
100
AcDbLine
 10
49.9885
 20
793.517285
 30
0.0
 11
50.02523826304369
 21
794.3400287328999
 31
0.0
  0
LINE
  5
2A
330
1E
100
AcDbEntity
  8
0
100
AcDbLine
 10
56.5835
 20
792.5442849999999
 30
0.0
 11
56.86849999999999
 21
792.5342849999999
 31
0.0
  0
LINE
  5
2B
330
1E
100
AcDbEntity
  8
0
100
AcDbLine
 10
55.9195
 20
792.5682849999999
 30
0.0
 11
56.5835
 21
792.5442849999999
 31
0.0
  0
LINE
  5
2C
330
1E
100
AcDbEntity
  8
0
100
AcDbLine
 10
54.5258576540131
 20
793.0930377729739
 30
0.0
 11
54.53649999999999
 21
793.0062849999999
 31
0.0
  0
LINE
  5
2D
330
1E
100
AcDbEntity
  8
0
100
AcDbLine
 10
54.53649999999999
 20
793.0062849999999
 30
0.0
 11
55.2505
 21
792.9542849999998
 31
0.0
  0
LINE
  5
2E
330
1E
100
AcDbEntity
  8
0
100
AcDbLine
 10
54.1025
 20
793.101285
 30
0.0
 11
54.2235
 21
793.1872849999999
 31
0.0
  0
LINE
  5
2F
330
1E
100
AcDbEntity
  8
0
100
AcDbLine
 10
54.1025
 20
793.101285
 30
0.0
 11
54.53649999999999
 21
793.0062849999999
 31
0.0
  0
LINE
  5
30
330
1E
100
AcDbEntity
  8
0
100
AcDbLine
 10
54.2235
 20
793.1872849999999
 30
0.0
 11
54.8035
 21
793.2122849999999
 31
0.0
  0
LINE
  5
31
330
1E
100
AcDbEntity
  8
0
100
AcDbLine
 10
54.8035
 20
793.2122849999999
 30
0.0
 11
55.5175
 21
793.1602849999999
 31
0.0
  0
LINE
  5
32
330
1E
100
AcDbEntity
  8
0
100
AcDbLine
 10
54.9177874215832
 20
792.9785161681759
 30
0.0
 11
54.9705
 21
792.601285
 31
0.0
  0
LINE
  5
33
330
1E
100
AcDbEntity
  8
0
100
AcDbLine
 10
55.8305
 20
792.9802849999999
 30
0.0
 11
55.9515
 21
793.0642849999999
 31
0.0
  0
LINE
  5
34
330
1E
100
AcDbEntity
  8
0
100
AcDbLine
 10
55.2505
 20
792.9542849999998
 30
0.0
 11
55.8305
 21
792.9802849999999
 31
0.0
  0
LINE
  5
35
330
1E
100
AcDbEntity
  8
0
100
AcDbLine
 10
55.2379988638259
 20
793.0561899963009
 30
0.0
 11
55.2505
 21
792.9542849999998
 31
0.0
  0
LINE
  5
36
330
1E
100
AcDbEntity
  8
0
100
AcDbLine
 10
60.3785
 20
793.1062849999999
 30
0.0
 11
63.6941
 21
793.6642849999999
 31
0.0
  0
LINE
  5
37
330
1E
100
AcDbEntity
  8
0
100
AcDbLine
 10
55.8198636517157
 20
793.066988881749
 30
0.0
 11
55.8305
 21
792.9802849999999
 31
0.0
  0
LINE
  5
38
330
1E
100
AcDbEntity
  8
0
100
AcDbLine
 10
55.5175
 20
793.1602849999999
 30
0.0
 11
55.9515
 21
793.0642849999999
 31
0.0
  0
LINE
  5
39
330
1E
100
AcDbEntity
  8
0
100
AcDbLine
 10
55.8591181179836
 20
793.0001521232279
 30
0.0
 11
55.9195
 21
792.5682849999999
 31
0.0
  0
LINE
  5
3A
330
1E
100
AcDbEntity
  8
0
100
AcDbLine
 10
55.20350850567339
 20
792.957707349727
 30
0.0
 11
55.2545
 21
792.5912849999999
 31
0.0
  0
LINE
  5
3B
330
1E
100
AcDbEntity
  8
0
100
AcDbLine
 10
56.4468761066409
 20
793.522017306796
 30
0.0
 11
56.5835
 21
792.5442849999999
 31
0.0
  0
LINE
  5
3C
330
1E
100
AcDbEntity
  8
0
100
AcDbLine
 10
56.7685031696218
 20
793.2503116866589
 30
0.0
 11
56.86849999999999
 21
792.5342849999999
 31
0.0
  0
LINE
  5
3D
330
1E
100
AcDbEntity
  8
0
100
AcDbLine
 10
56.7685031696218
 20
793.2503116866589
 30
0.0
 11
60.3785
 21
793.1062849999999
 31
0.0
  0
LINE
  5
3E
330
1E
100
AcDbEntity
  8
0
100
AcDbLine
 10
54.9705
 20
792.601285
 30
0.0
 11
55.2545
 21
792.5912849999999
 31
0.0
  0
LINE
  5
3F
330
1E
100
AcDbEntity
  8
0
100
AcDbLine
 10
55.2545
 20
792.5912849999999
 30
0.0
 11
55.9195
 21
792.5682849999999
 31
0.0
  0
LINE
  5
40
330
1E
100
AcDbEntity
  8
0
100
AcDbLine
 10
54.0692749712002
 20
793.372439026508
 30
0.0
 11
54.1025
 21
793.101285
 31
0.0
  0
LINE
  5
41
330
1E
100
AcDbEntity
  8
0
100
AcDbLine
 10
49.2905
 20
793.6562849999999
 30
0.0
 11
49.9885
 21
793.517285
 31
0.0
  0
LINE
  5
42
330
1E
100
AcDbEntity
  8
0
100
AcDbLine
 10
49.2905
 20
793.6562849999999
 30
0.0
 11
49.325671556834
 21
794.443479975983
 31
0.0
  0
LINE
  5
43
330
1E
100
AcDbEntity
  8
0
100
AcDbLine
 10
49.5165
 20
793.5262849999999
 30
0.0
 11
50.1465
 21
793.426285
 31
0.0
  0
LINE
  5
44
330
1E
100
AcDbEntity
  8
0
100
AcDbLine
 10
49.5165
 20
793.5262849999999
 30
0.0
 11
49.52021276037379
 21
793.6105399087511
 31
0.0
  0
LINE
  5
45
330
1E
100
AcDbEntity
  8
0
100
AcDbLine
 10
48.8175
 20
793.6652849999999
 30
0.0
 11
49.5165
 21
793.5262849999999
 31
0.0
  0
LINE
  5
46
330
1E
100
AcDbEntity
  8
0
100
AcDbLine
 10
48.8175
 20
793.6652849999999
 30
0.0
 11
48.82042636255221
 21
793.7307816144929
 31
0.0
  0
LINE
  5
47
330
1E
100
AcDbEntity
  8
0
100
AcDbLine
 10
43.96749999999999
 20
795.243285
 30
0.0
 11
44.08942408252979
 21
795.737092812953
 31
0.0
  0
LINE
  5
48
330
1E
100
AcDbEntity
  8
0
100
AcDbLine
 10
43.96749999999999
 20
795.243285
 30
0.0
 11
44.08942408252979
 21
795.737092812953
 31
0.0
  0
LINE
  5
49
330
1E
100
AcDbEntity
  8
0
100
AcDbLine
 10
43.8515
 20
795.2422849999999
 30
0.0
 11
43.96749999999999
 21
795.243285
 31
0.0
  0
LINE
  5
4A
330
1E
100
AcDbEntity
  8
0
100
AcDbLine
 10
43.28249999999999
 20
795.4112849999999
 30
0.0
 11
43.8515
 21
795.2422849999999
 31
0.0
  0
LINE
  5
4B
330
1E
100
AcDbEntity
  8
0
100
AcDbLine
 10
43.28249999999999
 20
795.4112849999999
 30
0.0
 11
43.3054476301931
 21
795.5041682650669
 31
0.0
  0
LINE
  5
4C
330
1E
100
AcDbEntity
  8
0
100
AcDbLine
 10
44.05878859317589
 20
795.6130152420359
 30
0.0
 11
44.45949999999999
 21
795.452285
 31
0.0
  0
LINE
  5
4D
330
1E
100
AcDbEntity
  8
0
100
AcDbLine
 10
44.45949999999999
 20
795.452285
 30
0.0
 11
47.0953797753455
 21
794.7163884729819
 31
0.0
  0
LINE
  5
4E
330
1E
100
AcDbEntity
  8
0
100
AcDbLine
 10
43.5385
 20
795.4222849999999
 30
0.0
 11
43.96749999999999
 21
795.243285
 31
0.0
  0
LINE
  5
4F
330
1E
100
AcDbEntity
  8
0
100
AcDbLine
 10
43.5385
 20
795.4222849999999
 30
0.0
 11
43.6598496626319
 21
795.9137663403841
 31
0.0
  0
LINE
  5
50
330
1E
100
AcDbEntity
  8
0
100
AcDbLine
 10
50.37704449058939
 20
793.970629453851
 30
0.0
 11
54.0692749712002
 21
793.372439026508
 31
0.0
  0
LINE
  5
51
330
1E
100
AcDbEntity
  8
0
100
AcDbLine
 10
50.37704449058939
 20
793.970629453851
 30
0.0
 11
54.0692749712002
 21
793.372439026508
 31
0.0
  0
LINE
  5
52
330
1E
100
AcDbEntity
  8
0
100
AcDbLine
 10
54.0125408493861
 20
793.8354539922129
 30
0.0
 11
54.1025
 21
793.101285
 31
0.0
  0
LINE
  5
53
330
1E
100
AcDbEntity
  8
0
100
AcDbLine
 10
54.1443813101002
 20
793.832233562216
 30
0.0
 11
54.2235
 21
793.1872849999999
 31
0.0
  0
LINE
  5
54
330
1E
100
AcDbEntity
  8
0
100
AcDbLine
 10
54.72924390315821
 20
793.8179472875099
 30
0.0
 11
54.8035
 21
793.2122849999999
 31
0.0
  0
LINE
  5
55
330
1E
100
AcDbEntity
  8
0
100
AcDbLine
 10
55.43899409454478
 20
793.800610418428
 30
0.0
 11
55.5175
 21
793.1602849999999
 31
0.0
  0
LINE
  5
56
330
1E
100
AcDbEntity
  8
0
100
AcDbLine
 10
55.862017221852
 20
793.7902773510119
 30
0.0
 11
55.9515
 21
793.0642849999999
 31
0.0
  0
LINE
  5
57
330
1E
100
AcDbEntity
  8
0
100
AcDbLine
 10
48.8375
 20
794.182285
 30
0.0
 11
48.8755
 21
794.2732849999999
 31
0.0
  0
LINE
  5
58
330
1E
100
AcDbEntity
  8
0
100
AcDbLine
 10
48.8375
 20
794.182285
 30
0.0
 11
48.8444810736026
 21
794.27813170725
 31
0.0
  0
LINE
  5
59
330
1E
100
AcDbEntity
  8
0
100
AcDbLine
 10
52.8375
 20
794.347285
 30
0.0
 11
53.30449999999999
 21
794.4382849999999
 31
0.0
  0
LINE
  5
5A
330
1E
100
AcDbEntity
  8
0
100
AcDbLine
 10
52.11249999999999
 20
794.4052849999999
 30
0.0
 11
52.8375
 21
794.347285
 31
0.0
  0
LINE
  5
5B
330
1E
100
AcDbEntity
  8
0
100
AcDbLine
 10
48.8755
 20
794.2732849999999
 30
0.0
 11
48.9329772536457
 21
795.062419425054
 31
0.0
  0
LINE
  5
5C
330
1E
100
AcDbEntity
  8
0
100
AcDbLine
 10
47.5835
 20
794.3772849999999
 30
0.0
 11
48.3105
 21
794.2222849999999
 31
0.0
  0
LINE
  5
5D
330
1E
100
AcDbEntity
  8
0
100
AcDbLine
 10
47.5835
 20
794.3772849999999
 30
0.0
 11
47.59054858882119
 21
794.474058657997
 31
0.0
  0
LINE
  5
5E
330
1E
100
AcDbEntity
  8
0
100
AcDbLine
 10
47.1215
 20
794.6442849999999
 30
0.0
 11
47.6495
 21
794.604285
 31
0.0
  0
LINE
  5
5F
330
1E
100
AcDbEntity
  8
0
100
AcDbLine
 10
47.1215
 20
794.6442849999999
 30
0.0
 11
47.1870060880452
 21
795.5436513727529
 31
0.0
  0
LINE
  5
60
330
1E
100
AcDbEntity
  8
0
100
AcDbLine
 10
51.5421189246997
 20
794.7481939197079
 30
0.0
 11
51.5545
 21
794.5732849999999
 31
0.0
  0
LINE
  5
61
330
1E
100
AcDbEntity
  8
0
100
AcDbLine
 10
53.2575
 20
794.619285
 30
0.0
 11
53.30449999999999
 21
794.4382849999999
 31
0.0
  0
LINE
  5
62
330
1E
100
AcDbEntity
  8
0
100
AcDbLine
 10
51.5545
 20
794.5732849999999
 30
0.0
 11
52.11249999999999
 21
794.4052849999999
 31
0.0
  0
LINE
  5
63
330
1E
100
AcDbEntity
  8
0
100
AcDbLine
 10
51.5075
 20
794.7542849999999
 30
0.0
 11
51.97449999999999
 21
794.8462849999999
 31
0.0
  0
LINE
  5
64
330
1E
100
AcDbEntity
  8
0
100
AcDbLine
 10
51.5075
 20
794.7542849999999
 30
0.0
 11
51.5545
 21
794.5732849999999
 31
0.0
  0
LINE
  5
65
330
1E
100
AcDbEntity
  8
0
100
AcDbLine
 10
51.47103789387269
 20
795.269389499273
 30
0.0
 11
51.5075
 21
794.7542849999999
 31
0.0
  0
LINE
  5
66
330
1E
100
AcDbEntity
  8
0
100
AcDbLine
 10
51.943284001228
 20
795.2870125758819
 30
0.0
 11
51.97449999999999
 21
794.8462849999999
 31
0.0
  0
LINE
  5
67
330
1E
100
AcDbEntity
  8
0
100
AcDbLine
 10
53.2409561115182
 20
795.335438544158
 30
0.0
 11
53.30449999999999
 21
794.4382849999999
 31
0.0
  0
LINE
  5
68
330
1E
100
AcDbEntity
  8
0
100
AcDbLine
 10
53.20689643829921
 20
795.334167519959
 30
0.0
 11
53.2575
 21
794.619285
 31
0.0
  0
LINE
  5
69
330
1E
100
AcDbEntity
  8
0
100
AcDbLine
 10
52.66252015408179
 20
795.313852720511
 30
0.0
 11
52.6995
 21
794.787285
 31
0.0
  0
LINE
  5
6A
330
1E
100
AcDbEntity
  8
0
100
AcDbLine
 10
51.97449999999999
 20
794.8462849999999
 30
0.0
 11
52.6995
 21
794.787285
 31
0.0
  0
LINE
  5
6B
330
1E
100
AcDbEntity
  8
0
100
AcDbLine
 10
52.6995
 20
794.787285
 30
0.0
 11
53.2575
 21
794.619285
 31
0.0
  0
LINE
  5
6C
330
1E
100
AcDbEntity
  8
0
100
AcDbLine
 10
47.6495
 20
794.604285
 30
0.0
 11
48.3755
 21
794.4492849999999
 31
0.0
  0
LINE
  5
6D
330
1E
100
AcDbEntity
  8
0
100
AcDbLine
 10
47.6495
 20
794.604285
 30
0.0
 11
47.707005126563
 21
795.4003270412649
 31
0.0
  0
LINE
  5
6E
330
1E
100
AcDbEntity
  8
0
100
AcDbLine
 10
48.3755
 20
794.4492849999999
 30
0.0
 11
48.8755
 21
794.2732849999999
 31
0.0
  0
LINE
  5
6F
330
1E
100
AcDbEntity
  8
0
100
AcDbLine
 10
48.3755
 20
794.4492849999999
 30
0.0
 11
48.4302826093489
 21
795.2009742463129
 31
0.0
  0
LINE
  5
71
330
1E
100
AcDbEntity
  8
0
100
AcDbLine
 10
48.3105
 20
794.2222849999999
 30
0.0
 11
48.4742342307936
 21
794.2098573543989
 31
0.0
  0
LINE
  5
72
330
1E
100
AcDbEntity
  8
0
100
AcDbLine
 10
48.3105
 20
794.2222849999999
 30
0.0
 11
48.8375
 21
794.182285
 31
0.0
  0
LINE
  5
73
330
1E
100
AcDbEntity
  8
0
100
AcDbLine
 10
48.3105
 20
794.2222849999999
 30
0.0
 11
48.317719609433
 21
794.322225874383
 31
0.0
  0
LINE
  5
74
330
1E
100
AcDbEntity
  8
0
100
AcDbLine
 10
47.0835
 20
794.553285
 30
0.0
 11
47.5835
 21
794.3772849999999
 31
0.0
  0
LINE
  5
75
330
1E
100
AcDbEntity
  8
0
100
AcDbLine
 10
47.0835
 20
794.553285
 30
0.0
 11
47.0953797753455
 21
794.7163884729819
 31
0.0
  0
LINE
  5
76
330
1E
100
AcDbEntity
  8
0
100
AcDbLine
 10
47.0835
 20
794.553285
 30
0.0
 11
47.1215
 21
794.6442849999999
 31
0.0
  0
LINE
  5
77
330
1E
100
AcDbEntity
  8
0
100
AcDbLine
 10
47.0835
 20
794.553285
 30
0.0
 11
47.1334496603464
 21
795.239069271149
 31
0.0
  0
LINE
  5
78
330
1E
100
AcDbEntity
  8
0
100
AcDbLine
 10
48.4545
 20
793.7622849999999
 30
0.0
 11
48.8175
 21
793.6652849999999
 31
0.0
  0
LINE
  5
79
330
1E
100
AcDbEntity
  8
0
100
AcDbLine
 10
48.4545
 20
793.7622849999999
 30
0.0
 11
48.4742342307936
 21
794.2098573543989
 31
0.0
  0
LINE
  5
7A
330
1E
100
AcDbEntity
  8
0
100
AcDbLine
 10
48.4545
 20
793.7622849999999
 30
0.0
 11
48.6595
 21
793.7562849999999
 31
0.0
  0
LINE
  5
7B
330
1E
100
AcDbEntity
  8
0
100
AcDbLine
 10
63.6941
 20
793.6642849999999
 30
0.0
 11
63.75444790640109
 21
793.922478469277
 31
0.0
  0
LINE
  5
7C
330
1E
100
AcDbEntity
  8
0
100
AcDbLine
 10
63.74996843336449
 20
793.9033134186099
 30
0.0
 11
63.8154
 21
793.8872849999999
 31
0.0
  0
LINE
  5
7D
330
1E
100
AcDbEntity
  8
0
100
AcDbLine
 10
63.8154
 20
793.8872849999999
 30
0.0
 11
64.084
 21
793.9202849999999
 31
0.0
  0
LINE
  5
7E
330
1E
100
AcDbEntity
  8
0
100
AcDbLine
 10
64.60989999999999
 20
794.077285
 30
0.0
 11
65.94759999999999
 21
794.5522849999999
 31
0.0
  0
LINE
  5
7F
330
1E
100
AcDbEntity
  8
0
100
AcDbLine
 10
66.4627
 20
794.7602849999999
 30
0.0
 11
66.81999999999999
 21
794.9272849999999
 31
0.0
  0
LINE
  5
80
330
1E
100
AcDbEntity
  8
0
100
AcDbLine
 10
68.2636
 20
795.6022849999999
 30
0.0
 11
68.7171
 21
795.8712849999999
 31
0.0
  0
LINE
  5
81
330
1E
100
AcDbEntity
  8
0
100
AcDbLine
 10
66.81999999999999
 20
794.9272849999999
 30
0.0
 11
68.2636
 21
795.6022849999999
 31
0.0
  0
LINE
  5
82
330
1E
100
AcDbEntity
  8
0
100
AcDbLine
 10
65.94759999999999
 20
794.5522849999999
 30
0.0
 11
66.4627
 21
794.7602849999999
 31
0.0
  0
LINE
  5
83
330
1E
100
AcDbEntity
  8
0
100
AcDbLine
 10
64.67438710014889
 20
794.1047451662719
 30
0.0
 11
65.94759999999999
 21
794.5522849999999
 31
0.0
  0
LINE
  5
86
330
1E
100
AcDbEntity
  8
0
100
AcDbLine
 10
64.084
 20
793.9202849999999
 30
0.0
 11
64.60989999999999
 21
794.077285
 31
0.0
  0
LINE
  5
88
330
1E
100
AcDbEntity
  8
0
100
AcDbLine
 10
46.1495
 20
795.7342849999999
 30
0.0
 11
46.26839463278629
 21
796.6488157536129
 31
0.0
  0
LINE
  5
89
330
1E
100
AcDbEntity
  8
0
100
AcDbLine
 10
45.75249999999999
 20
795.6992849999999
 30
0.0
 11
46.1495
 21
795.7342849999999
 31
0.0
  0
LINE
  5
8A
330
1E
100
AcDbEntity
  8
0
100
AcDbLine
 10
45.75249999999999
 20
795.6992849999999
 30
0.0
 11
45.7714631479746
 21
795.844460420579
 31
0.0
  0
LINE
  5
8B
330
1E
100
AcDbEntity
  8
0
100
AcDbLine
 10
42.8355
 20
795.6692849999999
 30
0.0
 11
43.5385
 21
795.4222849999999
 31
0.0
  0
LINE
  5
8C
330
1E
100
AcDbEntity
  8
0
100
AcDbLine
 10
42.8355
 20
795.6692849999999
 30
0.0
 11
42.9913416805787
 21
796.300072754723
 31
0.0
  0
LINE
  5
8D
330
1E
100
AcDbEntity
  8
0
100
AcDbLine
 10
42.5795
 20
795.6562849999999
 30
0.0
 11
43.28249999999999
 21
795.4112849999999
 31
0.0
  0
LINE
  5
8E
330
1E
100
AcDbEntity
  8
0
100
AcDbLine
 10
42.5795
 20
795.6562849999999
 30
0.0
 11
42.59996952619929
 21
795.739240448282
 31
0.0
  0
LINE
  5
8F
330
1E
100
AcDbEntity
  8
0
100
AcDbLine
 10
45.0405
 20
795.846285
 30
0.0
 11
45.75249999999999
 21
795.6992849999999
 31
0.0
  0
LINE
  5
90
330
1E
100
AcDbEntity
  8
0
100
AcDbLine
 10
44.4345
 20
796.0822849999999
 30
0.0
 11
45.0405
 21
795.846285
 31
0.0
  0
LINE
  5
91
330
1E
100
AcDbEntity
  8
0
100
AcDbLine
 10
44.4345
 20
796.0822849999999
 30
0.0
 11
44.4534427362304
 21
796.2279914497729
 31
0.0
  0
LINE
  5
92
330
1E
100
AcDbEntity
  8
0
100
AcDbLine
 10
44.30449999999999
 20
796.2712849999999
 30
0.0
 11
44.7015
 21
796.306285
 31
0.0
  0
LINE
  5
93
330
1E
100
AcDbEntity
  8
0
100
AcDbLine
 10
44.30449999999999
 20
796.2712849999999
 30
0.0
 11
44.4345
 21
796.0822849999999
 31
0.0
  0
LINE
  5
94
330
1E
100
AcDbEntity
  8
0
100
AcDbLine
 10
44.30449999999999
 20
796.2712849999999
 30
0.0
 11
44.4259985367522
 21
797.2052690123798
 31
0.0
  0
LINE
  5
95
330
1E
100
AcDbEntity
  8
0
100
AcDbLine
 10
44.7015
 20
796.306285
 30
0.0
 11
45.4135
 21
796.1592849999999
 31
0.0
  0
LINE
  5
96
330
1E
100
AcDbEntity
  8
0
100
AcDbLine
 10
44.7015
 20
796.306285
 30
0.0
 11
44.8035488118911
 21
797.0912386573429
 31
0.0
  0
LINE
  5
97
330
1E
100
AcDbEntity
  8
0
100
AcDbLine
 10
46.0195
 20
795.9222849999999
 30
0.0
 11
46.1495
 21
795.7342849999999
 31
0.0
  0
LINE
  5
98
330
1E
100
AcDbEntity
  8
0
100
AcDbLine
 10
46.0195
 20
795.9222849999999
 30
0.0
 11
46.1197885464182
 21
796.6936987954349
 31
0.0
  0
LINE
  5
99
330
1E
100
AcDbEntity
  8
0
100
AcDbLine
 10
45.4135
 20
796.1592849999999
 30
0.0
 11
46.0195
 21
795.9222849999999
 31
0.0
  0
LINE
  5
9A
330
1E
100
AcDbEntity
  8
0
100
AcDbLine
 10
45.4135
 20
796.1592849999999
 30
0.0
 11
45.50703699835149
 21
796.87876627168
 31
0.0
  0
LINE
  5
9B
330
1E
100
AcDbEntity
  8
0
100
AcDbLine
 10
42.2665
 20
795.8382849999999
 30
0.0
 11
42.8355
 21
795.6692849999999
 31
0.0
  0
LINE
  5
9C
330
1E
100
AcDbEntity
  8
0
100
AcDbLine
 10
42.2665
 20
795.8382849999999
 30
0.0
 11
42.406527090571
 21
796.4050613189779
 31
0.0
  0
LINE
  5
9D
330
1E
100
AcDbEntity
  8
0
100
AcDbLine
 10
47.4875
 20
796.9212849999999
 30
0.0
 11
48.13649999999999
 21
796.7012849999999
 31
0.0
  0
LINE
  5
9E
330
1E
100
AcDbEntity
  8
0
100
AcDbLine
 10
48.13649999999999
 20
796.7012849999999
 30
0.0
 11
48.83449999999999
 21
796.6582849999999
 31
0.0
  0
LINE
  5
9F
330
1E
100
AcDbEntity
  8
0
100
AcDbLine
 10
49.1675
 20
796.826285
 30
0.0
 11
49.1865940831763
 21
797.8000832419939
 31
0.0
  0
LINE
  5
A0
330
1E
100
AcDbEntity
  8
0
100
AcDbLine
 10
48.83449999999999
 20
796.6582849999999
 30
0.0
 11
49.1675
 21
796.826285
 31
0.0
  0
LINE
  5
A1
330
1E
100
AcDbEntity
  8
0
100
AcDbLine
 10
42.1505
 20
795.836285
 30
0.0
 11
42.5795
 21
795.6562849999999
 31
0.0
  0
LINE
  5
A2
330
1E
100
AcDbEntity
  8
0
100
AcDbLine
 10
42.1505
 20
795.836285
 30
0.0
 11
42.2665
 21
795.8382849999999
 31
0.0
  0
LINE
  5
A3
330
1E
100
AcDbEntity
  8
0
100
AcDbLine
 10
42.1505
 20
795.836285
 30
0.0
 11
42.30180911636129
 21
796.448726661463
 31
0.0
  0
LINE
  5
A4
330
1E
100
AcDbEntity
  8
0
100
AcDbLine
 10
68.7171
 20
795.8712849999999
 30
0.0
 11
70.5557
 21
796.960285
 31
0.0
  0
LINE
  5
A8
330
1E
100
AcDbEntity
  8
0
100
AcDbLine
 10
85.06919269187809
 20
796.951173080565
 30
0.0
 11
88.4206
 21
794.2472849999999
 31
0.0
  0
LINE
  5
A9
330
1E
100
AcDbEntity
  8
0
100
AcDbLine
 10
38.74349999999999
 20
797.2132849999999
 30
0.0
 11
38.9243919276291
 21
797.7454398640201
 31
0.0
  0
LINE
  5
AA
330
1E
100
AcDbEntity
  8
0
100
AcDbLine
 10
38.5495
 20
797.2792849999999
 30
0.0
 11
38.74349999999999
 21
797.2132849999999
 31
0.0
  0
LINE
  5
AB
330
1E
100
AcDbEntity
  8
0
100
AcDbLine
 10
48.3125
 20
797.320285
 30
0.0
 11
48.9605
 21
797.1002849999999
 31
0.0
  0
LINE
  5
AC
330
1E
100
AcDbEntity
  8
0
100
AcDbLine
 10
48.3125
 20
797.320285
 30
0.0
 11
48.3199643678818
 21
797.7009677619741
 31
0.0
  0
LINE
  5
AD
330
1E
100
AcDbEntity
  8
0
100
AcDbLine
 10
47.2815
 20
797.195285
 30
0.0
 11
47.4875
 21
796.9212849999999
 31
0.0
  0
LINE
  5
AE
330
1E
100
AcDbEntity
  8
0
100
AcDbLine
 10
47.2815
 20
797.195285
 30
0.0
 11
47.6135
 21
797.363285
 31
0.0
  0
LINE
  5
AF
330
1E
100
AcDbEntity
  8
0
100
AcDbLine
 10
47.2815
 20
797.195285
 30
0.0
 11
47.28910843814339
 21
797.583069911828
 31
0.0
  0
LINE
  5
B0
330
1E
100
AcDbEntity
  8
0
100
AcDbLine
 10
48.9605
 20
797.1002849999999
 30
0.0
 11
49.1675
 21
796.826285
 31
0.0
  0
LINE
  5
B1
330
1E
100
AcDbEntity
  8
0
100
AcDbLine
 10
48.9605
 20
797.1002849999999
 30
0.0
 11
48.9737442125136
 21
797.7757398381959
 31
0.0
  0
LINE
  5
B2
330
1E
100
AcDbEntity
  8
0
100
AcDbLine
 10
70.5557
 20
796.960285
 30
0.0
 11
70.9656
 21
797.2882849999999
 31
0.0
  0
LINE
  5
B3
330
1E
100
AcDbEntity
  8
0
100
AcDbLine
 10
70.9656
 20
797.2882849999999
 30
0.0
 11
72.61490000000001
 21
798.604285
 31
0.0
  0
LINE
  5
B4
330
1E
100
AcDbEntity
  8
0
100
AcDbLine
 10
85.06919269187809
 20
796.951173080565
 30
0.0
 11
88.4206
 21
794.2472849999999
 31
0.0
  0
LINE
  5
B5
330
1E
100
AcDbEntity
  8
0
100
AcDbLine
 10
85.37119999999999
 20
796.735285
 30
0.0
 11
88.4206
 21
794.2472849999999
 31
0.0
  0
LINE
  5
B6
330
1E
100
AcDbEntity
  8
0
100
AcDbLine
 10
38.9025682816579
 20
797.681238218836
 30
0.0
 11
42.2723702780008
 21
796.3295694585749
 31
0.0
  0
LINE
  5
B7
330
1E
100
AcDbEntity
  8
0
100
AcDbLine
 10
37.9444999999999
 20
797.5192849999999
 30
0.0
 11
38.5495
 21
797.2792849999999
 31
0.0
  0
LINE
  5
B8
330
1E
100
AcDbEntity
  8
0
100
AcDbLine
 10
37.71949999999999
 20
797.6492849999999
 30
0.0
 11
38.3915
 21
797.3702849999999
 31
0.0
  0
LINE
  5
B9
330
1E
100
AcDbEntity
  8
0
100
AcDbLine
 10
37.71949999999999
 20
797.6492849999999
 30
0.0
 11
37.8903629447811
 21
798.153202218725
 31
0.0
  0
LINE
  5
BA
330
1E
100
AcDbEntity
  8
0
100
AcDbLine
 10
38.3915
 20
797.3702849999999
 30
0.0
 11
38.74349999999999
 21
797.2132849999999
 31
0.0
  0
LINE
  5
BB
330
1E
100
AcDbEntity
  8
0
100
AcDbLine
 10
38.3915
 20
797.3702849999999
 30
0.0
 11
38.56664892306969
 21
797.886513404837
 31
0.0
  0
LINE
  5
BC
330
1E
100
AcDbEntity
  8
0
100
AcDbLine
 10
47.6135
 20
797.363285
 30
0.0
 11
48.3125
 21
797.320285
 31
0.0
  0
LINE
  5
BD
330
1E
100
AcDbEntity
  8
0
100
AcDbLine
 10
47.6135
 20
797.363285
 30
0.0
 11
47.61854828592329
 21
797.6207475820869
 31
0.0
  0
LINE
  5
BF
330
1E
100
AcDbEntity
  8
0
100
AcDbLine
 10
39.8585
 20
797.547285
 30
0.0
 11
40.03554776000079
 21
798.0910245633229
 31
0.0
  0
LINE
  5
C0
330
1E
100
AcDbEntity
  8
0
100
AcDbLine
 10
39.5575
 20
797.5622849999999
 30
0.0
 11
39.8585
 21
797.547285
 31
0.0
  0
LINE
  5
C1
330
1E
100
AcDbEntity
  8
0
100
AcDbLine
 10
39.5575
 20
797.5622849999999
 30
0.0
 11
39.58806995027579
 21
797.65610937308
 31
0.0
  0
LINE
  5
C2
330
1E
100
AcDbEntity
  8
0
100
AcDbLine
 10
36.9195
 20
797.955285
 30
0.0
 11
37.1145
 21
797.8902849999999
 31
0.0
  0
LINE
  5
C3
330
1E
100
AcDbEntity
  8
0
100
AcDbLine
 10
36.9195
 20
797.955285
 30
0.0
 11
37.2725
 21
797.798285
 31
0.0
  0
LINE
  5
C4
330
1E
100
AcDbEntity
  8
0
100
AcDbLine
 10
36.9195
 20
797.955285
 30
0.0
 11
37.0939023100472
 21
798.468675665036
 31
0.0
  0
LINE
  5
C5
330
1E
100
AcDbEntity
  8
0
100
AcDbLine
 10
37.2725
 20
797.798285
 30
0.0
 11
37.9444999999999
 21
797.5192849999999
 31
0.0
  0
LINE
  5
C6
330
1E
100
AcDbEntity
  8
0
100
AcDbLine
 10
37.1145
 20
797.8902849999999
 30
0.0
 11
37.71949999999999
 21
797.6492849999999
 31
0.0
  0
LINE
  5
C7
330
1E
100
AcDbEntity
  8
0
100
AcDbLine
 10
37.1145
 20
797.8902849999999
 30
0.0
 11
37.28501634295
 21
798.3919165680029
 31
0.0
  0
LINE
  5
C8
330
1E
100
AcDbEntity
  8
0
100
AcDbLine
 10
38.3365
 20
798.267285
 30
0.0
 11
39.0035
 21
798.041285
 31
0.0
  0
LINE
  5
C9
330
1E
100
AcDbEntity
  8
0
100
AcDbLine
 10
38.3365
 20
798.267285
 30
0.0
 11
38.533875767157
 21
798.8730647754839
 31
0.0
  0
LINE
  5
CA
330
1E
100
AcDbEntity
  8
0
100
AcDbLine
 10
38.03549999999999
 20
798.2802849999999
 30
0.0
 11
38.25549999999999
 21
798.0852849999999
 31
0.0
  0
LINE
  5
CB
330
1E
100
AcDbEntity
  8
0
100
AcDbLine
 10
38.03549999999999
 20
798.2802849999999
 30
0.0
 11
38.3365
 21
798.267285
 31
0.0
  0
LINE
  5
CC
330
1E
100
AcDbEntity
  8
0
100
AcDbLine
 10
38.03549999999999
 20
798.2802849999999
 30
0.0
 11
38.21011704104629
 21
798.816904562899
 31
0.0
  0
LINE
  5
CD
330
1E
100
AcDbEntity
  8
0
100
AcDbLine
 10
38.25549999999999
 20
798.0852849999999
 30
0.0
 11
38.8905
 21
797.7872849999999
 31
0.0
  0
LINE
  5
CE
330
1E
100
AcDbEntity
  8
0
100
AcDbLine
 10
38.25549999999999
 20
798.0852849999999
 30
0.0
 11
38.28619870509529
 21
798.1795652128819
 31
0.0
  0
LINE
  5
CF
330
1E
100
AcDbEntity
  8
0
100
AcDbLine
 10
41.34749999999999
 20
797.9772849999999
 30
0.0
 11
42.00549999999999
 21
797.863285
 31
0.0
  0
LINE
  5
D0
330
1E
100
AcDbEntity
  8
0
100
AcDbLine
 10
42.25249999999999
 20
797.9842849999999
 30
0.0
 11
42.4591037668866
 21
798.9317283096871
 31
0.0
  0
LINE
  5
D1
330
1E
100
AcDbEntity
  8
0
100
AcDbLine
 10
42.00549999999999
 20
797.863285
 30
0.0
 11
42.25249999999999
 21
797.9842849999999
 31
0.0
  0
LINE
  5
D3
330
1E
100
AcDbEntity
  8
0
100
AcDbLine
 10
40.6745
 20
798.253285
 30
0.0
 11
41.34749999999999
 21
797.9772849999999
 31
0.0
  0
LINE
  5
D4
330
1E
100
AcDbEntity
  8
0
100
AcDbLine
 10
41.9665
 20
798.2622849999999
 30
0.0
 11
42.25249999999999
 21
797.9842849999999
 31
0.0
  0
LINE
  5
D5
330
1E
100
AcDbEntity
  8
0
100
AcDbLine
 10
41.9665
 20
798.2622849999999
 30
0.0
 11
42.134469672778
 21
799.0325601266451
 31
0.0
  0
LINE
  5
D6
330
1E
100
AcDbEntity
  8
0
100
AcDbLine
 10
39.0035
 20
798.041285
 30
0.0
 11
39.6385
 21
797.743285
 31
0.0
  0
LINE
  5
D7
330
1E
100
AcDbEntity
  8
0
100
AcDbLine
 10
39.0035
 20
798.041285
 30
0.0
 11
39.1571227148687
 21
798.513082823925
 31
0.0
  0
LINE
  5
D8
330
1E
100
AcDbEntity
  8
0
100
AcDbLine
 10
38.8905
 20
797.7872849999999
 30
0.0
 11
39.5575
 21
797.5622849999999
 31
0.0
  0
LINE
  5
D9
330
1E
100
AcDbEntity
  8
0
100
AcDbLine
 10
38.8905
 20
797.7872849999999
 30
0.0
 11
38.9329448851199
 21
797.9176394495579
 31
0.0
  0
LINE
  5
DA
330
1E
100
AcDbEntity
  8
0
100
AcDbLine
 10
39.6385
 20
797.743285
 30
0.0
 11
39.8585
 21
797.547285
 31
0.0
  0
LINE
  5
DB
330
1E
100
AcDbEntity
  8
0
100
AcDbLine
 10
39.6385
 20
797.743285
 30
0.0
 11
39.79187239643209
 21
798.214010951895
 31
0.0
  0
LINE
  5
DC
330
1E
100
AcDbEntity
  8
0
100
AcDbLine
 10
36.7505
 20
798.100285
 30
0.0
 11
36.9414028365305
 21
798.0197607045339
 31
0.0
  0
LINE
  5
DD
330
1E
100
AcDbEntity
  8
0
100
AcDbLine
 10
36.7505
 20
798.100285
 30
0.0
 11
36.91291670317999
 21
798.558406026905
 31
0.0
  0
LINE
  5
DE
330
1E
100
AcDbEntity
  8
0
100
AcDbLine
 10
33.1805
 20
800.114285
 30
0.0
 11
33.8355
 21
799.7832849999999
 31
0.0
  0
LINE
  5
DF
330
1E
100
AcDbEntity
  8
0
100
AcDbLine
 10
33.1805
 20
800.114285
 30
0.0
 11
33.2819691996345
 21
800.353213256014
 31
0.0
  0
LINE
  5
E0
330
1E
100
AcDbEntity
  8
0
100
AcDbLine
 10
33.8355
 20
799.7832849999999
 30
0.0
 11
34.4515
 21
799.5362849999999
 31
0.0
  0
LINE
  5
E1
330
1E
100
AcDbEntity
  8
0
100
AcDbLine
 10
33.8355
 20
799.7832849999999
 30
0.0
 11
33.94475404191519
 21
800.0398019002838
 31
0.0
  0
LINE
  5
E2
330
1E
100
AcDbEntity
  8
0
100
AcDbLine
 10
36.6225
 20
798.3912849999999
 30
0.0
 11
36.8488027867513
 21
798.9814396357389
 31
0.0
  0
LINE
  5
E3
330
1E
100
AcDbEntity
  8
0
100
AcDbLine
 10
36.7148463480377
 20
798.632106715766
 30
0.0
 11
37.08617755311989
 21
798.4459361835741
 31
0.0
  0
LINE
  5
E4
330
1E
100
AcDbEntity
  8
0
100
AcDbLine
 10
36.4775
 20
798.5212849999999
 30
0.0
 11
36.6225
 21
798.3912849999999
 31
0.0
  0
LINE
  5
E5
330
1E
100
AcDbEntity
  8
0
100
AcDbLine
 10
36.4775
 20
798.5212849999999
 30
0.0
 11
36.6809041316219
 21
799.0517242974049
 31
0.0
  0
LINE
  5
E6
330
1E
100
AcDbEntity
  8
0
100
AcDbLine
 10
36.2605
 20
798.4922849999999
 30
0.0
 11
36.6225
 21
798.3912849999999
 31
0.0
  0
LINE
  5
E7
330
1E
100
AcDbEntity
  8
0
100
AcDbLine
 10
36.2605
 20
798.4922849999999
 30
0.0
 11
36.2970727909334
 21
798.5878220865201
 31
0.0
  0
LINE
  5
E8
330
1E
100
AcDbEntity
  8
0
100
AcDbLine
 10
35.5825
 20
798.774285
 30
0.0
 11
36.2605
 21
798.4922849999999
 31
0.0
  0
LINE
  5
E9
330
1E
100
AcDbEntity
  8
0
100
AcDbLine
 10
35.5825
 20
798.774285
 30
0.0
 11
35.6118926569758
 21
798.851065818223
 31
0.0
  0
LINE
  5
EA
330
1E
100
AcDbEntity
  8
0
100
AcDbLine
 10
34.9915
 20
799.0692849999999
 30
0.0
 11
35.5825
 21
798.774285
 31
0.0
  0
LINE
  5
EB
330
1E
100
AcDbEntity
  8
0
100
AcDbLine
 10
34.9915
 20
799.0692849999999
 30
0.0
 11
35.0225175442008
 21
799.150310421586
 31
0.0
  0
LINE
  5
EC
330
1E
100
AcDbEntity
  8
0
100
AcDbLine
 10
34.8465
 20
799.1992849999999
 30
0.0
 11
35.2094999999999
 21
799.0982849999999
 31
0.0
  0
LINE
  5
ED
330
1E
100
AcDbEntity
  8
0
100
AcDbLine
 10
34.8465
 20
799.1992849999999
 30
0.0
 11
34.9915
 21
799.0692849999999
 31
0.0
  0
LINE
  5
EE
330
1E
100
AcDbEntity
  8
0
100
AcDbLine
 10
34.8465
 20
799.1992849999999
 30
0.0
 11
35.0663872511578
 21
799.7736843499631
 31
0.0
  0
LINE
  5
EF
330
1E
100
AcDbEntity
  8
0
100
AcDbLine
 10
35.2094999999999
 20
799.0982849999999
 30
0.0
 11
35.8875
 21
798.816285
 31
0.0
  0
LINE
  5
F0
330
1E
100
AcDbEntity
  8
0
100
AcDbLine
 10
35.2094999999999
 20
799.0982849999999
 30
0.0
 11
35.4221910614661
 21
799.6542478596491
 31
0.0
  0
LINE
  5
F1
330
1E
100
AcDbEntity
  8
0
100
AcDbLine
 10
35.8875
 20
798.816285
 30
0.0
 11
36.4775
 21
798.5212849999999
 31
0.0
  0
LINE
  5
F2
330
1E
100
AcDbEntity
  8
0
100
AcDbLine
 10
35.8875
 20
798.816285
 30
0.0
 11
36.1189037837706
 21
799.420374809673
 31
0.0
  0
LINE
  5
F3
330
1E
100
AcDbEntity
  8
0
100
AcDbLine
 10
41.29249999999999
 20
798.5382849999999
 30
0.0
 11
41.9665
 21
798.2622849999999
 31
0.0
  0
LINE
  5
F4
330
1E
100
AcDbEntity
  8
0
100
AcDbLine
 10
41.29249999999999
 20
798.5382849999999
 30
0.0
 11
41.44695001066179
 21
799.2461047234179
 31
0.0
  0
LINE
  5
F5
330
1E
100
AcDbEntity
  8
0
100
AcDbLine
 10
40.6355
 20
798.6532849999999
 30
0.0
 11
41.29249999999999
 21
798.5382849999999
 31
0.0
  0
LINE
  5
F6
330
1E
100
AcDbEntity
  8
0
100
AcDbLine
 10
40.6355
 20
798.6532849999999
 30
0.0
 11
40.808046609889
 21
799.4445490394321
 31
0.0
  0
LINE
  5
F7
330
1E
100
AcDbEntity
  8
0
100
AcDbLine
 10
40.3885
 20
798.532285
 30
0.0
 11
40.6745
 21
798.253285
 31
0.0
  0
LINE
  5
F8
330
1E
100
AcDbEntity
  8
0
100
AcDbLine
 10
40.3885
 20
798.532285
 30
0.0
 11
40.6355
 21
798.6532849999999
 31
0.0
  0
LINE
  5
F9
330
1E
100
AcDbEntity
  8
0
100
AcDbLine
 10
40.3885
 20
798.532285
 30
0.0
 11
40.50504875370299
 21
799.0664093180059
 31
0.0
  0
LINE
  5
FC
330
1E
100
AcDbEntity
  8
0
100
AcDbLine
 10
42.8995
 20
799.7252849999999
 30
0.0
 11
43.53349999999999
 21
799.7182849999999
 31
0.0
  0
LINE
  5
FD
330
1E
100
AcDbEntity
  8
0
100
AcDbLine
 10
43.53349999999999
 20
799.7182849999999
 30
0.0
 11
43.7195
 21
799.9722849999999
 31
0.0
  0
LINE
  5
FE
330
1E
100
AcDbEntity
  8
0
100
AcDbLine
 10
43.7195
 20
799.9722849999999
 30
0.0
 11
43.8865249183444
 21
801.0676403796781
 31
0.0
  0
LINE
  5
FF
330
1E
100
AcDbEntity
  8
0
100
AcDbLine
 10
42.19949999999999
 20
799.974285
 30
0.0
 11
42.8995
 21
799.7252849999999
 31
0.0
  0
LINE
  5
100
330
1E
100
AcDbEntity
  8
0
100
AcDbLine
 10
34.6555
 20
799.527285
 30
0.0
 11
34.70365998669339
 21
799.640434672325
 31
0.0
  0
LINE
  5
101
330
1E
100
AcDbEntity
  8
0
100
AcDbLine
 10
34.4515
 20
799.5362849999999
 30
0.0
 11
34.6555
 21
799.527285
 31
0.0
  0
LINE
  5
102
330
1E
100
AcDbEntity
  8
0
100
AcDbLine
 10
34.4515
 20
799.5362849999999
 30
0.0
 11
34.5322755395338
 21
799.726359941466
 31
0.0
  0
LINE
  5
103
330
1E
100
AcDbEntity
  8
0
100
AcDbLine
 10
36.2625
 20
798.335285
 30
0.0
 11
36.7505
 21
798.100285
 31
0.0
  0
LINE
  5
104
330
1E
100
AcDbEntity
  8
0
100
AcDbLine
 10
36.2625
 20
798.335285
 30
0.0
 11
36.31297073069129
 21
798.477645376244
 31
0.0
  0
LINE
  5
105
330
1E
100
AcDbEntity
  8
0
100
AcDbLine
 10
72.9619
 20
798.9952849999999
 30
0.0
 11
74.34000000000001
 21
800.5482849999999
 31
0.0
  0
LINE
  5
106
330
1E
100
AcDbEntity
  8
0
100
AcDbLine
 10
72.61490000000001
 20
798.604285
 30
0.0
 11
72.9619
 21
798.9952849999999
 31
0.0
  0
LINE
  5
109
330
1E
100
AcDbEntity
  8
0
100
AcDbLine
 10
41.8515
 20
800.3292849999999
 30
0.0
 11
42.19949999999999
 21
799.974285
 31
0.0
  0
LINE
  5
10A
330
1E
100
AcDbEntity
  8
0
100
AcDbLine
 10
41.8515
 20
800.3292849999999
 30
0.0
 11
42.0375
 21
800.5822849999999
 31
0.0
  0
LINE
  5
10B
330
1E
100
AcDbEntity
  8
0
100
AcDbLine
 10
41.8515
 20
800.3292849999999
 30
0.0
 11
41.87684909527489
 21
800.494786426484
 31
0.0
  0
LINE
  5
10C
330
1E
100
AcDbEntity
  8
0
100
AcDbLine
 10
43.3715
 20
800.327285
 30
0.0
 11
43.7195
 21
799.9722849999999
 31
0.0
  0
LINE
  5
10D
330
1E
100
AcDbEntity
  8
0
100
AcDbLine
 10
43.3715
 20
800.327285
 30
0.0
 11
43.4665614521677
 21
800.947930658819
 31
0.0
  0
LINE
  5
10E
330
1E
100
AcDbEntity
  8
0
100
AcDbLine
 10
30.9745
 20
801.3882849999999
 30
0.0
 11
31.6505
 21
801.044285
 31
0.0
  0
LINE
  5
10F
330
1E
100
AcDbEntity
  8
0
100
AcDbLine
 10
30.9745
 20
801.3882849999999
 30
0.0
 11
31.0154513395504
 21
801.473736019602
 31
0.0
  0
LINE
  5
110
330
1E
100
AcDbEntity
  8
0
100
AcDbLine
 10
31.6505
 20
801.044285
 30
0.0
 11
32.1655
 21
800.8552849999999
 31
0.0
  0
LINE
  5
111
330
1E
100
AcDbEntity
  8
0
100
AcDbLine
 10
31.6505
 20
801.044285
 30
0.0
 11
31.69122770419139
 21
801.129269371388
 31
0.0
  0
LINE
  5
112
330
1E
100
AcDbEntity
  8
0
100
AcDbLine
 10
32.187775580489
 20
800.9017979308509
 30
0.0
 11
34.96518412090249
 21
799.509316989297
 31
0.0
  0
LINE
  5
113
330
1E
100
AcDbEntity
  8
0
100
AcDbLine
 10
32.24670639931289
 20
801.024849498566
 30
0.0
 11
34.5105
 21
799.960285
 31
0.0
  0
LINE
  5
114
330
1E
100
AcDbEntity
  8
0
100
AcDbLine
 10
32.20149999999989
 20
800.9442849999999
 30
0.0
 11
32.5050364694923
 21
801.5776586842099
 31
0.0
  0
LINE
  5
115
330
1E
100
AcDbEntity
  8
0
100
AcDbLine
 10
32.1655
 20
800.8552849999999
 30
0.0
 11
32.20149999999989
 21
800.9442849999999
 31
0.0
  0
LINE
  5
116
330
1E
100
AcDbEntity
  8
0
100
AcDbLine
 10
32.1655
 20
800.8552849999999
 30
0.0
 11
32.3377142268165
 21
801.2148800474719
 31
0.0
  0
LINE
  5
117
330
1E
100
AcDbEntity
  8
0
100
AcDbLine
 10
31.7604999999999
 20
801.2452849999998
 30
0.0
 11
32.20149999999989
 21
800.9442849999999
 31
0.0
  0
LINE
  5
118
330
1E
100
AcDbEntity
  8
0
100
AcDbLine
 10
31.7604999999999
 20
801.2452849999998
 30
0.0
 11
32.0001315239656
 21
801.745311574866
 31
0.0
  0
LINE
  5
119
330
1E
100
AcDbEntity
  8
0
100
AcDbLine
 10
36.0815
 20
800.9052849999999
 30
0.0
 11
36.7805
 21
800.6152849999999
 31
0.0
  0
LINE
  5
11A
330
1E
100
AcDbEntity
  8
0
100
AcDbLine
 10
36.7805
 20
800.6152849999999
 30
0.0
 11
37.3465
 21
800.552285
 31
0.0
  0
LINE
  5
11B
330
1E
100
AcDbEntity
  8
0
100
AcDbLine
 10
42.67249999999999
 20
800.5762849999999
 30
0.0
 11
43.3715
 21
800.327285
 31
0.0
  0
LINE
  5
11C
330
1E
100
AcDbEntity
  8
0
100
AcDbLine
 10
42.67249999999999
 20
800.5762849999999
 30
0.0
 11
42.6957709447481
 21
800.7282184125999
 31
0.0
  0
LINE
  5
11D
330
1E
100
AcDbEntity
  8
0
100
AcDbLine
 10
42.0375
 20
800.5822849999999
 30
0.0
 11
42.67249999999999
 21
800.5762849999999
 31
0.0
  0
LINE
  5
11E
330
1E
100
AcDbEntity
  8
0
100
AcDbLine
 10
42.0375
 20
800.5822849999999
 30
0.0
 11
42.2625
 21
802.0512849999999
 31
0.0
  0
LINE
  5
11F
330
1E
100
AcDbEntity
  8
0
100
AcDbLine
 10
37.4335
 20
800.7662849999999
 30
0.0
 11
37.75805580285229
 21
801.7274441727471
 31
0.0
  0
LINE
  5
120
330
1E
100
AcDbEntity
  8
0
100
AcDbLine
 10
37.3465
 20
800.552285
 30
0.0
 11
37.4335
 21
800.7662849999999
 31
0.0
  0
LINE
  5
121
330
1E
100
AcDbEntity
  8
0
100
AcDbLine
 10
36.3165
 20
801.411285
 30
0.0
 11
37.0155
 21
801.1212849999999
 31
0.0
  0
LINE
  5
122
330
1E
100
AcDbEntity
  8
0
100
AcDbLine
 10
36.3165
 20
801.411285
 30
0.0
 11
36.547769885705
 21
802.096650726197
 31
0.0
  0
LINE
  5
123
330
1E
100
AcDbEntity
  8
0
100
AcDbLine
 10
35.7505
 20
801.4742850000001
 30
0.0
 11
36.3165
 21
801.411285
 31
0.0
  0
LINE
  5
124
330
1E
100
AcDbEntity
  8
0
100
AcDbLine
 10
35.7505
 20
801.4742850000001
 30
0.0
 11
36.0154851590746
 21
802.2590280674419
 31
0.0
  0
LINE
  5
125
330
1E
100
AcDbEntity
  8
0
100
AcDbLine
 10
35.66349999999999
 20
801.259285
 30
0.0
 11
36.0815
 21
800.9052849999999
 31
0.0
  0
LINE
  5
126
330
1E
100
AcDbEntity
  8
0
100
AcDbLine
 10
35.66349999999999
 20
801.259285
 30
0.0
 11
35.7505
 21
801.4742850000001
 31
0.0
  0
LINE
  5
127
330
1E
100
AcDbEntity
  8
0
100
AcDbLine
 10
35.66349999999999
 20
801.259285
 30
0.0
 11
35.8335907061836
 21
801.7633469102118
 31
0.0
  0
LINE
  5
128
330
1E
100
AcDbEntity
  8
0
100
AcDbLine
 10
37.0155
 20
801.1212849999999
 30
0.0
 11
37.4335
 21
800.7662849999999
 31
0.0
  0
LINE
  5
129
330
1E
100
AcDbEntity
  8
0
100
AcDbLine
 10
37.0155
 20
801.1212849999999
 30
0.0
 11
37.2704140416438
 21
801.876202851521
 31
0.0
  0
LINE
  5
12A
330
1E
100
AcDbEntity
  8
0
100
AcDbLine
 10
32.8765
 20
800.3372849999999
 30
0.0
 11
33.1805
 21
800.114285
 31
0.0
  0
LINE
  5
12B
330
1E
100
AcDbEntity
  8
0
100
AcDbLine
 10
32.8765
 20
800.3372849999999
 30
0.0
 11
32.95329641772
 21
800.5179965704469
 31
0.0
  0
LINE
  5
12C
330
1E
100
AcDbEntity
  8
0
100
AcDbLine
 10
74.41670000000001
 20
800.677285
 30
0.0
 11
74.7145
 21
801.1832849999999
 31
0.0
  0
LINE
  5
12D
330
1E
100
AcDbEntity
  8
0
100
AcDbLine
 10
74.34000000000001
 20
800.5482849999999
 30
0.0
 11
74.41670000000001
 21
800.677285
 31
0.0
  0
LINE
  5
12E
330
1E
100
AcDbEntity
  8
0
100
AcDbLine
 10
74.7244
 20
801.242285
 30
0.0
 11
74.76069999999999
 21
801.475285
 31
0.0
  0
LINE
  5
12F
330
1E
100
AcDbEntity
  8
0
100
AcDbLine
 10
74.7145
 20
801.1832849999999
 30
0.0
 11
74.7244
 21
801.242285
 31
0.0
  0
LINE
  5
131
330
1E
100
AcDbEntity
  8
0
100
AcDbLine
 10
-0.158500000000033
 20
835.105285
 30
0.0
 11
0.013499999999985
 21
833.125285
 31
0.0
  0
LINE
  5
132
330
1E
100
AcDbEntity
  8
0
100
AcDbLine
 10
-0.158500000000033
 20
835.105285
 30
0.0
 11
-0.129500000000039
 21
837.770285
 31
0.0
  0
LINE
  5
133
330
1E
100
AcDbEntity
  8
0
100
AcDbLine
 10
0.013499999999985
 20
833.125285
 30
0.0
 11
0.118499999999963
 21
832.5592849999999
 31
0.0
  0
LINE
  5
134
330
1E
100
AcDbEntity
  8
0
100
AcDbLine
 10
0.118499999999963
 20
832.5592849999999
 30
0.0
 11
0.381499999999982
 21
831.1602849999999
 31
0.0
  0
LINE
  5
135
330
1E
100
AcDbEntity
  8
0
100
AcDbLine
 10
-0.129500000000039
 20
837.770285
 30
0.0
 11
0.264499999999969
 21
840.3762849999999
 31
0.0
  0
LINE
  5
136
330
1E
100
AcDbEntity
  8
0
100
AcDbLine
 10
0.264499999999969
 20
840.3762849999999
 30
0.0
 11
1.08449999999999
 21
842.842285
 31
0.0
  0
LINE
  5
137
330
1E
100
AcDbEntity
  8
0
100
AcDbLine
 10
0.381499999999982
 20
831.1602849999999
 30
0.0
 11
0.4424999999999771
 21
830.9022849999999
 31
0.0
  0
LINE
  5
138
330
1E
100
AcDbEntity
  8
0
100
AcDbLine
 10
3.764499999999959
 20
822.319285
 30
0.0
 11
3.91549999999999
 21
822.0772849999999
 31
0.0
  0
LINE
  5
139
330
1E
100
AcDbEntity
  8
0
100
AcDbLine
 10
3.764499999999959
 20
822.319285
 30
0.0
 11
4.107429731894169
 21
822.458099922186
 31
0.0
  0
LINE
  5
13A
330
1E
100
AcDbEntity
  8
0
100
AcDbLine
 10
3.81349999999997
 20
823.0112849999999
 30
0.0
 11
4.081499999999969
 21
822.4962849999998
 31
0.0
  0
LINE
  5
13B
330
1E
100
AcDbEntity
  8
0
100
AcDbLine
 10
3.81349999999997
 20
823.0112849999999
 30
0.0
 11
3.826499999999939
 21
823.158285
 31
0.0
  0
LINE
  5
13C
330
1E
100
AcDbEntity
  8
0
100
AcDbLine
 10
3.81349999999997
 20
823.0112849999999
 30
0.0
 11
3.89453030784354
 21
823.045707649573
 31
0.0
  0
LINE
  5
13D
330
1E
100
AcDbEntity
  8
0
100
AcDbLine
 10
3.826499999999939
 20
823.158285
 30
0.0
 11
4.12649999999996
 21
822.831285
 31
0.0
  0
LINE
  5
13E
330
1E
100
AcDbEntity
  8
0
100
AcDbLine
 10
3.826499999999939
 20
823.158285
 30
0.0
 11
4.4991349339101
 21
823.4442075612481
 31
0.0
  0
LINE
  5
13F
330
1E
100
AcDbEntity
  8
0
100
AcDbLine
 10
3.41249999999999
 20
822.8832849999999
 30
0.0
 11
3.764499999999959
 21
822.319285
 31
0.0
  0
LINE
  5
140
330
1E
100
AcDbEntity
  8
0
100
AcDbLine
 10
3.41249999999999
 20
822.8832849999999
 30
0.0
 11
3.816634340784379
 21
823.0467271611779
 31
0.0
  0
LINE
  5
141
330
1E
100
AcDbEntity
  8
0
100
AcDbLine
 10
3.059499999999979
 20
823.4462849999999
 30
0.0
 11
3.41249999999999
 21
822.8832849999999
 31
0.0
  0
LINE
  5
142
330
1E
100
AcDbEntity
  8
0
100
AcDbLine
 10
3.059499999999979
 20
823.4462849999999
 30
0.0
 11
3.731131157923059
 21
823.7181553520089
 31
0.0
  0
LINE
  5
143
330
1E
100
AcDbEntity
  8
0
100
AcDbLine
 10
3.059499999999979
 20
823.4462849999999
 30
0.0
 11
3.731131157923059
 21
823.7181553520089
 31
0.0
  0
LINE
  5
144
330
1E
100
AcDbEntity
  8
0
100
AcDbLine
 10
1.649499999999969
 20
827.0132849999999
 30
0.0
 11
3.66827670661377
 21
823.817651156167
 31
0.0
  0
LINE
  5
145
330
1E
100
AcDbEntity
  8
0
100
AcDbLine
 10
1.649499999999969
 20
827.0132849999999
 30
0.0
 11
3.66827670661377
 21
823.817651156167
 31
0.0
  0
LINE
  5
146
330
1E
100
AcDbEntity
  8
0
100
AcDbLine
 10
2.909500000000009
 20
823.6882849999998
 30
0.0
 11
3.059499999999979
 21
823.4462849999999
 31
0.0
  0
LINE
  5
147
330
1E
100
AcDbEntity
  8
0
100
AcDbLine
 10
2.909500000000009
 20
823.6882849999998
 30
0.0
 11
3.57875501433875
 21
823.9593600181001
 31
0.0
  0
LINE
  5
148
330
1E
100
AcDbEntity
  8
0
100
AcDbLine
 10
2.909500000000009
 20
823.6882849999998
 30
0.0
 11
3.57875501433874
 21
823.9593600181001
 31
0.0
  0
LINE
  5
149
330
1E
100
AcDbEntity
  8
0
100
AcDbLine
 10
4.48349999999999
 20
821.9042849999999
 30
0.0
 11
4.78349999999996
 21
821.576285
 31
0.0
  0
LINE
  5
14A
330
1E
100
AcDbEntity
  8
0
100
AcDbLine
 10
4.48349999999999
 20
821.9042849999999
 30
0.0
 11
4.564146700228469
 21
821.938515605677
 31
0.0
  0
LINE
  5
14B
330
1E
100
AcDbEntity
  8
0
100
AcDbLine
 10
5.03398720026957
 20
821.682761690773
 30
0.0
 11
7.39858140177278
 21
818.7845209331179
 31
0.0
  0
LINE
  5
14C
330
1E
100
AcDbEntity
  8
0
100
AcDbLine
 10
5.03398720026957
 20
821.682761690773
 30
0.0
 11
7.39858140177278
 21
818.7845209331179
 31
0.0
  0
LINE
  5
14D
330
1E
100
AcDbEntity
  8
0
100
AcDbLine
 10
4.796499999999929
 20
821.7232849999998
 30
0.0
 11
5.394474883448999
 21
821.9774711887009
 31
0.0
  0
LINE
  5
14E
330
1E
100
AcDbEntity
  8
0
100
AcDbLine
 10
4.78349999999996
 20
821.576285
 30
0.0
 11
4.796499999999929
 21
821.7232849999998
 31
0.0
  0
LINE
  5
14F
330
1E
100
AcDbEntity
  8
0
100
AcDbLine
 10
4.78349999999996
 20
821.576285
 30
0.0
 11
5.463042805889901
 21
821.8651439482091
 31
0.0
  0
LINE
  5
150
330
1E
100
AcDbEntity
  8
0
100
AcDbLine
 10
4.78349999999996
 20
821.576285
 30
0.0
 11
5.463042805889901
 21
821.8651439482091
 31
0.0
  0
LINE
  5
151
330
1E
100
AcDbEntity
  8
0
100
AcDbLine
 10
4.081499999999969
 20
822.4962849999998
 30
0.0
 11
4.48349999999999
 21
821.9042849999999
 31
0.0
  0
LINE
  5
152
330
1E
100
AcDbEntity
  8
0
100
AcDbLine
 10
4.081499999999969
 20
822.4962849999998
 30
0.0
 11
4.17567230011754
 21
822.53625656563
 31
0.0
  0
LINE
  5
153
330
1E
100
AcDbEntity
  8
0
100
AcDbLine
 10
4.52849999999996
 20
822.238285
 30
0.0
 11
4.796499999999929
 21
821.7232849999998
 31
0.0
  0
LINE
  5
154
330
1E
100
AcDbEntity
  8
0
100
AcDbLine
 10
4.52849999999996
 20
822.238285
 30
0.0
 11
5.089656950134919
 21
822.476820681625
 31
0.0
  0
LINE
  5
155
330
1E
100
AcDbEntity
  8
0
100
AcDbLine
 10
4.12649999999996
 20
822.831285
 30
0.0
 11
4.52849999999996
 21
822.238285
 31
0.0
  0
LINE
  5
156
330
1E
100
AcDbEntity
  8
0
100
AcDbLine
 10
4.12649999999996
 20
822.831285
 30
0.0
 11
4.71960819611232
 21
823.0830306105129
 31
0.0
  0
LINE
  5
157
330
1E
100
AcDbEntity
  8
0
100
AcDbLine
 10
4.26888650632296
 20
822.2203327319819
 30
0.0
 11
4.48349999999999
 21
821.9042849999999
 31
0.0
  0
LINE
  5
158
330
1E
100
AcDbEntity
  8
0
100
AcDbLine
 10
3.91549999999999
 20
822.0772849999999
 30
0.0
 11
4.26888650632296
 21
822.2203327319819
 31
0.0
  0
LINE
  5
15C
330
1E
100
AcDbEntity
  8
0
100
AcDbLine
 10
0.474499999999979
 20
830.164285
 30
0.0
 11
0.6565061878249321
 21
830.3346891997568
 31
0.0
  0
LINE
  5
15D
330
1E
100
AcDbEntity
  8
0
100
AcDbLine
 10
0.474499999999979
 20
830.164285
 30
0.0
 11
1.649499999999969
 21
827.0132849999999
 31
0.0
  0
LINE
  5
15F
330
1E
100
AcDbEntity
  8
0
100
AcDbLine
 10
0.474499999999979
 20
830.164285
 30
0.0
 11
0.6565061878249321
 21
830.3346891997568
 31
0.0
  0
LINE
  5
160
330
1E
100
AcDbEntity
  8
0
100
AcDbLine
 10
0.508499999999951
 20
830.6262849999999
 30
0.0
 11
0.5594999999999631
 21
830.5062849999998
 31
0.0
  0
LINE
  5
161
330
1E
100
AcDbEntity
  8
0
100
AcDbLine
 10
0.5594999999999631
 20
830.5062849999998
 30
0.0
 11
0.613499999999983
 21
830.3772849999999
 31
0.0
  0
LINE
  5
163
330
1E
100
AcDbEntity
  8
0
100
AcDbLine
 10
0.4424999999999771
 20
830.9022849999999
 30
0.0
 11
0.508499999999951
 21
830.6262849999999
 31
0.0
  0
LINE
  5
165
330
1E
100
AcDbEntity
  8
0
100
AcDbLine
 10
6.339499999999969
 20
821.5532849999998
 30
0.0
 11
6.493499999999969
 21
821.104285
 31
0.0
  0
LINE
  5
166
330
1E
100
AcDbEntity
  8
0
100
AcDbLine
 10
6.339499999999969
 20
821.5532849999998
 30
0.0
 11
6.519499999999981
 21
821.604285
 31
0.0
  0
LINE
  5
167
330
1E
100
AcDbEntity
  8
0
100
AcDbLine
 10
6.339499999999969
 20
821.5532849999998
 30
0.0
 11
7.14812231489964
 21
821.9468288829499
 31
0.0
  0
LINE
  5
16C
330
1E
100
AcDbEntity
  8
0
100
AcDbLine
 10
1.08449999999999
 20
842.842285
 30
0.0
 11
1.44749999999998
 21
843.4832849999999
 31
0.0
  0
LINE
  5
16F
330
1E
100
AcDbEntity
  8
0
100
AcDbLine
 10
7.199499999999959
 20
818.2222849999998
 30
0.0
 11
7.669499999999949
 21
817.686285
 31
0.0
  0
LINE
  5
170
330
1E
100
AcDbEntity
  8
0
100
AcDbLine
 10
7.199499999999959
 20
818.2222849999998
 30
0.0
 11
7.79981243953313
 21
818.6052141048829
 31
0.0
  0
LINE
  5
171
330
1E
100
AcDbEntity
  8
0
100
AcDbLine
 10
6.493499999999969
 20
821.104285
 30
0.0
 11
6.90749999999997
 21
820.5052849999999
 31
0.0
  0
LINE
  5
172
330
1E
100
AcDbEntity
  8
0
100
AcDbLine
 10
6.90749999999997
 20
820.5052849999999
 30
0.0
 11
7.331499999999929
 21
820.1052849999999
 31
0.0
  0
LINE
  5
173
330
1E
100
AcDbEntity
  8
0
100
AcDbLine
 10
6.519499999999981
 20
821.604285
 30
0.0
 11
6.94349999999999
 21
821.2042849999999
 31
0.0
  0
LINE
  5
174
330
1E
100
AcDbEntity
  8
0
100
AcDbLine
 10
6.519499999999981
 20
821.604285
 30
0.0
 11
7.163511704861799
 21
821.9177154635511
 31
0.0
  0
LINE
  5
175
330
1E
100
AcDbEntity
  8
0
100
AcDbLine
 10
7.331499999999929
 20
820.1052849999999
 30
0.0
 11
7.512499999999969
 21
820.1562849999998
 31
0.0
  0
LINE
  5
176
330
1E
100
AcDbEntity
  8
0
100
AcDbLine
 10
7.35749999999994
 20
820.605285
 30
0.0
 11
7.512499999999969
 21
820.1562849999998
 31
0.0
  0
LINE
  5
177
330
1E
100
AcDbEntity
  8
0
100
AcDbLine
 10
7.35749999999994
 20
820.605285
 30
0.0
 11
7.75500194793591
 21
820.798743005287
 31
0.0
  0
LINE
  5
178
330
1E
100
AcDbEntity
  8
0
100
AcDbLine
 10
6.94349999999999
 20
821.2042849999999
 30
0.0
 11
7.35749999999994
 21
820.605285
 31
0.0
  0
LINE
  5
179
330
1E
100
AcDbEntity
  8
0
100
AcDbLine
 10
6.94349999999999
 20
821.2042849999999
 30
0.0
 11
7.418446307279449
 21
821.4354339684559
 31
0.0
  0
LINE
  5
17A
330
1E
100
AcDbEntity
  8
0
100
AcDbLine
 10
6.93449999999997
 20
818.4882850000001
 30
0.0
 11
7.041499999999969
 21
818.3132849999999
 31
0.0
  0
LINE
  5
17B
330
1E
100
AcDbEntity
  8
0
100
AcDbLine
 10
6.93449999999997
 20
818.4882850000001
 30
0.0
 11
7.199499999999959
 21
818.2222849999998
 31
0.0
  0
LINE
  5
17C
330
1E
100
AcDbEntity
  8
0
100
AcDbLine
 10
6.93449999999997
 20
818.4882850000001
 30
0.0
 11
7.5515711708638
 21
818.8821785139451
 31
0.0
  0
LINE
  5
17D
330
1E
100
AcDbEntity
  8
0
100
AcDbLine
 10
7.041499999999969
 20
818.3132849999999
 30
0.0
 11
7.44349999999999
 21
817.8162849999999
 31
0.0
  0
LINE
  5
17E
330
1E
100
AcDbEntity
  8
0
100
AcDbLine
 10
7.512499999999969
 20
820.1562849999998
 30
0.0
 11
7.975495029557269
 21
820.3816174677811
 31
0.0
  0
LINE
  5
17F
330
1E
100
AcDbEntity
  8
0
100
AcDbLine
 10
7.669499999999949
 20
817.686285
 30
0.0
 11
8.071499999999939
 21
817.190285
 31
0.0
  0
LINE
  5
180
330
1E
100
AcDbEntity
  8
0
100
AcDbLine
 10
7.669499999999949
 20
817.686285
 30
0.0
 11
8.276042874193549
 21
818.0738806903379
 31
0.0
  0
LINE
  5
181
330
1E
100
AcDbEntity
  8
0
100
AcDbLine
 10
7.44349999999999
 20
817.8162849999999
 30
0.0
 11
7.913499999999981
 21
817.2812849999999
 31
0.0
  0
LINE
  5
182
330
1E
100
AcDbEntity
  8
0
100
AcDbLine
 10
7.44349999999999
 20
817.8162849999999
 30
0.0
 11
7.486461154830549
 21
817.843689190686
 31
0.0
  0
LINE
  5
183
330
1E
100
AcDbEntity
  8
0
100
AcDbLine
 10
7.913499999999981
 20
817.2812849999999
 30
0.0
 11
8.178499999999941
 21
817.0142849999999
 31
0.0
  0
LINE
  5
184
330
1E
100
AcDbEntity
  8
0
100
AcDbLine
 10
7.913499999999981
 20
817.2812849999999
 30
0.0
 11
7.969000965388558
 21
817.3167514705649
 31
0.0
  0
LINE
  5
185
330
1E
100
AcDbEntity
  8
0
100
AcDbLine
 10
8.178499999999941
 20
817.0142849999999
 30
0.0
 11
8.556882629107949
 21
817.2556488497651
 31
0.0
  0
LINE
  5
186
330
1E
100
AcDbEntity
  8
0
100
AcDbLine
 10
8.350499999999939
 20
817.557285
 30
0.0
 11
8.64949999999998
 21
817.120285
 31
0.0
  0
LINE
  5
187
330
1E
100
AcDbEntity
  8
0
100
AcDbLine
 10
8.350499999999939
 20
817.557285
 30
0.0
 11
8.411499999999991
 21
817.6352849999998
 31
0.0
  0
LINE
  5
188
330
1E
100
AcDbEntity
  8
0
100
AcDbLine
 10
8.350499999999939
 20
817.557285
 30
0.0
 11
8.43057916163501
 21
817.611612085915
 31
0.0
  0
LINE
  5
189
330
1E
100
AcDbEntity
  8
0
100
AcDbLine
 10
8.411499999999991
 20
817.6352849999998
 30
0.0
 11
8.813499999999947
 21
817.289285
 31
0.0
  0
LINE
  5
18A
330
1E
100
AcDbEntity
  8
0
100
AcDbLine
 10
8.411499999999991
 20
817.6352849999998
 30
0.0
 11
9.043624508370429
 21
818.0644379239689
 31
0.0
  0
LINE
  5
18B
330
1E
100
AcDbEntity
  8
0
100
AcDbLine
 10
8.071499999999939
 20
817.190285
 30
0.0
 11
8.178499999999941
 21
817.0142849999999
 31
0.0
  0
LINE
  5
18C
330
1E
100
AcDbEntity
  8
0
100
AcDbLine
 10
8.071499999999939
 20
817.190285
 30
0.0
 11
8.440461274347079
 21
817.4258031374929
 31
0.0
  0
LINE
  5
18D
330
1E
100
AcDbEntity
  8
0
100
AcDbLine
 10
8.813499999999947
 20
817.289285
 30
0.0
 11
9.310499999999938
 21
816.739285
 31
0.0
  0
LINE
  5
18E
330
1E
100
AcDbEntity
  8
0
100
AcDbLine
 10
8.813499999999947
 20
817.289285
 30
0.0
 11
9.412645585253811
 21
817.6964796958099
 31
0.0
  0
LINE
  5
18F
330
1E
100
AcDbEntity
  8
0
100
AcDbLine
 10
8.556882629107949
 20
817.2556488497651
 30
0.0
 11
8.64949999999998
 21
817.120285
 31
0.0
  0
LINE
  5
190
330
1E
100
AcDbEntity
  8
0
100
AcDbLine
 10
8.64949999999998
 20
817.120285
 30
0.0
 11
9.147499999999981
 21
816.5682849999999
 31
0.0
  0
LINE
  5
191
330
1E
100
AcDbEntity
  8
0
100
AcDbLine
 10
8.64949999999998
 20
817.120285
 30
0.0
 11
8.732442733860001
 21
817.1765547827549
 31
0.0
  0
LINE
  5
192
330
1E
100
AcDbEntity
  8
0
100
AcDbLine
 10
11.6405
 20
814.4002849999999
 30
0.0
 11
11.979644673367
 21
814.133912029518
 31
0.0
  0
LINE
  5
193
330
1E
100
AcDbEntity
  8
0
100
AcDbLine
 10
11.6405
 20
814.4002849999999
 30
0.0
 11
12.0253819630753
 21
814.177894594183
 31
0.0
  0
LINE
  5
194
330
1E
100
AcDbEntity
  8
0
100
AcDbLine
 10
11.20749999999999
 20
815.6442849999999
 30
0.0
 11
11.6904999999999
 21
815.1002849999999
 31
0.0
  0
LINE
  5
195
330
1E
100
AcDbEntity
  8
0
100
AcDbLine
 10
11.6904999999999
 20
815.1002849999999
 30
0.0
 11
12.1985
 21
814.6932849999998
 31
0.0
  0
LINE
  5
196
330
1E
100
AcDbEntity
  8
0
100
AcDbLine
 10
11.0305
 20
816.083285
 30
0.0
 11
11.0937456392368
 21
816.0467620503089
 31
0.0
  0
LINE
  5
197
330
1E
100
AcDbEntity
  8
0
100
AcDbLine
 10
9.846837644502439
 20
816.425149217974
 30
0.0
 11
12.0716663054313
 21
814.222403223655
 31
0.0
  0
LINE
  5
198
330
1E
100
AcDbEntity
  8
0
100
AcDbLine
 10
10.0890415399263
 20
816.6266142605399
 30
0.0
 11
11.0305
 21
816.083285
 31
0.0
  0
LINE
  5
199
330
1E
100
AcDbEntity
  8
0
100
AcDbLine
 10
9.68520192543267
 20
816.3154138089868
 30
0.0
 11
11.6405
 21
814.4002849999999
 31
0.0
  0
LINE
  5
19A
330
1E
100
AcDbEntity
  8
0
100
AcDbLine
 10
9.609499999999981
 20
816.3012849999999
 30
0.0
 11
10.32503609349959
 21
816.78671704041
 31
0.0
  0
LINE
  5
19B
330
1E
100
AcDbEntity
  8
0
100
AcDbLine
 10
9.549499999999969
 20
816.2232849999998
 30
0.0
 11
9.609499999999981
 21
816.3012849999999
 31
0.0
  0
LINE
  5
19C
330
1E
100
AcDbEntity
  8
0
100
AcDbLine
 10
9.549499999999969
 20
816.2232849999998
 30
0.0
 11
10.1185246986456
 21
816.609599104264
 31
0.0
  0
LINE
  5
19D
330
1E
100
AcDbEntity
  8
0
100
AcDbLine
 10
10.81649999999999
 20
819.1222849999999
 30
0.0
 11
11.3314999999999
 21
818.6702849999999
 31
0.0
  0
LINE
  5
19E
330
1E
100
AcDbEntity
  8
0
100
AcDbLine
 10
10.81649999999999
 20
819.1222849999999
 30
0.0
 11
11.3956329123627
 21
819.471732259528
 31
0.0
  0
LINE
  5
19F
330
1E
100
AcDbEntity
  8
0
100
AcDbLine
 10
10.88349999999999
 20
818.209285
 30
0.0
 11
11.3975
 21
817.7572849999998
 31
0.0
  0
LINE
  5
1A0
330
1E
100
AcDbEntity
  8
0
100
AcDbLine
 10
10.49649999999999
 20
818.7922849999999
 30
0.0
 11
10.88349999999999
 21
818.209285
 31
0.0
  0
LINE
  5
1A1
330
1E
100
AcDbEntity
  8
0
100
AcDbLine
 10
10.47649999999989
 20
819.1642849999999
 30
0.0
 11
10.81649999999999
 21
819.1222849999999
 31
0.0
  0
LINE
  5
1A2
330
1E
100
AcDbEntity
  8
0
100
AcDbLine
 10
10.47649999999989
 20
819.1642849999999
 30
0.0
 11
10.49649999999999
 21
818.7922849999999
 31
0.0
  0
LINE
  5
1A3
330
1E
100
AcDbEntity
  8
0
100
AcDbLine
 10
10.47649999999989
 20
819.1642849999999
 30
0.0
 11
11.3104149438471
 21
819.668082949828
 31
0.0
  0
LINE
  5
1A4
330
1E
100
AcDbEntity
  8
0
100
AcDbLine
 10
9.310499999999938
 20
816.739285
 30
0.0
 11
9.609499999999981
 21
816.3012849999999
 31
0.0
  0
LINE
  5
1A5
330
1E
100
AcDbEntity
  8
0
100
AcDbLine
 10
9.310499999999938
 20
816.739285
 30
0.0
 11
9.9428351549783
 21
817.167817169777
 31
0.0
  0
LINE
  5
1A6
330
1E
100
AcDbEntity
  8
0
100
AcDbLine
 10
9.310499999999938
 20
816.739285
 30
0.0
 11
9.9428351549783
 21
817.167817169777
 31
0.0
  0
LINE
  5
1A7
330
1E
100
AcDbEntity
  8
0
100
AcDbLine
 10
11.3314999999999
 20
818.6702849999999
 30
0.0
 11
11.7185
 21
818.087285
 31
0.0
  0
LINE
  5
1A8
330
1E
100
AcDbEntity
  8
0
100
AcDbLine
 10
11.3314999999999
 20
818.6702849999999
 30
0.0
 11
11.6578889288493
 21
818.867468267207
 31
0.0
  0
LINE
  5
1A9
330
1E
100
AcDbEntity
  8
0
100
AcDbLine
 10
11.3975
 20
817.7572849999998
 30
0.0
 11
11.7384999999999
 21
817.715285
 31
0.0
  0
LINE
  5
1AA
330
1E
100
AcDbEntity
  8
0
100
AcDbLine
 10
11.03949999999999
 20
816.0052849999999
 30
0.0
 11
11.20749999999999
 21
815.6442849999999
 31
0.0
  0
LINE
  5
1AB
330
1E
100
AcDbEntity
  8
0
100
AcDbLine
 10
11.03949999999999
 20
816.0052849999999
 30
0.0
 11
11.2674999999999
 21
815.9862849999999
 31
0.0
  0
LINE
  5
1AC
330
1E
100
AcDbEntity
  8
0
100
AcDbLine
 10
11.03949999999999
 20
816.0052849999999
 30
0.0
 11
11.77166595301399
 21
816.565110351766
 31
0.0
  0
LINE
  5
1AD
330
1E
100
AcDbEntity
  8
0
100
AcDbLine
 10
11.2674999999999
 20
815.9862849999999
 30
0.0
 11
11.77549999999999
 21
815.580285
 31
0.0
  0
LINE
  5
1AE
330
1E
100
AcDbEntity
  8
0
100
AcDbLine
 10
11.2674999999999
 20
815.9862849999999
 30
0.0
 11
11.8848818365244
 21
816.4588195594941
 31
0.0
  0
LINE
  5
1AF
330
1E
100
AcDbEntity
  8
0
100
AcDbLine
 10
9.147499999999981
 20
816.5682849999999
 30
0.0
 11
9.549499999999969
 21
816.2232849999998
 31
0.0
  0
LINE
  5
1B0
330
1E
100
AcDbEntity
  8
0
100
AcDbLine
 10
9.147499999999981
 20
816.5682849999999
 30
0.0
 11
9.227582768140051
 21
816.622711301745
 31
0.0
  0
LINE
  5
1B4
330
1E
100
AcDbEntity
  8
0
100
AcDbLine
 10
12.1925
 20
813.3602849999999
 30
0.0
 11
12.75749999999989
 21
812.8752849999999
 31
0.0
  0
LINE
  5
1B5
330
1E
100
AcDbEntity
  8
0
100
AcDbLine
 10
12.1925
 20
813.3602849999999
 30
0.0
 11
12.24501646249759
 21
813.4107883314349
 31
0.0
  0
LINE
  5
1B6
330
1E
100
AcDbEntity
  8
0
100
AcDbLine
 10
12.6395
 20
813.1022849999999
 30
0.0
 11
13.0704999999999
 21
812.6942849999998
 31
0.0
  0
LINE
  5
1B7
330
1E
100
AcDbEntity
  8
0
100
AcDbLine
 10
12.6395
 20
813.1022849999999
 30
0.0
 11
13.1078667180814
 21
813.5526976605548
 31
0.0
  0
LINE
  5
1B8
330
1E
100
AcDbEntity
  8
0
100
AcDbLine
 10
12.0745
 20
813.5882849999999
 30
0.0
 11
12.6395
 21
813.1022849999999
 31
0.0
  0
LINE
  5
1B9
330
1E
100
AcDbEntity
  8
0
100
AcDbLine
 10
12.0745
 20
813.5882849999999
 30
0.0
 11
12.4392951674177
 21
813.9387923566941
 31
0.0
  0
LINE
  5
1BA
330
1E
100
AcDbEntity
  8
0
100
AcDbLine
 10
12.1985
 20
814.6932849999998
 30
0.0
 11
12.4265
 21
814.6752849999998
 31
0.0
  0
LINE
  5
1BB
330
1E
100
AcDbEntity
  8
0
100
AcDbLine
 10
12.4265
 20
814.6752849999998
 30
0.0
 11
12.8746777651223
 21
815.0183133663819
 31
0.0
  0
LINE
  5
1BC
330
1E
100
AcDbEntity
  8
0
100
AcDbLine
 10
12.2585
 20
815.037285
 30
0.0
 11
12.4265
 21
814.6752849999998
 31
0.0
  0
LINE
  5
1BD
330
1E
100
AcDbEntity
  8
0
100
AcDbLine
 10
12.2585
 20
815.037285
 30
0.0
 11
12.88708942088059
 21
815.517914141812
 31
0.0
  0
LINE
  5
1BE
330
1E
100
AcDbEntity
  8
0
100
AcDbLine
 10
11.7384999999999
 20
817.715285
 30
0.0
 11
12.0708474169771
 21
817.9159707647229
 31
0.0
  0
LINE
  5
1BF
330
1E
100
AcDbEntity
  8
0
100
AcDbLine
 10
11.7185
 20
818.087285
 30
0.0
 11
11.7384999999999
 21
817.715285
 31
0.0
  0
LINE
  5
1C0
330
1E
100
AcDbEntity
  8
0
100
AcDbLine
 10
11.7185
 20
818.087285
 30
0.0
 11
11.9387688744801
 21
818.220292886512
 31
0.0
  0
LINE
  5
1C1
330
1E
100
AcDbEntity
  8
0
100
AcDbLine
 10
11.77549999999999
 20
815.580285
 30
0.0
 11
12.2585
 21
815.037285
 31
0.0
  0
LINE
  5
1C2
330
1E
100
AcDbEntity
  8
0
100
AcDbLine
 10
11.77549999999999
 20
815.580285
 30
0.0
 11
12.3515232649909
 21
816.020721250309
 31
0.0
  0
LINE
  5
1C3
330
1E
100
AcDbEntity
  8
0
100
AcDbLine
 10
11.7055
 20
813.8702849999999
 30
0.0
 11
11.7614999999999
 21
813.769285
 31
0.0
  0
LINE
  5
1C4
330
1E
100
AcDbEntity
  8
0
100
AcDbLine
 10
11.7055
 20
813.8702849999999
 30
0.0
 11
11.979644673367
 21
814.133912029518
 31
0.0
  0
LINE
  5
1C5
330
1E
100
AcDbEntity
  8
0
100
AcDbLine
 10
11.7055
 20
813.8702849999999
 30
0.0
 11
12.0745
 21
813.5882849999999
 31
0.0
  0
LINE
  5
1C6
330
1E
100
AcDbEntity
  8
0
100
AcDbLine
 10
11.7055
 20
813.8702849999999
 30
0.0
 11
12.0716663054313
 21
814.222403223655
 31
0.0
  0
LINE
  5
1C7
330
1E
100
AcDbEntity
  8
0
100
AcDbLine
 10
11.7614999999999
 20
813.769285
 30
0.0
 11
12.1925
 21
813.3602849999999
 31
0.0
  0
LINE
  5
1C8
330
1E
100
AcDbEntity
  8
0
100
AcDbLine
 10
20.4145
 20
807.7952849999999
 30
0.0
 11
21.02949999999999
 21
807.393285
 31
0.0
  0
LINE
  5
1C9
330
1E
100
AcDbEntity
  8
0
100
AcDbLine
 10
20.4145
 20
807.7952849999999
 30
0.0
 11
20.7668754483752
 21
808.2636865106449
 31
0.0
  0
LINE
  5
1CA
330
1E
100
AcDbEntity
  8
0
100
AcDbLine
 10
20.18149999999999
 20
807.7742849999999
 30
0.0
 11
20.70249999999989
 21
807.365285
 31
0.0
  0
LINE
  5
1CB
330
1E
100
AcDbEntity
  8
0
100
AcDbLine
 10
20.18149999999999
 20
807.7742849999999
 30
0.0
 11
20.2277833705815
 21
807.835855052938
 31
0.0
  0
LINE
  5
1CC
330
1E
100
AcDbEntity
  8
0
100
AcDbLine
 10
20.07049999999989
 20
807.9482849999999
 30
0.0
 11
20.4145
 21
807.7952849999999
 31
0.0
  0
LINE
  5
1CD
330
1E
100
AcDbEntity
  8
0
100
AcDbLine
 10
20.07049999999989
 20
807.9482849999999
 30
0.0
 11
20.18149999999999
 21
807.7742849999999
 31
0.0
  0
LINE
  5
1CE
330
1E
100
AcDbEntity
  8
0
100
AcDbLine
 10
20.07049999999989
 20
807.9482849999999
 30
0.0
 11
20.4776840834916
 21
808.4891280865079
 31
0.0
  0
LINE
  5
1CF
330
1E
100
AcDbEntity
  8
0
100
AcDbLine
 10
19.6915
 20
807.9482849999999
 30
0.0
 11
19.9005184816006
 21
808.206330017343
 31
0.0
  0
LINE
  5
1D0
330
1E
100
AcDbEntity
  8
0
100
AcDbLine
 10
18.2505
 20
808.7812849999998
 30
0.0
 11
18.6113810488108
 21
809.203714261236
 31
0.0
  0
LINE
  5
1D1
330
1E
100
AcDbEntity
  8
0
100
AcDbLine
 10
18.2355
 20
808.743285
 30
0.0
 11
18.6137058696149
 21
809.1867596064419
 31
0.0
  0
LINE
  5
1D2
330
1E
100
AcDbEntity
  8
0
100
AcDbLine
 10
17.7875
 20
809.0482849999999
 30
0.0
 11
18.2355
 21
808.743285
 31
0.0
  0
LINE
  5
1D3
330
1E
100
AcDbEntity
  8
0
100
AcDbLine
 10
17.7875
 20
809.0482849999999
 30
0.0
 11
17.8235282520218
 21
809.0904914424902
 31
0.0
  0
LINE
  5
1D4
330
1E
100
AcDbEntity
  8
0
100
AcDbLine
 10
17.8455
 20
809.124285
 30
0.0
 11
18.2505
 21
808.7812849999998
 31
0.0
  0
LINE
  5
1D5
330
1E
100
AcDbEntity
  8
0
100
AcDbLine
 10
17.8455
 20
809.124285
 30
0.0
 11
18.2012356568657
 21
809.5403597897169
 31
0.0
  0
LINE
  5
1D6
330
1E
100
AcDbEntity
  8
0
100
AcDbLine
 10
18.54120913427319
 20
809.10175177405
 30
0.0
 11
20.1440147016271
 21
808.0459310518559
 31
0.0
  0
LINE
  5
1D7
330
1E
100
AcDbEntity
  8
0
100
AcDbLine
 10
18.33321156344739
 20
808.85785910005
 30
0.0
 11
18.3715
 21
808.820285
 31
0.0
  0
LINE
  5
1D8
330
1E
100
AcDbEntity
  8
0
100
AcDbLine
 10
18.3715
 20
808.820285
 30
0.0
 11
18.9555
 21
808.374285
 31
0.0
  0
LINE
  5
1D9
330
1E
100
AcDbEntity
  8
0
100
AcDbLine
 10
18.3715
 20
808.820285
 30
0.0
 11
18.59354120602219
 21
809.0939786487359
 31
0.0
  0
LINE
  5
1DA
330
1E
100
AcDbEntity
  8
0
100
AcDbLine
 10
18.9555
 20
808.374285
 30
0.0
 11
19.50649999999989
 21
808.0092849999999
 31
0.0
  0
LINE
  5
1DB
330
1E
100
AcDbEntity
  8
0
100
AcDbLine
 10
18.9555
 20
808.374285
 30
0.0
 11
19.20918785697169
 21
808.6869871171359
 31
0.0
  0
LINE
  5
1DC
330
1E
100
AcDbEntity
  8
0
100
AcDbLine
 10
19.50649999999989
 20
808.0092849999999
 30
0.0
 11
19.6915
 21
807.9482849999999
 31
0.0
  0
LINE
  5
1DD
330
1E
100
AcDbEntity
  8
0
100
AcDbLine
 10
19.50649999999989
 20
808.0092849999999
 30
0.0
 11
19.76045185408489
 21
808.3225576539771
 31
0.0
  0
LINE
  5
1DE
330
1E
100
AcDbEntity
  8
0
100
AcDbLine
 10
17.57849999999999
 20
809.1222849999999
 30
0.0
 11
17.6229203300197
 21
809.1730161926719
 31
0.0
  0
LINE
  5
1DF
330
1E
100
AcDbEntity
  8
0
100
AcDbLine
 10
15.91849999999999
 20
811.2092849999999
 30
0.0
 11
16.4465
 21
810.7452849999999
 31
0.0
  0
LINE
  5
1E0
330
1E
100
AcDbEntity
  8
0
100
AcDbLine
 10
15.91849999999999
 20
811.2092849999999
 30
0.0
 11
15.9850159253802
 21
811.283354015808
 31
0.0
  0
LINE
  5
1E1
330
1E
100
AcDbEntity
  8
0
100
AcDbLine
 10
15.9585
 20
812.522285
 30
0.0
 11
16.3425
 21
812.4152849999999
 31
0.0
  0
LINE
  5
1E2
330
1E
100
AcDbEntity
  8
0
100
AcDbLine
 10
15.75549999999999
 20
811.4632849999999
 30
0.0
 11
16.0345
 21
811.3712849999998
 31
0.0
  0
LINE
  5
1E3
330
1E
100
AcDbEntity
  8
0
100
AcDbLine
 10
15.75549999999999
 20
811.4632849999999
 30
0.0
 11
15.91849999999999
 21
811.2092849999999
 31
0.0
  0
LINE
  5
1E4
330
1E
100
AcDbEntity
  8
0
100
AcDbLine
 10
15.75549999999999
 20
811.4632849999999
 30
0.0
 11
16.13655974644609
 21
811.8876152671049
 31
0.0
  0
LINE
  5
1E5
330
1E
100
AcDbEntity
  8
0
100
AcDbLine
 10
13.1275
 20
812.5932849999999
 30
0.0
 11
13.5816592540961
 21
813.0300202960569
 31
0.0
  0
LINE
  5
1E8
330
1E
100
AcDbEntity
  8
0
100
AcDbLine
 10
13.49329836206059
 20
812.9450493965441
 30
0.0
 11
17.0338107850046
 21
810.1642396560718
 31
0.0
  0
LINE
  5
1E9
330
1E
100
AcDbEntity
  8
0
100
AcDbLine
 10
15.8955
 20
813.201285
 30
0.0
 11
16.3245
 21
812.6892849999999
 31
0.0
  0
LINE
  5
1EA
330
1E
100
AcDbEntity
  8
0
100
AcDbLine
 10
15.8955
 20
813.201285
 30
0.0
 11
16.4440025001574
 21
813.699796216072
 31
0.0
  0
LINE
  5
1EB
330
1E
100
AcDbEntity
  8
0
100
AcDbLine
 10
15.3835
 20
812.968285
 30
0.0
 11
15.9585
 21
812.522285
 31
0.0
  0
LINE
  5
1EC
330
1E
100
AcDbEntity
  8
0
100
AcDbLine
 10
15.79749999999999
 20
815.7322849999999
 30
0.0
 11
15.9245
 21
816.0202849999999
 31
0.0
  0
LINE
  5
1ED
330
1E
100
AcDbEntity
  8
0
100
AcDbLine
 10
15.79749999999999
 20
815.7322849999999
 30
0.0
 11
16.12049999999999
 21
815.1852849999999
 31
0.0
  0
LINE
  5
1EE
330
1E
100
AcDbEntity
  8
0
100
AcDbLine
 10
15.9245
 20
816.0202849999999
 30
0.0
 11
16.4055
 21
815.895285
 31
0.0
  0
LINE
  5
1EF
330
1E
100
AcDbEntity
  8
0
100
AcDbLine
 10
15.9245
 20
816.0202849999999
 30
0.0
 11
16.7894935795916
 21
816.7122798636729
 31
0.0
  0
LINE
  5
1F0
330
1E
100
AcDbEntity
  8
0
100
AcDbLine
 10
15.3204999999999
 20
813.6462849999999
 30
0.0
 11
15.8955
 21
813.201285
 31
0.0
  0
LINE
  5
1F1
330
1E
100
AcDbEntity
  8
0
100
AcDbLine
 10
15.3204999999999
 20
813.6462849999999
 30
0.0
 11
15.9140913625028
 21
814.1867415858079
 31
0.0
  0
LINE
  5
1F2
330
1E
100
AcDbEntity
  8
0
100
AcDbLine
 10
14.95449999999999
 20
813.4802849999999
 30
0.0
 11
15.3835
 21
812.968285
 31
0.0
  0
LINE
  5
1F3
330
1E
100
AcDbEntity
  8
0
100
AcDbLine
 10
14.9365
 20
813.755285
 30
0.0
 11
15.3204999999999
 21
813.6462849999999
 31
0.0
  0
LINE
  5
1F4
330
1E
100
AcDbEntity
  8
0
100
AcDbLine
 10
14.9365
 20
813.755285
 30
0.0
 11
14.95449999999999
 21
813.4802849999999
 31
0.0
  0
LINE
  5
1F5
330
1E
100
AcDbEntity
  8
0
100
AcDbLine
 10
14.9365
 20
813.755285
 30
0.0
 11
15.6637330993813
 21
814.4168005302979
 31
0.0
  0
LINE
  5
1F6
330
1E
100
AcDbEntity
  8
0
100
AcDbLine
 10
14.9365
 20
813.755285
 30
0.0
 11
15.6637330993813
 21
814.4168005302979
 31
0.0
  0
LINE
  5
1F7
330
1E
100
AcDbEntity
  8
0
100
AcDbLine
 10
13.0704999999999
 20
812.6942849999998
 30
0.0
 11
13.1275
 21
812.5932849999999
 31
0.0
  0
LINE
  5
1F8
330
1E
100
AcDbEntity
  8
0
100
AcDbLine
 10
13.0704999999999
 20
812.6942849999998
 30
0.0
 11
13.4913532786405
 21
813.0989921144889
 31
0.0
  0
LINE
  5
1F9
330
1E
100
AcDbEntity
  8
0
100
AcDbLine
 10
16.12049999999999
 20
815.1852849999999
 30
0.0
 11
16.68649999999999
 21
814.704285
 31
0.0
  0
LINE
  5
1FA
330
1E
100
AcDbEntity
  8
0
100
AcDbLine
 10
16.4055
 20
815.895285
 30
0.0
 11
16.97149999999999
 21
815.4142849999999
 31
0.0
  0
LINE
  5
1FB
330
1E
100
AcDbEntity
  8
0
100
AcDbLine
 10
16.4055
 20
815.895285
 30
0.0
 11
16.89591152896349
 21
816.28845976029
 31
0.0
  0
LINE
  5
1FC
330
1E
100
AcDbEntity
  8
0
100
AcDbLine
 10
16.3425
 20
812.4152849999999
 30
0.0
 11
16.74686943498
 21
812.7831129515119
 31
0.0
  0
LINE
  5
1FD
330
1E
100
AcDbEntity
  8
0
100
AcDbLine
 10
16.3245
 20
812.6892849999999
 30
0.0
 11
16.3425
 21
812.4152849999999
 31
0.0
  0
LINE
  5
1FE
330
1E
100
AcDbEntity
  8
0
100
AcDbLine
 10
16.3245
 20
812.6892849999999
 30
0.0
 11
16.93715797159829
 21
813.2466263233959
 31
0.0
  0
LINE
  5
1FF
330
1E
100
AcDbEntity
  8
0
100
AcDbLine
 10
16.0345
 20
811.3712849999998
 30
0.0
 11
16.61049999999999
 21
810.9702849999999
 31
0.0
  0
LINE
  5
200
330
1E
100
AcDbEntity
  8
0
100
AcDbLine
 10
16.0345
 20
811.3712849999998
 30
0.0
 11
16.3656406891281
 21
811.7397245030129
 31
0.0
  0
LINE
  5
201
330
1E
100
AcDbEntity
  8
0
100
AcDbLine
 10
16.68649999999999
 20
814.704285
 30
0.0
 11
17.1674999999999
 21
814.581285
 31
0.0
  0
LINE
  5
202
330
1E
100
AcDbEntity
  8
0
100
AcDbLine
 10
16.61049999999999
 20
810.9702849999999
 30
0.0
 11
17.1395
 21
810.504285
 31
0.0
  0
LINE
  5
203
330
1E
100
AcDbEntity
  8
0
100
AcDbLine
 10
16.61049999999999
 20
810.9702849999999
 30
0.0
 11
16.9422188272628
 21
811.339367761103
 31
0.0
  0
LINE
  5
204
330
1E
100
AcDbEntity
  8
0
100
AcDbLine
 10
16.4465
 20
810.7452849999999
 30
0.0
 11
17.0225
 21
810.344285
 31
0.0
  0
LINE
  5
205
330
1E
100
AcDbEntity
  8
0
100
AcDbLine
 10
16.4465
 20
810.7452849999999
 30
0.0
 11
16.5382350470733
 21
810.8471755280389
 31
0.0
  0
LINE
  5
206
330
1E
100
AcDbEntity
  8
0
100
AcDbLine
 10
16.0225
 20
810.331285
 30
0.0
 11
16.1774999999999
 21
810.1952849999999
 31
0.0
  0
LINE
  5
207
330
1E
100
AcDbEntity
  8
0
100
AcDbLine
 10
16.0225
 20
810.331285
 30
0.0
 11
16.3764169601188
 21
810.7347892265089
 31
0.0
  0
LINE
  5
208
330
1E
100
AcDbEntity
  8
0
100
AcDbLine
 10
16.1774999999999
 20
810.1952849999999
 30
0.0
 11
16.6875
 21
809.7922849999999
 31
0.0
  0
LINE
  5
209
330
1E
100
AcDbEntity
  8
0
100
AcDbLine
 10
16.1774999999999
 20
810.1952849999999
 30
0.0
 11
16.53979348343459
 21
810.6083393835859
 31
0.0
  0
LINE
  5
20A
330
1E
100
AcDbEntity
  8
0
100
AcDbLine
 10
16.7795
 20
809.847285
 30
0.0
 11
17.18449999999999
 21
809.505285
 31
0.0
  0
LINE
  5
20B
330
1E
100
AcDbEntity
  8
0
100
AcDbLine
 10
17.18449999999999
 20
809.505285
 30
0.0
 11
17.7875
 21
809.0482849999999
 31
0.0
  0
LINE
  5
20C
330
1E
100
AcDbEntity
  8
0
100
AcDbLine
 10
17.18449999999999
 20
809.505285
 30
0.0
 11
17.2458084187864
 21
809.57704956104
 31
0.0
  0
LINE
  5
20D
330
1E
100
AcDbEntity
  8
0
100
AcDbLine
 10
17.2425
 20
809.580285
 30
0.0
 11
17.8455
 21
809.124285
 31
0.0
  0
LINE
  5
20E
330
1E
100
AcDbEntity
  8
0
100
AcDbLine
 10
17.2425
 20
809.580285
 30
0.0
 11
17.6174481783569
 21
810.019529976882
 31
0.0
  0
LINE
  5
20F
330
1E
100
AcDbEntity
  8
0
100
AcDbLine
 10
16.7955
 20
809.885285
 30
0.0
 11
17.2425
 21
809.580285
 31
0.0
  0
LINE
  5
210
330
1E
100
AcDbEntity
  8
0
100
AcDbLine
 10
16.7955
 20
809.885285
 30
0.0
 11
17.15102406527579
 21
810.3014436449079
 31
0.0
  0
LINE
  5
211
330
1E
100
AcDbEntity
  8
0
100
AcDbLine
 10
17.3014999999999
 20
810.251285
 30
0.0
 11
17.6789707200663
 21
810.670888773907
 31
0.0
  0
LINE
  5
213
330
1E
100
AcDbEntity
  8
0
100
AcDbLine
 10
17.1395
 20
810.504285
 30
0.0
 11
17.3014999999999
 21
810.251285
 31
0.0
  0
LINE
  5
214
330
1E
100
AcDbEntity
  8
0
100
AcDbLine
 10
17.1395
 20
810.504285
 30
0.0
 11
17.5659799665194
 21
810.979193094586
 31
0.0
  0
LINE
  5
215
330
1E
100
AcDbEntity
  8
0
100
AcDbLine
 10
17.0225
 20
810.344285
 30
0.0
 11
17.3014999999999
 21
810.251285
 31
0.0
  0
LINE
  5
216
330
1E
100
AcDbEntity
  8
0
100
AcDbLine
 10
17.0225
 20
810.344285
 30
0.0
 11
17.08885715401249
 21
810.417988188446
 31
0.0
  0
LINE
  5
217
330
1E
100
AcDbEntity
  8
0
100
AcDbLine
 10
20.5515
 20
809.871285
 30
0.0
 11
21.06749999999999
 21
809.686285
 31
0.0
  0
LINE
  5
218
330
1E
100
AcDbEntity
  8
0
100
AcDbLine
 10
20.27149999999989
 20
810.7882849999999
 30
0.0
 11
20.8725
 21
810.3272849999999
 31
0.0
  0
LINE
  5
219
330
1E
100
AcDbEntity
  8
0
100
AcDbLine
 10
20.27149999999989
 20
810.7882849999999
 30
0.0
 11
20.79827463141469
 21
811.3869866193979
 31
0.0
  0
LINE
  5
21A
330
1E
100
AcDbEntity
  8
0
100
AcDbLine
 10
19.9505
 20
810.331285
 30
0.0
 11
20.5515
 21
809.871285
 31
0.0
  0
LINE
  5
21B
330
1E
100
AcDbEntity
  8
0
100
AcDbLine
 10
19.61349999999999
 20
810.7902849999998
 30
0.0
 11
19.7555
 21
810.9732849999998
 31
0.0
  0
LINE
  5
21C
330
1E
100
AcDbEntity
  8
0
100
AcDbLine
 10
19.61349999999999
 20
810.7902849999998
 30
0.0
 11
19.9505
 21
810.331285
 31
0.0
  0
LINE
  5
21D
330
1E
100
AcDbEntity
  8
0
100
AcDbLine
 10
16.97149999999999
 20
815.4142849999999
 30
0.0
 11
17.2935
 21
814.868285
 31
0.0
  0
LINE
  5
21E
330
1E
100
AcDbEntity
  8
0
100
AcDbLine
 10
16.97149999999999
 20
815.4142849999999
 30
0.0
 11
17.0912945914642
 21
815.5103272155701
 31
0.0
  0
LINE
  5
21F
330
1E
100
AcDbEntity
  8
0
100
AcDbLine
 10
17.2935
 20
814.868285
 30
0.0
 11
18.45349999999999
 21
815.797285
 31
0.0
  0
LINE
  5
220
330
1E
100
AcDbEntity
  8
0
100
AcDbLine
 10
17.1674999999999
 20
814.581285
 30
0.0
 11
17.2935
 21
814.868285
 31
0.0
  0
LINE
  5
221
330
1E
100
AcDbEntity
  8
0
100
AcDbLine
 10
17.1674999999999
 20
814.581285
 30
0.0
 11
17.2982727727088
 21
814.686015953316
 31
0.0
  0
LINE
  5
222
330
1E
100
AcDbEntity
  8
0
100
AcDbLine
 10
19.7555
 20
810.9732849999998
 30
0.0
 11
20.27149999999989
 21
810.7882849999999
 31
0.0
  0
LINE
  5
223
330
1E
100
AcDbEntity
  8
0
100
AcDbLine
 10
19.7555
 20
810.9732849999998
 30
0.0
 11
20.4256289057998
 21
811.734914807476
 31
0.0
  0
LINE
  5
224
330
1E
100
AcDbEntity
  8
0
100
AcDbLine
 10
16.6875
 20
809.7922849999999
 30
0.0
 11
17.2655
 21
809.349285
 31
0.0
  0
LINE
  5
225
330
1E
100
AcDbEntity
  8
0
100
AcDbLine
 10
16.6875
 20
809.7922849999999
 30
0.0
 11
17.0635252873546
 21
810.220995149044
 31
0.0
  0
LINE
  5
226
330
1E
100
AcDbEntity
  8
0
100
AcDbLine
 10
17.2655
 20
809.349285
 30
0.0
 11
17.57849999999999
 21
809.1222849999999
 31
0.0
  0
LINE
  5
227
330
1E
100
AcDbEntity
  8
0
100
AcDbLine
 10
17.2655
 20
809.349285
 30
0.0
 11
17.3153245272245
 21
809.4061360631149
 31
0.0
  0
LINE
  5
228
330
1E
100
AcDbEntity
  8
0
100
AcDbLine
 10
12.75749999999989
 20
812.8752849999999
 30
0.0
 11
13.1275
 21
812.5932849999999
 31
0.0
  0
LINE
  5
229
330
1E
100
AcDbEntity
  8
0
100
AcDbLine
 10
12.75749999999989
 20
812.8752849999999
 30
0.0
 11
12.81794500847899
 21
812.9333625789799
 31
0.0
  0
LINE
  5
22A
330
1E
100
AcDbEntity
  8
0
100
AcDbLine
 10
12.75749999999989
 20
812.8752849999999
 30
0.0
 11
12.81794500847899
 21
812.9333625789799
 31
0.0
  0
LINE
  5
22C
330
1E
100
AcDbEntity
  8
0
100
AcDbLine
 10
21.02949999999999
 20
807.393285
 30
0.0
 11
21.5515
 21
806.984285
 31
0.0
  0
LINE
  5
22D
330
1E
100
AcDbEntity
  8
0
100
AcDbLine
 10
21.02949999999999
 20
807.393285
 30
0.0
 11
21.3450070372311
 21
807.812999137942
 31
0.0
  0
LINE
  5
22E
330
1E
100
AcDbEntity
  8
0
100
AcDbLine
 10
20.70249999999989
 20
807.365285
 30
0.0
 11
21.31749999999999
 21
806.9632849999999
 31
0.0
  0
LINE
  5
22F
330
1E
100
AcDbEntity
  8
0
100
AcDbLine
 10
20.70249999999989
 20
807.365285
 30
0.0
 11
20.7594645509318
 21
807.441006171361
 31
0.0
  0
LINE
  5
230
330
1E
100
AcDbEntity
  8
0
100
AcDbLine
 10
20.8725
 20
810.3272849999999
 30
0.0
 11
21.2095
 21
809.869285
 31
0.0
  0
LINE
  5
231
330
1E
100
AcDbEntity
  8
0
100
AcDbLine
 10
20.8725
 20
810.3272849999999
 30
0.0
 11
21.3506779367286
 21
810.871224146102
 31
0.0
  0
LINE
  5
232
330
1E
100
AcDbEntity
  8
0
100
AcDbLine
 10
21.7798038782326
 20
806.9683829418559
 30
0.0
 11
23.42249999999999
 21
805.8862849999998
 31
0.0
  0
LINE
  5
233
330
1E
100
AcDbEntity
  8
0
100
AcDbLine
 10
21.6615
 20
806.811285
 30
0.0
 11
22.01974318974869
 21
807.2870028600929
 31
0.0
  0
LINE
  5
234
330
1E
100
AcDbEntity
  8
0
100
AcDbLine
 10
21.6615
 20
806.811285
 30
0.0
 11
22.01974318974869
 21
807.2870028600929
 31
0.0
  0
LINE
  5
235
330
1E
100
AcDbEntity
  8
0
100
AcDbLine
 10
21.8750353641222
 20
807.0948426205811
 30
0.0
 11
24.5445
 21
805.238285
 31
0.0
  0
LINE
  5
236
330
1E
100
AcDbEntity
  8
0
100
AcDbLine
 10
21.5515
 20
806.984285
 30
0.0
 11
21.6615
 21
806.811285
 31
0.0
  0
LINE
  5
237
330
1E
100
AcDbEntity
  8
0
100
AcDbLine
 10
21.5515
 20
806.984285
 30
0.0
 11
21.86829356507219
 21
807.405066696697
 31
0.0
  0
LINE
  5
238
330
1E
100
AcDbEntity
  8
0
100
AcDbLine
 10
21.31749999999999
 20
806.9632849999999
 30
0.0
 11
21.6615
 21
806.811285
 31
0.0
  0
LINE
  5
239
330
1E
100
AcDbEntity
  8
0
100
AcDbLine
 10
21.31749999999999
 20
806.9632849999999
 30
0.0
 11
21.36338469650449
 21
807.024278072183
 31
0.0
  0
LINE
  5
23A
330
1E
100
AcDbEntity
  8
0
100
AcDbLine
 10
21.2095
 20
809.869285
 30
0.0
 11
21.7571504632031
 21
810.4917128840138
 31
0.0
  0
LINE
  5
23B
330
1E
100
AcDbEntity
  8
0
100
AcDbLine
 10
21.2095
 20
809.869285
 30
0.0
 11
21.7571504632031
 21
810.4917128840138
 31
0.0
  0
LINE
  5
23C
330
1E
100
AcDbEntity
  8
0
100
AcDbLine
 10
21.06749999999999
 20
809.686285
 30
0.0
 11
21.2095
 21
809.869285
 31
0.0
  0
LINE
  5
23D
330
1E
100
AcDbEntity
  8
0
100
AcDbLine
 10
21.06749999999999
 20
809.686285
 30
0.0
 11
21.4190831238423
 21
810.085826960166
 31
0.0
  0
LINE
  5
23E
330
1E
100
AcDbEntity
  8
0
100
AcDbLine
 10
22.0445
 20
812.1252849999999
 30
0.0
 11
22.3195
 21
812.3272849999999
 31
0.0
  0
LINE
  5
23F
330
1E
100
AcDbEntity
  8
0
100
AcDbLine
 10
22.0445
 20
812.1252849999999
 30
0.0
 11
22.27049999999989
 21
811.635285
 31
0.0
  0
LINE
  5
240
330
1E
100
AcDbEntity
  8
0
100
AcDbLine
 10
22.0445
 20
812.1252849999999
 30
0.0
 11
22.2145375200651
 21
812.318261200502
 31
0.0
  0
LINE
  5
243
330
1E
100
AcDbEntity
  8
0
100
AcDbLine
 10
23.5955
 20
805.787285
 30
0.0
 11
23.9405
 21
805.587285
 31
0.0
  0
LINE
  5
244
330
1E
100
AcDbEntity
  8
0
100
AcDbLine
 10
23.7585
 20
806.455285
 30
0.0
 11
24.3074999999999
 21
806.206285
 31
0.0
  0
LINE
  5
245
330
1E
100
AcDbEntity
  8
0
100
AcDbLine
 10
23.52349999999999
 20
805.690285
 30
0.0
 11
24.0045
 21
805.4592849999998
 31
0.0
  0
LINE
  5
246
330
1E
100
AcDbEntity
  8
0
100
AcDbLine
 10
23.52349999999999
 20
805.690285
 30
0.0
 11
23.5915284252573
 21
805.789557750864
 31
0.0
  0
LINE
  5
247
330
1E
100
AcDbEntity
  8
0
100
AcDbLine
 10
22.88749999999999
 20
806.103285
 30
0.0
 11
23.52349999999999
 21
805.690285
 31
0.0
  0
LINE
  5
248
330
1E
100
AcDbEntity
  8
0
100
AcDbLine
 10
22.88749999999999
 20
806.103285
 30
0.0
 11
22.95135757817239
 21
806.1966420028719
 31
0.0
  0
LINE
  5
249
330
1E
100
AcDbEntity
  8
0
100
AcDbLine
 10
22.27049999999989
 20
811.635285
 30
0.0
 11
22.84349999999999
 21
811.1492849999999
 31
0.0
  0
LINE
  5
24A
330
1E
100
AcDbEntity
  8
0
100
AcDbLine
 10
23.1395
 20
806.8812849999998
 30
0.0
 11
23.7585
 21
806.455285
 31
0.0
  0
LINE
  5
24B
330
1E
100
AcDbEntity
  8
0
100
AcDbLine
 10
23.1395
 20
806.8812849999998
 30
0.0
 11
23.21757164503939
 21
806.9952041111939
 31
0.0
  0
LINE
  5
24C
330
1E
100
AcDbEntity
  8
0
100
AcDbLine
 10
22.8064999999999
 20
807.2322849999999
 30
0.0
 11
22.9735
 21
807.2962849999999
 31
0.0
  0
LINE
  5
24D
330
1E
100
AcDbEntity
  8
0
100
AcDbLine
 10
22.8064999999999
 20
807.2322849999999
 30
0.0
 11
23.1395
 21
806.8812849999998
 31
0.0
  0
LINE
  5
24E
330
1E
100
AcDbEntity
  8
0
100
AcDbLine
 10
22.8064999999999
 20
807.2322849999999
 30
0.0
 11
23.16023295129989
 21
807.7488288129909
 31
0.0
  0
LINE
  5
24F
330
1E
100
AcDbEntity
  8
0
100
AcDbLine
 10
22.9735
 20
807.2962849999999
 30
0.0
 11
23.5225
 21
807.0472849999999
 31
0.0
  0
LINE
  5
250
330
1E
100
AcDbEntity
  8
0
100
AcDbLine
 10
22.9735
 20
807.2962849999999
 30
0.0
 11
23.3123861837416
 21
807.790229360426
 31
0.0
  0
LINE
  5
251
330
1E
100
AcDbEntity
  8
0
100
AcDbLine
 10
23.5225
 20
807.0472849999999
 30
0.0
 11
24.1415
 21
806.6222849999999
 31
0.0
  0
LINE
  5
252
330
1E
100
AcDbEntity
  8
0
100
AcDbLine
 10
23.5225
 20
807.0472849999999
 30
0.0
 11
23.7981020655799
 21
807.449737022916
 31
0.0
  0
LINE
  5
253
330
1E
100
AcDbEntity
  8
0
100
AcDbLine
 10
23.4385
 20
810.9602849999999
 30
0.0
 11
23.71249999999999
 21
811.1622849999999
 31
0.0
  0
LINE
  5
254
330
1E
100
AcDbEntity
  8
0
100
AcDbLine
 10
22.91349999999999
 20
812.1392849999999
 30
0.0
 11
23.4865
 21
811.653285
 31
0.0
  0
LINE
  5
255
330
1E
100
AcDbEntity
  8
0
100
AcDbLine
 10
22.91349999999999
 20
812.1392849999999
 30
0.0
 11
23.3743709307881
 21
812.6618356592128
 31
0.0
  0
LINE
  5
256
330
1E
100
AcDbEntity
  8
0
100
AcDbLine
 10
23.71249999999999
 20
811.1622849999999
 30
0.0
 11
24.6475
 21
812.221285
 31
0.0
  0
LINE
  5
257
330
1E
100
AcDbEntity
  8
0
100
AcDbLine
 10
23.4865
 20
811.653285
 30
0.0
 11
23.71249999999999
 21
811.1622849999999
 31
0.0
  0
LINE
  5
258
330
1E
100
AcDbEntity
  8
0
100
AcDbLine
 10
22.84349999999999
 20
811.1492849999999
 30
0.0
 11
23.4385
 21
810.9602849999999
 31
0.0
  0
LINE
  5
259
330
1E
100
AcDbEntity
  8
0
100
AcDbLine
 10
22.3195
 20
812.3272849999999
 30
0.0
 11
22.91349999999999
 21
812.1392849999999
 31
0.0
  0
LINE
  5
25A
330
1E
100
AcDbEntity
  8
0
100
AcDbLine
 10
22.4675
 20
806.455285
 30
0.0
 11
22.88749999999999
 21
806.103285
 31
0.0
  0
LINE
  5
25B
330
1E
100
AcDbEntity
  8
0
100
AcDbLine
 10
22.4675
 20
806.455285
 30
0.0
 11
22.4958496074884
 21
806.496700078766
 31
0.0
  0
LINE
  5
25C
330
1E
100
AcDbEntity
  8
0
100
AcDbLine
 10
23.9405
 20
805.587285
 30
0.0
 11
24.5445
 21
805.238285
 31
0.0
  0
LINE
  5
25E
330
1E
100
AcDbEntity
  8
0
100
AcDbLine
 10
24.1415
 20
806.6222849999999
 30
0.0
 11
24.47449999999999
 21
806.2702849999999
 31
0.0
  0
LINE
  5
25F
330
1E
100
AcDbEntity
  8
0
100
AcDbLine
 10
24.1415
 20
806.6222849999999
 30
0.0
 11
24.41669132296819
 21
807.02339076512
 31
0.0
  0
LINE
  5
260
330
1E
100
AcDbEntity
  8
0
100
AcDbLine
 10
24.3074999999999
 20
806.206285
 30
0.0
 11
24.47449999999999
 21
806.2702849999999
 31
0.0
  0
LINE
  5
261
330
1E
100
AcDbEntity
  8
0
100
AcDbLine
 10
24.3074999999999
 20
806.206285
 30
0.0
 11
24.386201556945
 21
806.3212101212339
 31
0.0
  0
LINE
  5
262
330
1E
100
AcDbEntity
  8
0
100
AcDbLine
 10
24.0045
 20
805.4592849999998
 30
0.0
 11
24.05314984284879
 21
805.522194279546
 31
0.0
  0
LINE
  5
263
330
1E
100
AcDbEntity
  8
0
100
AcDbLine
 10
24.0045
 20
805.4592849999998
 30
0.0
 11
24.0491463804755
 21
805.5245075384339
 31
0.0
  0
LINE
  5
265
330
1E
100
AcDbEntity
  8
0
100
AcDbLine
 10
24.5445
 20
805.238285
 30
0.0
 11
25.129343558282
 21
804.900510769001
 31
0.0
  0
LINE
  5
266
330
1E
100
AcDbEntity
  8
0
100
AcDbLine
 10
24.47449999999999
 20
806.2702849999999
 30
0.0
 11
24.82820910318849
 21
806.7858345418029
 31
0.0
  0
LINE
  5
267
330
1E
100
AcDbEntity
  8
0
100
AcDbLine
 10
25.3715
 20
804.6692849999999
 30
0.0
 11
25.98349999999999
 21
804.2702849999999
 31
0.0
  0
LINE
  5
268
330
1E
100
AcDbEntity
  8
0
100
AcDbLine
 10
25.3715
 20
804.6692849999999
 30
0.0
 11
25.4207368842872
 21
804.7496646485539
 31
0.0
  0
LINE
  5
269
330
1E
100
AcDbEntity
  8
0
100
AcDbLine
 10
25.0835
 20
804.944285
 30
0.0
 11
25.3095
 21
804.9232849999999
 31
0.0
  0
LINE
  5
26A
330
1E
100
AcDbEntity
  8
0
100
AcDbLine
 10
25.0835
 20
804.944285
 30
0.0
 11
25.3715
 21
804.6692849999999
 31
0.0
  0
LINE
  5
26B
330
1E
100
AcDbEntity
  8
0
100
AcDbLine
 10
25.0835
 20
804.944285
 30
0.0
 11
25.29102989860589
 21
805.2830793927769
 31
0.0
  0
LINE
  5
26C
330
1E
100
AcDbEntity
  8
0
100
AcDbLine
 10
25.3095
 20
804.9232849999999
 30
0.0
 11
25.8955
 21
804.630285
 31
0.0
  0
LINE
  5
26D
330
1E
100
AcDbEntity
  8
0
100
AcDbLine
 10
25.3095
 20
804.9232849999999
 30
0.0
 11
25.7365618999621
 21
805.6199643067699
 31
0.0
  0
LINE
  5
26E
330
1E
100
AcDbEntity
  8
0
100
AcDbLine
 10
25.8955
 20
804.630285
 30
0.0
 11
26.5085
 21
804.231285
 31
0.0
  0
LINE
  5
26F
330
1E
100
AcDbEntity
  8
0
100
AcDbLine
 10
25.8955
 20
804.630285
 30
0.0
 11
26.2275675280382
 21
805.172388172981
 31
0.0
  0
LINE
  5
270
330
1E
100
AcDbEntity
  8
0
100
AcDbLine
 10
25.98349999999999
 20
804.2702849999999
 30
0.0
 11
26.5695
 21
803.977285
 31
0.0
  0
LINE
  5
271
330
1E
100
AcDbEntity
  8
0
100
AcDbLine
 10
25.98349999999999
 20
804.2702849999999
 30
0.0
 11
26.04519495819479
 21
804.370929896466
 31
0.0
  0
LINE
  5
272
330
1E
100
AcDbEntity
  8
0
100
AcDbLine
 10
25.6735
 20
806.914285
 30
0.0
 11
26.2904999999999
 21
806.671285
 31
0.0
  0
LINE
  5
273
330
1E
100
AcDbEntity
  8
0
100
AcDbLine
 10
25.7935
 20
807.600285
 30
0.0
 11
26.3745
 21
807.1512849999999
 31
0.0
  0
LINE
  5
274
330
1E
100
AcDbEntity
  8
0
100
AcDbLine
 10
25.7935
 20
807.600285
 30
0.0
 11
26.24467297509619
 21
808.271438171238
 31
0.0
  0
LINE
  5
275
330
1E
100
AcDbEntity
  8
0
100
AcDbLine
 10
25.09149999999999
 20
807.363285
 30
0.0
 11
25.6735
 21
806.914285
 31
0.0
  0
LINE
  5
276
330
1E
100
AcDbEntity
  8
0
100
AcDbLine
 10
24.8765
 20
807.7512849999999
 30
0.0
 11
25.17549999999999
 21
807.8432849999998
 31
0.0
  0
LINE
  5
277
330
1E
100
AcDbEntity
  8
0
100
AcDbLine
 10
24.8765
 20
807.7512849999999
 30
0.0
 11
25.09149999999999
 21
807.363285
 31
0.0
  0
LINE
  5
278
330
1E
100
AcDbEntity
  8
0
100
AcDbLine
 10
24.8765
 20
807.7512849999999
 30
0.0
 11
25.0403201500343
 21
807.9948851758199
 31
0.0
  0
LINE
  5
279
330
1E
100
AcDbEntity
  8
0
100
AcDbLine
 10
25.17549999999999
 20
807.8432849999998
 30
0.0
 11
25.7935
 21
807.600285
 31
0.0
  0
LINE
  5
27A
330
1E
100
AcDbEntity
  8
0
100
AcDbLine
 10
25.17549999999999
 20
807.8432849999998
 30
0.0
 11
25.77509806661129
 21
808.734177162802
 31
0.0
  0
LINE
  5
27D
330
1E
100
AcDbEntity
  8
0
100
AcDbLine
 10
26.7596619989788
 20
803.9596150797411
 30
0.0
 11
27.3084999999999
 21
803.6422850000001
 31
0.0
  0
LINE
  5
27E
330
1E
100
AcDbEntity
  8
0
100
AcDbLine
 10
27.3084999999999
 20
803.6422850000001
 30
0.0
 11
27.5145
 21
803.999285
 31
0.0
  0
LINE
  5
27F
330
1E
100
AcDbEntity
  8
0
100
AcDbLine
 10
26.7955
 20
803.9562849999999
 30
0.0
 11
27.0703582909248
 21
804.4041423328598
 31
0.0
  0
LINE
  5
280
330
1E
100
AcDbEntity
  8
0
100
AcDbLine
 10
27.8576896305876
 20
803.3255874116768
 30
0.0
 11
27.9685
 21
803.1702849999998
 31
0.0
  0
LINE
  5
281
330
1E
100
AcDbEntity
  8
0
100
AcDbLine
 10
27.9685
 20
803.1702849999998
 30
0.0
 11
28.5145
 21
802.809285
 31
0.0
  0
LINE
  5
282
330
1E
100
AcDbEntity
  8
0
100
AcDbLine
 10
27.9685
 20
803.1702849999998
 30
0.0
 11
28.0062812729196
 21
803.2399000422309
 31
0.0
  0
LINE
  5
283
330
1E
100
AcDbEntity
  8
0
100
AcDbLine
 10
28.5145
 20
802.809285
 30
0.0
 11
29.1675
 21
802.4782849999999
 31
0.0
  0
LINE
  5
284
330
1E
100
AcDbEntity
  8
0
100
AcDbLine
 10
28.5145
 20
802.809285
 30
0.0
 11
28.5712092667543
 21
802.9137763973229
 31
0.0
  0
LINE
  5
285
330
1E
100
AcDbEntity
  8
0
100
AcDbLine
 10
31.08449999999999
 20
801.589285
 30
0.0
 11
31.7604999999999
 21
801.2452849999998
 31
0.0
  0
LINE
  5
286
330
1E
100
AcDbEntity
  8
0
100
AcDbLine
 10
31.08449999999999
 20
801.589285
 30
0.0
 11
31.3074332249438
 21
802.054468107163
 31
0.0
  0
LINE
  5
287
330
1E
100
AcDbEntity
  8
0
100
AcDbLine
 10
30.5695
 20
801.777285
 30
0.0
 11
31.08449999999999
 21
801.589285
 31
0.0
  0
LINE
  5
288
330
1E
100
AcDbEntity
  8
0
100
AcDbLine
 10
30.5695
 20
801.777285
 30
0.0
 11
30.79405451414389
 21
802.2461701360679
 31
0.0
  0
LINE
  5
289
330
1E
100
AcDbEntity
  8
0
100
AcDbLine
 10
30.5695
 20
801.777285
 30
0.0
 11
30.79405451414389
 21
802.2461701360679
 31
0.0
  0
LINE
  5
28A
330
1E
100
AcDbEntity
  8
0
100
AcDbLine
 10
30.5335
 20
801.6892849999999
 30
0.0
 11
30.9745
 21
801.3882849999999
 31
0.0
  0
LINE
  5
28B
330
1E
100
AcDbEntity
  8
0
100
AcDbLine
 10
30.5335
 20
801.6892849999999
 30
0.0
 11
30.5695
 21
801.777285
 31
0.0
  0
LINE
  5
28C
330
1E
100
AcDbEntity
  8
0
100
AcDbLine
 10
30.5335
 20
801.6892849999999
 30
0.0
 11
30.5743344701985
 21
801.7744921544339
 31
0.0
  0
LINE
  5
28D
330
1E
100
AcDbEntity
  8
0
100
AcDbLine
 10
30.0725
 20
802.047285
 30
0.0
 11
30.5836820658496
 21
801.806898120453
 31
0.0
  0
LINE
  5
28E
330
1E
100
AcDbEntity
  8
0
100
AcDbLine
 10
31.5195
 20
801.974285
 30
0.0
 11
32.1974999999999
 21
801.6512849999999
 31
0.0
  0
LINE
  5
28F
330
1E
100
AcDbEntity
  8
0
100
AcDbLine
 10
31.5195
 20
801.974285
 30
0.0
 11
31.5864445415529
 21
802.1142687451261
 31
0.0
  0
LINE
  5
290
330
1E
100
AcDbEntity
  8
0
100
AcDbLine
 10
32.1974999999999
 20
801.6512849999999
 30
0.0
 11
32.6695
 21
801.5382849999999
 31
0.0
  0
LINE
  5
291
330
1E
100
AcDbEntity
  8
0
100
AcDbLine
 10
32.1974999999999
 20
801.6512849999999
 30
0.0
 11
32.25729354867169
 21
801.7762293228029
 31
0.0
  0
LINE
  5
292
330
1E
100
AcDbEntity
  8
0
100
AcDbLine
 10
29.2085
 20
802.5452849999998
 30
0.0
 11
30.0725
 21
802.047285
 31
0.0
  0
LINE
  5
293
330
1E
100
AcDbEntity
  8
0
100
AcDbLine
 10
30.9595
 20
803.8622849999999
 30
0.0
 11
31.6395
 21
803.583285
 31
0.0
  0
LINE
  5
294
330
1E
100
AcDbEntity
  8
0
100
AcDbLine
 10
31.00049999999999
 20
802.5012849999999
 30
0.0
 11
31.02949999999999
 21
802.325285
 31
0.0
  0
LINE
  5
295
330
1E
100
AcDbEntity
  8
0
100
AcDbLine
 10
31.00049999999999
 20
802.5012849999999
 30
0.0
 11
31.4725
 21
802.3892849999999
 31
0.0
  0
LINE
  5
296
330
1E
100
AcDbEntity
  8
0
100
AcDbLine
 10
31.00049999999999
 20
802.5012849999999
 30
0.0
 11
31.27088880764139
 21
803.0666789373661
 31
0.0
  0
LINE
  5
297
330
1E
100
AcDbEntity
  8
0
100
AcDbLine
 10
31.6395
 20
803.583285
 30
0.0
 11
32.0825
 21
803.5912849999998
 31
0.0
  0
LINE
  5
298
330
1E
100
AcDbEntity
  8
0
100
AcDbLine
 10
32.0125
 20
803.8962849999998
 30
0.0
 11
32.0825
 21
803.5912849999998
 31
0.0
  0
LINE
  5
299
330
1E
100
AcDbEntity
  8
0
100
AcDbLine
 10
32.0125
 20
803.8962849999998
 30
0.0
 11
32.48451167906679
 21
804.8601526929889
 31
0.0
  0
LINE
  5
29A
330
1E
100
AcDbEntity
  8
0
100
AcDbLine
 10
32.0825
 20
803.5912849999998
 30
0.0
 11
32.2112954665003
 21
803.8544841440039
 31
0.0
  0
LINE
  5
29B
330
1E
100
AcDbEntity
  8
0
100
AcDbLine
 10
31.4725
 20
802.3892849999999
 30
0.0
 11
32.1505
 21
802.066285
 31
0.0
  0
LINE
  5
29C
330
1E
100
AcDbEntity
  8
0
100
AcDbLine
 10
31.4725
 20
802.3892849999999
 30
0.0
 11
31.6827493313506
 21
802.828924859053
 31
0.0
  0
LINE
  5
29D
330
1E
100
AcDbEntity
  8
0
100
AcDbLine
 10
31.02949999999999
 20
802.325285
 30
0.0
 11
31.5195
 21
801.974285
 31
0.0
  0
LINE
  5
29E
330
1E
100
AcDbEntity
  8
0
100
AcDbLine
 10
31.02949999999999
 20
802.325285
 30
0.0
 11
31.0892354199592
 21
802.4501078573139
 31
0.0
  0
LINE
  5
29F
330
1E
100
AcDbEntity
  8
0
100
AcDbLine
 10
32.1505
 20
802.066285
 30
0.0
 11
32.6405
 21
801.715285
 31
0.0
  0
LINE
  5
2A0
330
1E
100
AcDbEntity
  8
0
100
AcDbLine
 10
32.1505
 20
802.066285
 30
0.0
 11
32.3612875998637
 21
802.5067457939348
 31
0.0
  0
LINE
  5
2A1
330
1E
100
AcDbEntity
  8
0
100
AcDbLine
 10
29.1675
 20
802.4782849999999
 30
0.0
 11
29.488405517909
 21
802.383950569539
 31
0.0
  0
LINE
  5
2A2
330
1E
100
AcDbEntity
  8
0
100
AcDbLine
 10
29.1675
 20
802.4782849999999
 30
0.0
 11
29.20496983643269
 21
802.547326195388
 31
0.0
  0
LINE
  5
2A3
330
1E
100
AcDbEntity
  8
0
100
AcDbLine
 10
26.5085
 20
804.231285
 30
0.0
 11
26.7955
 21
803.9562849999999
 31
0.0
  0
LINE
  5
2A4
330
1E
100
AcDbEntity
  8
0
100
AcDbLine
 10
26.5085
 20
804.231285
 30
0.0
 11
26.7778870599106
 21
804.670744455802
 31
0.0
  0
LINE
  5
2A8
330
1E
100
AcDbEntity
  8
0
100
AcDbLine
 10
26.5695
 20
803.977285
 30
0.0
 11
26.7955
 21
803.9562849999999
 31
0.0
  0
LINE
  5
2A9
330
1E
100
AcDbEntity
  8
0
100
AcDbLine
 10
26.5695
 20
803.977285
 30
0.0
 11
26.6190654653256
 21
804.058105864637
 31
0.0
  0
LINE
  5
2AA
330
1E
100
AcDbEntity
  8
0
100
AcDbLine
 10
26.5895
 20
806.7622849999999
 30
0.0
 11
27.0621158573621
 21
807.4658953533269
 31
0.0
  0
LINE
  5
2AB
330
1E
100
AcDbEntity
  8
0
100
AcDbLine
 10
26.5895
 20
806.7622849999999
 30
0.0
 11
27.0621158573621
 21
807.4658953533269
 31
0.0
  0
LINE
  5
2AC
330
1E
100
AcDbEntity
  8
0
100
AcDbLine
 10
26.3745
 20
807.1512849999999
 30
0.0
 11
26.5895
 21
806.7622849999999
 31
0.0
  0
LINE
  5
2AD
330
1E
100
AcDbEntity
  8
0
100
AcDbLine
 10
26.3745
 20
807.1512849999999
 30
0.0
 11
26.7757169786094
 21
807.7481249314939
 31
0.0
  0
LINE
  5
2AE
330
1E
100
AcDbEntity
  8
0
100
AcDbLine
 10
26.2904999999999
 20
806.671285
 30
0.0
 11
26.5895
 21
806.7622849999999
 31
0.0
  0
LINE
  5
2AF
330
1E
100
AcDbEntity
  8
0
100
AcDbLine
 10
30.4405
 20
804.2752849999999
 30
0.0
 11
30.9595
 21
803.8622849999999
 31
0.0
  0
LINE
  5
2B0
330
1E
100
AcDbEntity
  8
0
100
AcDbLine
 10
31.4935
 20
804.3092849999998
 30
0.0
 11
32.0125
 21
803.8962849999998
 31
0.0
  0
LINE
  5
2B1
330
1E
100
AcDbEntity
  8
0
100
AcDbLine
 10
31.4935
 20
804.3092849999998
 30
0.0
 11
31.84909109061079
 21
805.0354169568031
 31
0.0
  0
LINE
  5
2B2
330
1E
100
AcDbEntity
  8
0
100
AcDbLine
 10
28.9135
 20
807.8002849999998
 30
0.0
 11
29.4505
 21
807.3342849999999
 31
0.0
  0
LINE
  5
2B3
330
1E
100
AcDbEntity
  8
0
100
AcDbLine
 10
28.8105
 20
808.219285
 30
0.0
 11
29.2255
 21
808.340285
 31
0.0
  0
LINE
  5
2B4
330
1E
100
AcDbEntity
  8
0
100
AcDbLine
 10
28.8105
 20
808.219285
 30
0.0
 11
28.9135
 21
807.8002849999998
 31
0.0
  0
LINE
  5
2B5
330
1E
100
AcDbEntity
  8
0
100
AcDbLine
 10
28.8105
 20
808.219285
 30
0.0
 11
28.8813942033677
 21
808.3421204766439
 31
0.0
  0
LINE
  5
2B6
330
1E
100
AcDbEntity
  8
0
100
AcDbLine
 10
30.8145
 20
804.5882849999999
 30
0.0
 11
31.4935
 21
804.3092849999998
 31
0.0
  0
LINE
  5
2B7
330
1E
100
AcDbEntity
  8
0
100
AcDbLine
 10
30.8145
 20
804.5882849999999
 30
0.0
 11
31.1305221574219
 21
805.2336155316719
 31
0.0
  0
LINE
  5
2B8
330
1E
100
AcDbEntity
  8
0
100
AcDbLine
 10
30.3705
 20
804.5802849999999
 30
0.0
 11
30.4405
 21
804.2752849999999
 31
0.0
  0
LINE
  5
2B9
330
1E
100
AcDbEntity
  8
0
100
AcDbLine
 10
30.3705
 20
804.5802849999999
 30
0.0
 11
30.8145
 21
804.5882849999999
 31
0.0
  0
LINE
  5
2BA
330
1E
100
AcDbEntity
  8
0
100
AcDbLine
 10
30.3705
 20
804.5802849999999
 30
0.0
 11
30.74280921760749
 21
805.340556074994
 31
0.0
  0
LINE
  5
2BB
330
1E
100
AcDbEntity
  8
0
100
AcDbLine
 10
30.5375
 20
807.2222849999999
 30
0.0
 11
30.61153404128429
 21
807.3505607449421
 31
0.0
  0
LINE
  5
2BC
330
1E
100
AcDbEntity
  8
0
100
AcDbLine
 10
30.12249999999999
 20
807.1012849999998
 30
0.0
 11
30.5375
 21
807.2222849999999
 31
0.0
  0
LINE
  5
2BE
330
1E
100
AcDbEntity
  8
0
100
AcDbLine
 10
29.8965
 20
808.1072849999999
 30
0.0
 11
30.43449999999999
 21
807.642285
 31
0.0
  0
LINE
  5
2C1
330
1E
100
AcDbEntity
  8
0
100
AcDbLine
 10
30.43449999999999
 20
807.642285
 30
0.0
 11
30.5375
 21
807.2222849999999
 31
0.0
  0
LINE
  5
2C2
330
1E
100
AcDbEntity
  8
0
100
AcDbLine
 10
29.4505
 20
807.3342849999999
 30
0.0
 11
30.12249999999999
 21
807.1012849999998
 31
0.0
  0
LINE
  5
2C3
330
1E
100
AcDbEntity
  8
0
100
AcDbLine
 10
29.2255
 20
808.340285
 30
0.0
 11
29.8965
 21
808.1072849999999
 31
0.0
  0
LINE
  5
2C4
330
1E
100
AcDbEntity
  8
0
100
AcDbLine
 10
32.6695
 20
801.5382849999999
 30
0.0
 11
32.93970603268309
 21
802.103296747533
 31
0.0
  0
LINE
  5
2C5
330
1E
100
AcDbEntity
  8
0
100
AcDbLine
 10
32.6405
 20
801.715285
 30
0.0
 11
32.6695
 21
801.5382849999999
 31
0.0
  0
LINE
  5
2C6
330
1E
100
AcDbEntity
  8
0
100
AcDbLine
 10
32.6405
 20
801.715285
 30
0.0
 11
32.89815218569319
 21
802.254452960221
 31
0.0
  0
LINE
  5
2CB
330
1E
100
AcDbEntity
  8
0
100
AcDbLine
 10
36.1565
 20
804.3382849999998
 30
0.0
 11
36.8635
 21
804.0842849999998
 31
0.0
  0
LINE
  5
2CC
330
1E
100
AcDbEntity
  8
0
100
AcDbLine
 10
35.61849999999999
 20
804.2882849999999
 30
0.0
 11
36.1565
 21
804.3382849999998
 31
0.0
  0
LINE
  5
2CE
330
1E
100
AcDbEntity
  8
0
100
AcDbLine
 10
35.58149999999999
 20
803.9492849999998
 30
0.0
 11
36.04249999999999
 21
803.5292849999999
 31
0.0
  0
LINE
  5
2CF
330
1E
100
AcDbEntity
  8
0
100
AcDbLine
 10
35.58149999999999
 20
803.9492849999998
 30
0.0
 11
35.61849999999999
 21
804.2882849999999
 31
0.0
  0
LINE
  5
2D0
330
1E
100
AcDbEntity
  8
0
100
AcDbLine
 10
36.04249999999999
 20
803.5292849999999
 30
0.0
 11
36.74949999999999
 21
803.2752849999999
 31
0.0
  0
LINE
  5
2D1
330
1E
100
AcDbEntity
  8
0
100
AcDbLine
 10
36.74949999999999
 20
803.2752849999999
 30
0.0
 11
37.2875
 21
803.325285
 31
0.0
  0
LINE
  5
2D5
330
1E
100
AcDbEntity
  8
0
100
AcDbLine
 10
37.2875
 20
803.325285
 30
0.0
 11
37.3245
 21
803.663285
 31
0.0
  0
LINE
  5
2D6
330
1E
100
AcDbEntity
  8
0
100
AcDbLine
 10
37.2875
 20
803.325285
 30
0.0
 11
37.3692674421356
 21
803.5685885667099
 31
0.0
  0
LINE
  5
2D7
330
1E
100
AcDbEntity
  8
0
100
AcDbLine
 10
36.8635
 20
804.0842849999998
 30
0.0
 11
37.3245
 21
803.663285
 31
0.0
  0
LINE
  5
300
330
1E
100
AcDbEntity
  8
0
100
AcDbLine
 10
1.67749999999993
 20
843.669285
 30
0.0
 11
2.10549999999996
 21
843.758285
 31
0.0
  0
LINE
  5
303
330
1E
100
AcDbEntity
  8
0
100
AcDbLine
 10
1.44749999999998
 20
843.4832849999999
 30
0.0
 11
1.67749999999993
 21
843.669285
 31
0.0
  0
LINE
  5
304
330
1E
100
AcDbEntity
  8
0
100
AcDbLine
 10
1.771499999999939
 20
844.1362849999999
 30
0.0
 11
1.808499999999949
 21
844.2862849999999
 31
0.0
  0
LINE
  5
305
330
1E
100
AcDbEntity
  8
0
100
AcDbLine
 10
1.771499999999939
 20
844.1362849999999
 30
0.0
 11
1.812499999999969
 21
843.988285
 31
0.0
  0
LINE
  5
30D
330
1E
100
AcDbEntity
  8
0
100
AcDbLine
 10
1.812499999999969
 20
843.988285
 30
0.0
 11
1.920499999999949
 21
843.879285
 31
0.0
  0
LINE
  5
30E
330
1E
100
AcDbEntity
  8
0
100
AcDbLine
 10
1.808499999999949
 20
844.2862849999999
 30
0.0
 11
4.458499999999959
 21
849.1092849999999
 31
0.0
  0
LINE
  5
30F
330
1E
100
AcDbEntity
  8
0
100
AcDbLine
 10
4.458499999999959
 20
849.1092849999999
 30
0.0
 11
4.92149999999998
 21
849.351285
 31
0.0
  0
LINE
  5
310
330
1E
100
AcDbEntity
  8
0
100
AcDbLine
 10
4.458499999999959
 20
849.1092849999999
 30
0.0
 11
4.536499999999949
 21
849.0642849999998
 31
0.0
  0
LINE
  5
311
330
1E
100
AcDbEntity
  8
0
100
AcDbLine
 10
4.92149999999998
 20
849.351285
 30
0.0
 11
5.783499999999959
 21
849.8562849999999
 31
0.0
  0
LINE
  5
318
330
1E
100
AcDbEntity
  8
0
100
AcDbLine
 10
74.73309999999999
 20
801.5592849999999
 30
0.0
 11
74.76069999999999
 21
801.475285
 31
0.0
  0
LINE
  5
319
330
1E
100
AcDbEntity
  8
0
100
AcDbLine
 10
74.90579901774641
 20
801.741791634501
 30
0.0
 11
75.03489999999999
 21
801.667285
 31
0.0
  0
LINE
  5
31A
330
1E
100
AcDbEntity
  8
0
100
AcDbLine
 10
75.03499999999999
 20
801.6662849999999
 30
0.0
 11
75.1811
 21
801.627285
 31
0.0
  0
LINE
  5
31B
330
1E
100
AcDbEntity
  8
0
100
AcDbLine
 10
74.5065
 20
801.9572849999999
 30
0.0
 11
74.6226
 21
801.8902849999999
 31
0.0
  0
LINE
  5
31C
330
1E
100
AcDbEntity
  8
0
100
AcDbLine
 10
74.6226
 20
801.8902849999999
 30
0.0
 11
74.73309999999999
 21
801.5592849999999
 31
0.0
  0
LINE
  5
31D
330
1E
100
AcDbEntity
  8
0
100
AcDbLine
 10
74.57886105320359
 20
801.9301122065479
 30
0.0
 11
74.6229
 21
801.889285
 31
0.0
  0
LINE
  5
31E
330
1E
100
AcDbEntity
  8
0
100
AcDbLine
 10
74.5069
 20
801.9562849999999
 30
0.0
 11
74.6229
 21
801.889285
 31
0.0
  0
LINE
  5
31F
330
1E
100
AcDbEntity
  8
0
100
AcDbLine
 10
74.90579901774641
 20
801.741791634501
 30
0.0
 11
75.03489999999999
 21
801.667285
 31
0.0
  0
LINE
  5
346
330
1E
100
AcDbEntity
  8
0
100
AcDbLine
 10
51.3765
 20
845.3282849999999
 30
0.0
 11
55.3815
 21
843.3502849999999
 31
0.0
  0
LINE
  5
34A
330
1E
100
AcDbEntity
  8
0
100
AcDbLine
 10
59.4425
 20
841.1752849999999
 30
0.0
 11
67.71250000000001
 21
836.254285
 31
0.0
  0
LINE
  5
34D
330
1E
100
AcDbEntity
  8
0
100
AcDbLine
 10
67.71250000000001
 20
836.254285
 30
0.0
 11
76.13859999999999
 21
830.613285
 31
0.0
  0
LINE
  5
350
330
1E
100
AcDbEntity
  8
0
100
AcDbLine
 10
55.3815
 20
843.3502849999999
 30
0.0
 11
59.4425
 21
841.1752849999999
 31
0.0
  0
LINE
  5
352
330
1E
100
AcDbEntity
  8
0
100
AcDbLine
 10
45.88049999999999
 20
847.7522849999999
 30
0.0
 11
51.3765
 21
845.3282849999999
 31
0.0
  0
LINE
  5
353
330
1E
100
AcDbEntity
  8
0
100
AcDbLine
 10
5.783499999999959
 20
849.8562849999999
 30
0.0
 11
8.98049999999997
 21
851.298285
 31
0.0
  0
LINE
  5
354
330
1E
100
AcDbEntity
  8
0
100
AcDbLine
 10
12.3645
 20
852.3552849999999
 30
0.0
 11
15.9285
 21
853.0352849999999
 31
0.0
  0
LINE
  5
355
330
1E
100
AcDbEntity
  8
0
100
AcDbLine
 10
24.5495
 20
853.2432850000001
 30
0.0
 11
27.59349999999999
 21
852.9202849999999
 31
0.0
  0
LINE
  5
356
330
1E
100
AcDbEntity
  8
0
100
AcDbLine
 10
21.58749999999999
 20
853.3742849999999
 30
0.0
 11
24.5495
 21
853.2432850000001
 31
0.0
  0
LINE
  5
357
330
1E
100
AcDbEntity
  8
0
100
AcDbLine
 10
18.7115
 20
853.306285
 30
0.0
 11
21.58749999999999
 21
853.3742849999999
 31
0.0
  0
LINE
  5
358
330
1E
100
AcDbEntity
  8
0
100
AcDbLine
 10
15.9285
 20
853.0352849999999
 30
0.0
 11
18.7115
 21
853.306285
 31
0.0
  0
LINE
  5
359
330
1E
100
AcDbEntity
  8
0
100
AcDbLine
 10
8.98049999999997
 20
851.298285
 30
0.0
 11
12.3645
 21
852.3552849999999
 31
0.0
  0
LINE
  5
35A
330
1E
100
AcDbEntity
  8
0
100
AcDbLine
 10
37.1855
 20
850.8242849999998
 30
0.0
 11
40.5215
 21
849.764285
 31
0.0
  0
LINE
  5
35B
330
1E
100
AcDbEntity
  8
0
100
AcDbLine
 10
33.9165
 20
851.706285
 30
0.0
 11
37.1855
 21
850.8242849999998
 31
0.0
  0
LINE
  5
35C
330
1E
100
AcDbEntity
  8
0
100
AcDbLine
 10
30.71849999999999
 20
852.4062849999999
 30
0.0
 11
33.9165
 21
851.706285
 31
0.0
  0
LINE
  5
35D
330
1E
100
AcDbEntity
  8
0
100
AcDbLine
 10
27.59349999999999
 20
852.9202849999999
 30
0.0
 11
30.71849999999999
 21
852.4062849999999
 31
0.0
  0
LINE
  5
35E
330
1E
100
AcDbEntity
  8
0
100
AcDbLine
 10
40.5215
 20
849.764285
 30
0.0
 11
45.88049999999999
 21
847.7522849999999
 31
0.0
  0
LINE
  5
35F
330
1E
100
AcDbEntity
  8
0
100
AcDbLine
 10
76.13859999999999
 20
830.613285
 30
0.0
 11
85.51239999999999
 21
823.642285
 31
0.0
  0
LINE
  5
360
330
1E
100
AcDbEntity
  8
0
100
AcDbLine
 10
75.1811
 20
801.627285
 30
0.0
 11
76.29139999999999
 21
801.517285
 31
0.0
  0
LINE
  5
361
330
1E
100
AcDbEntity
  8
0
100
AcDbLine
 10
76.29139999999999
 20
801.517285
 30
0.0
 11
77.4811
 21
801.2262849999999
 31
0.0
  0
LINE
  5
362
330
1E
100
AcDbEntity
  8
0
100
AcDbLine
 10
77.4811
 20
801.2262849999999
 30
0.0
 11
80.04890000000001
 21
800.163285
 31
0.0
  0
LINE
  5
363
330
1E
100
AcDbEntity
  8
0
100
AcDbLine
 10
80.04890000000001
 20
800.163285
 30
0.0
 11
82.66020000000001
 21
798.6492849999999
 31
0.0
  0
LINE
  5
364
330
1E
100
AcDbEntity
  8
0
100
AcDbLine
 10
85.51239999999999
 20
823.642285
 30
0.0
 11
90.07330000000001
 21
819.9152849999999
 31
0.0
  0
LINE
  5
365
330
1E
100
AcDbEntity
  8
0
100
AcDbLine
 10
82.66020000000001
 20
798.6492849999999
 30
0.0
 11
85.095657782953
 21
796.9298212609469
 31
0.0
  0
LINE
  5
366
330
1E
100
AcDbEntity
  8
0
100
AcDbLine
 10
84.58069999999999
 20
797.345285
 30
0.0
 11
88.4206
 21
794.2472849999999
 31
0.0
  0
LINE
  5
367
330
1E
100
AcDbEntity
  8
0
100
AcDbLine
 10
84.58069999999999
 20
797.345285
 30
0.0
 11
85.37119999999999
 21
796.735285
 31
0.0
  0
LINE
  5
368
330
1E
100
AcDbEntity
  8
0
100
AcDbLine
 10
90.07330000000001
 20
819.9152849999999
 30
0.0
 11
94.6165
 21
816.200285
 31
0.0
  0
LINE
  5
369
330
1E
100
AcDbEntity
  8
0
100
AcDbLine
 10
88.4206
 20
794.2472849999999
 30
0.0
 11
91.4591
 21
791.455285
 31
0.0
  0
LINE
  5
36A
330
1E
100
AcDbEntity
  8
0
100
AcDbLine
 10
91.4591
 20
791.455285
 30
0.0
 11
94.08790000000001
 21
788.803285
 31
0.0
  0
LINE
  5
36B
330
1E
100
AcDbEntity
  8
0
100
AcDbLine
 10
94.6165
 20
816.200285
 30
0.0
 11
103.2880999999999
 21
808.518285
 31
0.0
  0
LINE
  5
36C
330
1E
100
AcDbEntity
  8
0
100
AcDbLine
 10
94.08790000000001
 20
788.803285
 30
0.0
 11
96.64279999999999
 21
786.0162849999999
 31
0.0
  0
LINE
  5
36D
330
1E
100
AcDbEntity
  8
0
100
AcDbLine
 10
96.64279999999999
 20
786.0162849999999
 30
0.0
 11
101.4731
 21
780.1602849999999
 31
0.0
  0
LINE
  5
36E
330
1E
100
AcDbEntity
  8
0
100
AcDbLine
 10
103.2880999999999
 20
808.518285
 30
0.0
 11
111.5099
 21
800.706285
 31
0.0
  0
LINE
  5
36F
330
1E
100
AcDbEntity
  8
0
100
AcDbLine
 10
101.4731
 20
780.1602849999999
 30
0.0
 11
106.4021
 21
773.3512849999999
 31
0.0
  0
LINE
  5
370
330
1E
100
AcDbEntity
  8
0
100
AcDbLine
 10
106.4021
 20
773.3512849999999
 30
0.0
 11
110.1435
 21
767.7082849999999
 31
0.0
  0
LINE
  5
371
330
1E
100
AcDbEntity
  8
0
100
AcDbLine
 10
111.5099
 20
800.706285
 30
0.0
 11
119.4323
 21
792.690285
 31
0.0
  0
LINE
  5
372
330
1E
100
AcDbEntity
  8
0
100
AcDbLine
 10
119.4323
 20
792.690285
 30
0.0
 11
127.3926
 21
784.1282849999999
 31
0.0
  0
LINE
  5
373
330
1E
100
AcDbEntity
  8
0
100
AcDbLine
 10
127.3926
 20
784.1282849999999
 30
0.0
 11
136.6113
 21
773.5332849999999
 31
0.0
  0
LINE
  5
374
330
1E
100
AcDbEntity
  8
0
100
AcDbLine
 10
110.1435
 20
767.7082849999999
 30
0.0
 11
117.7556999999999
 21
755.7122849999999
 31
0.0
  0
LINE
  5
375
330
1E
100
AcDbEntity
  8
0
100
AcDbLine
 10
117.7556999999999
 20
755.7122849999999
 30
0.0
 11
127.636
 21
740.1302849999999
 31
0.0
  0
LINE
  5
378
330
1E
100
AcDbEntity
  8
0
100
AcDbLine
 10
154.77163
 20
750.3862849999999
 30
0.0
 11
163.7041
 21
737.7992849999999
 31
0.0
  0
LINE
  5
37E
330
1E
100
AcDbEntity
  8
0
100
AcDbLine
 10
145.7365
 20
762.2932849999999
 30
0.0
 11
154.77163
 21
750.3862849999999
 31
0.0
  0
LINE
  5
37F
330
1E
100
AcDbEntity
  8
0
100
AcDbLine
 10
136.6113
 20
773.5332849999999
 30
0.0
 11
145.7365
 21
762.2932849999999
 31
0.0
  0
LINE
  5
381
330
1E
100
AcDbEntity
  8
0
100
AcDbLine
 10
127.636
 20
740.1302849999999
 30
0.0
 11
132.8821
 21
732.1842849999999
 31
0.0
  0
LINE
  5
382
330
1E
100
AcDbEntity
  8
0
100
AcDbLine
 10
132.8821
 20
732.1842849999999
 30
0.0
 11
141.3614
 21
719.9672849999999
 31
0.0
  0
LINE
  5
383
330
1E
100
AcDbEntity
  8
0
100
AcDbLine
 10
160.422209
 20
695.1172849999998
 30
0.0
 11
160.6272699999999
 21
695.0402849999999
 31
0.0
  0
LINE
  5
384
330
1E
100
AcDbEntity
  8
0
100
AcDbLine
 10
168.6585
 20
267.981285
 30
0.0
 11
169.0585
 21
267.981285
 31
0.0
  0
LINE
  5
385
330
1E
100
AcDbEntity
  8
0
100
AcDbLine
 10
169.0585
 20
267.981285
 30
0.0
 11
170.0585
 21
267.981285
 31
0.0
  0
LINE
  5
386
330
1E
100
AcDbEntity
  8
0
100
AcDbLine
 10
170.0585
 20
267.981285
 30
0.0
 11
171.7584999999999
 21
267.981285
 31
0.0
  0
LINE
  5
387
330
1E
100
AcDbEntity
  8
0
100
AcDbLine
 10
171.7584999999999
 20
267.981285
 30
0.0
 11
173.9584999999999
 21
267.981285
 31
0.0
  0
LINE
  5
388
330
1E
100
AcDbEntity
  8
0
100
AcDbLine
 10
173.9584999999999
 20
267.981285
 30
0.0
 11
176.4584999999999
 21
267.981285
 31
0.0
  0
LINE
  5
389
330
1E
100
AcDbEntity
  8
0
100
AcDbLine
 10
176.4584999999999
 20
267.981285
 30
0.0
 11
179.1584999999999
 21
267.981285
 31
0.0
  0
LINE
  5
38A
330
1E
100
AcDbEntity
  8
0
100
AcDbLine
 10
168.5585
 20
268.481285
 30
0.0
 11
169.6584999999999
 21
268.481285
 31
0.0
  0
LINE
  5
38B
330
1E
100
AcDbEntity
  8
0
100
AcDbLine
 10
169.6584999999999
 20
268.481285
 30
0.0
 11
171.3584999999999
 21
268.481285
 31
0.0
  0
LINE
  5
38C
330
1E
100
AcDbEntity
  8
0
100
AcDbLine
 10
168.5585
 20
319.481285
 30
0.0
 11
169.6584999999999
 21
319.481285
 31
0.0
  0
LINE
  5
38D
330
1E
100
AcDbEntity
  8
0
100
AcDbLine
 10
171.3584999999999
 20
268.481285
 30
0.0
 11
173.6585
 21
268.481285
 31
0.0
  0
LINE
  5
38E
330
1E
100
AcDbEntity
  8
0
100
AcDbLine
 10
173.6585
 20
268.481285
 30
0.0
 11
176.3584999999999
 21
268.481285
 31
0.0
  0
LINE
  5
38F
330
1E
100
AcDbEntity
  8
0
100
AcDbLine
 10
169.6584999999999
 20
319.481285
 30
0.0
 11
171.3584999999999
 21
319.481285
 31
0.0
  0
LINE
  5
390
330
1E
100
AcDbEntity
  8
0
100
AcDbLine
 10
171.3584999999999
 20
319.481285
 30
0.0
 11
173.6585
 21
319.481285
 31
0.0
  0
LINE
  5
391
330
1E
100
AcDbEntity
  8
0
100
AcDbLine
 10
176.3584999999999
 20
268.481285
 30
0.0
 11
179.1584999999999
 21
268.481285
 31
0.0
  0
LINE
  5
392
330
1E
100
AcDbEntity
  8
0
100
AcDbLine
 10
179.1584999999999
 20
268.481285
 30
0.0
 11
212.0334631094729
 21
268.481285
 31
0.0
  0
LINE
  5
393
330
1E
100
AcDbEntity
  8
0
100
AcDbLine
 10
173.6585
 20
319.481285
 30
0.0
 11
176.3584999999999
 21
319.481285
 31
0.0
  0
LINE
  5
394
330
1E
100
AcDbEntity
  8
0
100
AcDbLine
 10
176.3584999999999
 20
319.481285
 30
0.0
 11
179.1584999999999
 21
319.481285
 31
0.0
  0
LINE
  5
395
330
1E
100
AcDbEntity
  8
0
100
AcDbLine
 10
179.1584999999999
 20
319.481285
 30
0.0
 11
211.9941801034659
 21
319.481285
 31
0.0
  0
LINE
  5
396
330
1E
100
AcDbEntity
  8
0
100
AcDbLine
 10
179.1584999999999
 20
267.981285
 30
0.0
 11
212.033848236983
 21
267.981285
 31
0.0
  0
LINE
  5
397
330
1E
100
AcDbEntity
  8
0
100
AcDbLine
 10
168.1585
 20
268.481285
 30
0.0
 11
168.1585
 21
319.481285
 31
0.0
  0
LINE
  5
398
330
1E
100
AcDbEntity
  8
0
100
AcDbLine
 10
168.1585
 20
268.481285
 30
0.0
 11
168.6585
 21
267.981285
 31
0.0
  0
LINE
  5
399
330
1E
100
AcDbEntity
  8
0
100
AcDbLine
 10
168.1585
 20
268.481285
 30
0.0
 11
168.5585
 21
268.481285
 31
0.0
  0
LINE
  5
39A
330
1E
100
AcDbEntity
  8
0
100
AcDbLine
 10
168.6585
 20
319.981285
 30
0.0
 11
169.0585
 21
319.981285
 31
0.0
  0
LINE
  5
39B
330
1E
100
AcDbEntity
  8
0
100
AcDbLine
 10
169.0585
 20
319.981285
 30
0.0
 11
170.0585
 21
319.981285
 31
0.0
  0
LINE
  5
39C
330
1E
100
AcDbEntity
  8
0
100
AcDbLine
 10
170.0585
 20
319.981285
 30
0.0
 11
171.7584999999999
 21
319.981285
 31
0.0
  0
LINE
  5
39D
330
1E
100
AcDbEntity
  8
0
100
AcDbLine
 10
171.7584999999999
 20
319.981285
 30
0.0
 11
173.9584999999999
 21
319.981285
 31
0.0
  0
LINE
  5
39E
330
1E
100
AcDbEntity
  8
0
100
AcDbLine
 10
173.9584999999999
 20
319.981285
 30
0.0
 11
176.4584999999999
 21
319.981285
 31
0.0
  0
LINE
  5
39F
330
1E
100
AcDbEntity
  8
0
100
AcDbLine
 10
168.5585
 20
320.4822849999999
 30
0.0
 11
169.6584999999999
 21
320.4822849999999
 31
0.0
  0
LINE
  5
3A0
330
1E
100
AcDbEntity
  8
0
100
AcDbLine
 10
169.6584999999999
 20
320.4822849999999
 30
0.0
 11
171.3584999999999
 21
320.4822849999999
 31
0.0
  0
LINE
  5
3A1
330
1E
100
AcDbEntity
  8
0
100
AcDbLine
 10
171.3584999999999
 20
320.4822849999999
 30
0.0
 11
173.6585
 21
320.4822849999999
 31
0.0
  0
LINE
  5
3A2
330
1E
100
AcDbEntity
  8
0
100
AcDbLine
 10
179.1584999999999
 20
320.4822849999999
 30
0.0
 11
181.9585
 21
320.4822849999999
 31
0.0
  0
LINE
  5
3A3
330
1E
100
AcDbEntity
  8
0
100
AcDbLine
 10
173.6585
 20
320.4822849999999
 30
0.0
 11
176.3584999999999
 21
320.4822849999999
 31
0.0
  0
LINE
  5
3A4
330
1E
100
AcDbEntity
  8
0
100
AcDbLine
 10
176.3584999999999
 20
320.4822849999999
 30
0.0
 11
179.1584999999999
 21
320.4822849999999
 31
0.0
  0
LINE
  5
3A5
330
1E
100
AcDbEntity
  8
0
100
AcDbLine
 10
168.1585
 20
320.4822849999999
 30
0.0
 11
168.6585
 21
319.981285
 31
0.0
  0
LINE
  5
3A6
330
1E
100
AcDbEntity
  8
0
100
AcDbLine
 10
168.1585
 20
320.4822849999999
 30
0.0
 11
168.1585
 21
671.7998887735849
 31
0.0
  0
LINE
  5
3A7
330
1E
100
AcDbEntity
  8
0
100
AcDbLine
 10
168.1585
 20
320.4822849999999
 30
0.0
 11
168.5585
 21
320.4822849999999
 31
0.0
  0
LINE
  5
3A8
330
1E
100
AcDbEntity
  8
0
100
AcDbLine
 10
176.4584999999999
 20
319.981285
 30
0.0
 11
179.1584999999999
 21
319.981285
 31
0.0
  0
LINE
  5
3A9
330
1E
100
AcDbEntity
  8
0
100
AcDbLine
 10
186.9584999999999
 20
320.4822849999999
 30
0.0
 11
188.6585
 21
320.4822849999999
 31
0.0
  0
LINE
  5
3AA
330
1E
100
AcDbEntity
  8
0
100
AcDbLine
 10
184.6585
 20
320.4822849999999
 30
0.0
 11
186.9584999999999
 21
320.4822849999999
 31
0.0
  0
LINE
  5
3AB
330
1E
100
AcDbEntity
  8
0
100
AcDbLine
 10
181.9585
 20
320.4822849999999
 30
0.0
 11
184.6585
 21
320.4822849999999
 31
0.0
  0
LINE
  5
3AC
330
1E
100
AcDbEntity
  8
0
100
AcDbLine
 10
179.1584999999999
 20
319.981285
 30
0.0
 11
211.993794975956
 21
319.981285
 31
0.0
  0
LINE
  5
3AD
330
1E
100
AcDbEntity
  8
0
100
AcDbLine
 10
168.1585
 20
319.481285
 30
0.0
 11
168.6585
 21
319.981285
 31
0.0
  0
LINE
  5
3AE
330
1E
100
AcDbEntity
  8
0
100
AcDbLine
 10
168.1585
 20
319.481285
 30
0.0
 11
168.5585
 21
319.481285
 31
0.0
  0
LINE
  5
3AF
330
1E
100
AcDbEntity
  8
0
100
AcDbLine
 10
168.1585
 20
319.481285
 30
0.0
 11
168.1585
 21
268.481285
 31
0.0
  0
LINE
  5
3B0
330
1E
100
AcDbEntity
  8
0
100
AcDbLine
 10
189.6584999999999
 20
319.981285
 30
0.0
 11
190.1585
 21
320.4822849999999
 31
0.0
  0
LINE
  5
3B1
330
1E
100
AcDbEntity
  8
0
100
AcDbLine
 10
190.1585
 20
320.4822849999999
 30
0.0
 11
190.1585
 21
645.088366331477
 31
0.0
  0
LINE
  5
3B2
330
1E
100
AcDbEntity
  8
0
100
AcDbLine
 10
189.7585
 20
320.4822849999999
 30
0.0
 11
190.1585
 21
320.4822849999999
 31
0.0
  0
LINE
  5
3B3
330
1E
100
AcDbEntity
  8
0
100
AcDbLine
 10
188.6585
 20
320.4822849999999
 30
0.0
 11
189.7585
 21
320.4822849999999
 31
0.0
  0
LINE
  5
3B4
330
1E
100
AcDbEntity
  8
0
100
AcDbLine
 10
188.4356
 20
650.0592849999999
 30
0.0
 11
196.3366
 21
627.2632849999999
 31
0.0
  0
LINE
  5
3B5
330
1E
100
AcDbEntity
  8
0
100
AcDbLine
 10
169.9824999999999
 20
670.4232849999999
 30
0.0
 11
174.4225
 21
668.647285
 31
0.0
  0
LINE
  5
3B6
330
1E
100
AcDbEntity
  8
0
100
AcDbLine
 10
170.2045
 20
670.8672849999999
 30
0.0
 11
174.4965
 21
669.091285
 31
0.0
  0
LINE
  5
3B7
330
1E
100
AcDbEntity
  8
0
100
AcDbLine
 10
174.4225
 20
668.647285
 30
0.0
 11
179.1584999999999
 21
667.9812849999999
 31
0.0
  0
LINE
  5
3B8
330
1E
100
AcDbEntity
  8
0
100
AcDbLine
 10
179.1584999999999
 20
667.9812849999999
 30
0.0
 11
183.8945
 21
668.647285
 31
0.0
  0
LINE
  5
3B9
330
1E
100
AcDbEntity
  8
0
100
AcDbLine
 10
179.1584999999999
 20
668.4252849999999
 30
0.0
 11
183.8205
 21
669.091285
 31
0.0
  0
LINE
  5
3BA
330
1E
100
AcDbEntity
  8
0
100
AcDbLine
 10
174.4965
 20
669.091285
 30
0.0
 11
179.1584999999999
 21
668.4252849999999
 31
0.0
  0
LINE
  5
3BB
330
1E
100
AcDbEntity
  8
0
100
AcDbLine
 10
161.7684999999999
 20
691.1432849999999
 30
0.0
 11
163.5444999999999
 21
695.4352849999999
 31
0.0
  0
LINE
  5
3BC
330
1E
100
AcDbEntity
  8
0
100
AcDbLine
 10
161.1024999999999
 20
686.4812849999999
 30
0.0
 11
161.7684999999999
 21
681.8192849999999
 31
0.0
  0
LINE
  5
3BD
330
1E
100
AcDbEntity
  8
0
100
AcDbLine
 10
161.1024999999999
 20
686.4812849999999
 30
0.0
 11
161.7684999999999
 21
691.1432849999999
 31
0.0
  0
LINE
  5
3BE
330
1E
100
AcDbEntity
  8
0
100
AcDbLine
 10
160.6585
 20
686.4812849999999
 30
0.0
 11
161.3245
 21
681.7452849999999
 31
0.0
  0
LINE
  5
3BF
330
1E
100
AcDbEntity
  8
0
100
AcDbLine
 10
160.6585
 20
686.4812849999999
 30
0.0
 11
161.3245
 21
691.2172849999999
 31
0.0
  0
LINE
  5
3C0
330
1E
100
AcDbEntity
  8
0
100
AcDbLine
 10
161.3245
 20
681.7452849999999
 30
0.0
 11
163.1005
 21
677.3052849999999
 31
0.0
  0
LINE
  5
3C1
330
1E
100
AcDbEntity
  8
0
100
AcDbLine
 10
161.7684999999999
 20
681.8192849999999
 30
0.0
 11
163.5444999999999
 21
677.527285
 31
0.0
  0
LINE
  5
3C2
330
1E
100
AcDbEntity
  8
0
100
AcDbLine
 10
161.3245
 20
691.2172849999999
 30
0.0
 11
162.748631987623
 21
694.777614969057
 31
0.0
  0
LINE
  5
3C3
330
1E
100
AcDbEntity
  8
0
100
AcDbLine
 10
161.3245
 20
691.2172849999999
 30
0.0
 11
163.1005
 21
695.657285
 31
0.0
  0
LINE
  5
3C4
330
1E
100
AcDbEntity
  8
0
100
AcDbLine
 10
163.5444999999999
 20
677.527285
 30
0.0
 11
166.4304999999999
 21
673.753285
 31
0.0
  0
LINE
  5
3C5
330
1E
100
AcDbEntity
  8
0
100
AcDbLine
 10
166.4304999999999
 20
673.753285
 30
0.0
 11
168.1585
 21
672.431873235294
 31
0.0
  0
LINE
  5
3C6
330
1E
100
AcDbEntity
  8
0
100
AcDbLine
 10
166.4304999999999
 20
673.753285
 30
0.0
 11
170.2045
 21
670.8672849999999
 31
0.0
  0
LINE
  5
3C7
330
1E
100
AcDbEntity
  8
0
100
AcDbLine
 10
163.1005
 20
677.3052849999999
 30
0.0
 11
166.0604999999999
 21
673.3832849999999
 31
0.0
  0
LINE
  5
3C8
330
1E
100
AcDbEntity
  8
0
100
AcDbLine
 10
166.0604999999999
 20
673.3832849999999
 30
0.0
 11
168.1585
 21
671.7998887735849
 31
0.0
  0
LINE
  5
3C9
330
1E
100
AcDbEntity
  8
0
100
AcDbLine
 10
166.0604999999999
 20
673.3832849999999
 30
0.0
 11
169.9824999999999
 21
670.4232849999999
 31
0.0
  0
LINE
  5
3CA
330
1E
100
AcDbEntity
  8
0
100
AcDbLine
 10
180.7883952674929
 20
668.210489021991
 30
0.0
 11
188.4356
 21
650.0592849999999
 31
0.0
  0
LINE
  5
3CB
330
1E
100
AcDbEntity
  8
0
100
AcDbLine
 10
183.8945
 20
668.647285
 30
0.0
 11
188.3345
 21
670.4232849999999
 31
0.0
  0
LINE
  5
3CC
330
1E
100
AcDbEntity
  8
0
100
AcDbLine
 10
183.8205
 20
669.091285
 30
0.0
 11
188.1125
 21
670.8672849999999
 31
0.0
  0
LINE
  5
3CD
330
1E
100
AcDbEntity
  8
0
100
AcDbLine
 10
180.90493276624
 20
668.2268771077519
 30
0.0
 11
188.9105999999999
 21
650.360285
 31
0.0
  0
LINE
  5
3CE
330
1E
100
AcDbEntity
  8
0
100
AcDbLine
 10
188.3345
 20
670.4232849999999
 30
0.0
 11
192.2564999999999
 21
673.3832849999999
 31
0.0
  0
LINE
  5
3CF
330
1E
100
AcDbEntity
  8
0
100
AcDbLine
 10
188.1125
 20
670.8672849999999
 30
0.0
 11
191.8865
 21
673.753285
 31
0.0
  0
LINE
  5
3D0
330
1E
100
AcDbEntity
  8
0
100
AcDbLine
 10
180.659374447632
 20
668.192345469198
 30
0.0
 11
188.4356
 21
650.0592849999999
 31
0.0
  0
LINE
  5
3D1
330
1E
100
AcDbEntity
  8
0
100
AcDbLine
 10
192.2564999999999
 20
673.3832849999999
 30
0.0
 11
195.2164999999999
 21
677.3052849999999
 31
0.0
  0
LINE
  5
3D2
330
1E
100
AcDbEntity
  8
0
100
AcDbLine
 10
191.8865
 20
673.753285
 30
0.0
 11
194.7725
 21
677.527285
 31
0.0
  0
LINE
  5
3D3
330
1E
100
AcDbEntity
  8
0
100
AcDbLine
 10
196.3366
 20
627.2632849999999
 30
0.0
 11
202.5365999999999
 21
602.8662849999999
 31
0.0
  0
LINE
  5
3D4
330
1E
100
AcDbEntity
  8
0
100
AcDbLine
 10
211.8355999999999
 20
525.3612849999999
 30
0.0
 11
212.2376
 21
3.456214999999959
 31
0.0
  0
LINE
  5
3D5
330
1E
100
AcDbEntity
  8
0
100
AcDbLine
 10
211.8355999999999
 20
525.3612849999999
 30
0.0
 11
212.2376
 21
3.45621499999997
 31
0.0
  0
LINE
  5
3D6
330
1E
100
AcDbEntity
  8
0
100
AcDbLine
 10
221.1536
 20
0.0187149999999621
 30
0.0
 11
224.0596
 21
0.5270149999999621
 31
0.0
  0
LINE
  5
3D7
330
1E
100
AcDbEntity
  8
0
100
AcDbLine
 10
226.4515999999999
 20
1.47801499999996
 30
0.0
 11
227.8805999999999
 21
2.85181499999996
 31
0.0
  0
LINE
  5
3D8
330
1E
100
AcDbEntity
  8
0
100
AcDbLine
 10
224.0596
 20
0.5270149999999621
 30
0.0
 11
226.4515999999999
 21
1.47801499999996
 31
0.0
  0
LINE
  5
3D9
330
1E
100
AcDbEntity
  8
0
100
AcDbLine
 10
218.0106
 20
0.147614999999962
 30
0.0
 11
221.1536
 21
0.0187149999999621
 31
0.0
  0
LINE
  5
3DA
330
1E
100
AcDbEntity
  8
0
100
AcDbLine
 10
215.2115999999999
 20
0.8503149999999619
 30
0.0
 11
218.0106
 21
0.147614999999962
 31
0.0
  0
LINE
  5
3DB
330
1E
100
AcDbEntity
  8
0
100
AcDbLine
 10
227.1135999999999
 20
5.821214999999959
 30
0.0
 11
228.1435999999999
 21
4.393614999999959
 31
0.0
  0
LINE
  5
3DC
330
1E
100
AcDbEntity
  8
0
100
AcDbLine
 10
225.1775999999999
 20
6.997314999999959
 30
0.0
 11
227.1135999999999
 21
5.821214999999959
 31
0.0
  0
LINE
  5
3DD
330
1E
100
AcDbEntity
  8
0
100
AcDbLine
 10
222.3835999999999
 20
7.701114999999959
 30
0.0
 11
225.1775999999999
 21
6.997314999999959
 31
0.0
  0
LINE
  5
3DE
330
1E
100
AcDbEntity
  8
0
100
AcDbLine
 10
219.2406
 20
7.832214999999959
 30
0.0
 11
222.3835999999999
 21
7.701114999999959
 31
0.0
  0
LINE
  5
3DF
330
1E
100
AcDbEntity
  8
0
100
AcDbLine
 10
216.3305999999999
 20
7.327014999999959
 30
0.0
 11
219.2406
 21
7.832214999999959
 31
0.0
  0
LINE
  5
3E0
330
1E
100
AcDbEntity
  8
0
100
AcDbLine
 10
213.9355999999999
 20
6.374914999999959
 30
0.0
 11
216.3305999999999
 21
7.327014999999959
 31
0.0
  0
LINE
  5
3E1
330
1E
100
AcDbEntity
  8
0
100
AcDbLine
 10
212.5026
 20
5.00121499999996
 30
0.0
 11
213.9355999999999
 21
6.374914999999959
 31
0.0
  0
LINE
  5
3E2
330
1E
100
AcDbEntity
  8
0
100
AcDbLine
 10
227.8356
 20
525.3652849999999
 30
0.0
 11
228.1435999999999
 21
4.39361499999997
 31
0.0
  0
LINE
  5
3E3
330
1E
100
AcDbEntity
  8
0
100
AcDbLine
 10
227.8356
 20
525.3652849999999
 30
0.0
 11
228.1435999999999
 21
4.393614999999959
 31
0.0
  0
LINE
  5
3E4
330
1E
100
AcDbEntity
  8
0
100
AcDbLine
 10
227.9877661859269
 20
267.981285
 30
0.0
 11
240.6585
 21
267.981285
 31
0.0
  0
LINE
  5
3E5
330
1E
100
AcDbEntity
  8
0
100
AcDbLine
 10
227.9874705844409
 20
268.481285
 30
0.0
 11
241.1585
 21
268.481285
 31
0.0
  0
LINE
  5
3E6
330
1E
100
AcDbEntity
  8
0
100
AcDbLine
 10
227.9573192328329
 20
319.481285
 30
0.0
 11
241.1585
 21
319.481285
 31
0.0
  0
LINE
  5
3E7
330
1E
100
AcDbEntity
  8
0
100
AcDbLine
 10
227.957023631346
 20
319.981285
 30
0.0
 11
240.6585
 21
319.981285
 31
0.0
  0
LINE
  5
3E8
330
1E
100
AcDbEntity
  8
0
100
AcDbLine
 10
227.9877661859269
 20
267.981285
 30
0.0
 11
240.6585
 21
267.981285
 31
0.0
  0
LINE
  5
3E9
330
1E
100
AcDbEntity
  8
0
100
AcDbLine
 10
241.1585
 20
268.481285
 30
0.0
 11
241.1585
 21
319.481285
 31
0.0
  0
LINE
  5
3EA
330
1E
100
AcDbEntity
  8
0
100
AcDbLine
 10
241.1585
 20
319.481285
 30
0.0
 11
241.1585
 21
268.481285
 31
0.0
  0
LINE
  5
3EB
330
1E
100
AcDbEntity
  8
0
100
AcDbLine
 10
240.6585
 20
267.981285
 30
0.0
 11
241.1585
 21
268.481285
 31
0.0
  0
LINE
  5
3EC
330
1E
100
AcDbEntity
  8
0
100
AcDbLine
 10
240.6585
 20
319.981285
 30
0.0
 11
241.1585
 21
319.481285
 31
0.0
  0
LINE
  5
3ED
330
1E
100
AcDbEntity
  8
0
100
AcDbLine
 10
227.8805999999999
 20
2.85181499999996
 30
0.0
 11
228.1435999999999
 21
4.393614999999959
 31
0.0
  0
LINE
  5
3EE
330
1E
100
AcDbEntity
  8
0
100
AcDbLine
 10
213.2716
 20
2.026514999999959
 30
0.0
 11
215.2115999999999
 21
0.8503149999999619
 31
0.0
  0
LINE
  5
3EF
330
1E
100
AcDbEntity
  8
0
100
AcDbLine
 10
212.2376
 20
3.456214999999959
 30
0.0
 11
213.2716
 21
2.026514999999959
 31
0.0
  0
LINE
  5
3F0
330
1E
100
AcDbEntity
  8
0
100
AcDbLine
 10
212.2376
 20
3.456214999999959
 30
0.0
 11
212.5026
 21
5.00121499999996
 31
0.0
  0
LINE
  5
3F1
330
1E
100
AcDbEntity
  8
0
100
AcDbLine
 10
225.8356
 20
559.7662849999998
 30
0.0
 11
227.8356
 21
525.3652849999999
 31
0.0
  0
LINE
  5
3F2
330
1E
100
AcDbEntity
  8
0
100
AcDbLine
 10
210.0346
 20
556.962285
 30
0.0
 11
211.8355999999999
 21
525.3612849999999
 31
0.0
  0
LINE
  5
3F3
330
1E
100
AcDbEntity
  8
0
100
AcDbLine
 10
222.1356
 20
584.1642849999999
 30
0.0
 11
225.8356
 21
559.7662849999998
 31
0.0
  0
LINE
  5
3F4
330
1E
100
AcDbEntity
  8
0
100
AcDbLine
 10
207.1356
 20
578.6592849999999
 30
0.0
 11
210.0346
 21
556.962285
 31
0.0
  0
LINE
  5
3F5
330
1E
100
AcDbEntity
  8
0
100
AcDbLine
 10
217.0355999999999
 20
609.561285
 30
0.0
 11
222.1356
 21
584.1642849999999
 31
0.0
  0
LINE
  5
3F6
330
1E
100
AcDbEntity
  8
0
100
AcDbLine
 10
202.5365999999999
 20
602.8662849999999
 30
0.0
 11
207.1356
 21
578.6592849999999
 31
0.0
  0
LINE
  5
3F7
330
1E
100
AcDbEntity
  8
0
100
AcDbLine
 10
210.2355999999999
 20
635.2692849999999
 30
0.0
 11
217.0355999999999
 21
609.561285
 31
0.0
  0
LINE
  5
3F8
330
1E
100
AcDbEntity
  8
0
100
AcDbLine
 10
201.8365999999999
 20
658.7552849999999
 30
0.0
 11
210.2355999999999
 21
635.2692849999999
 31
0.0
  0
LINE
  5
3F9
330
1E
100
AcDbEntity
  8
0
100
AcDbLine
 10
196.5484999999999
 20
691.1432849999999
 30
0.0
 11
197.2144999999999
 21
686.4812849999999
 31
0.0
  0
LINE
  5
3FA
330
1E
100
AcDbEntity
  8
0
100
AcDbLine
 10
196.9925
 20
691.2172849999999
 30
0.0
 11
197.6585
 21
686.4812849999999
 31
0.0
  0
LINE
  5
3FB
330
1E
100
AcDbEntity
  8
0
100
AcDbLine
 10
196.5484999999999
 20
681.8192849999999
 30
0.0
 11
197.2144999999999
 21
686.4812849999999
 31
0.0
  0
LINE
  5
3FC
330
1E
100
AcDbEntity
  8
0
100
AcDbLine
 10
196.9925
 20
681.7452849999999
 30
0.0
 11
197.6585
 21
686.4812849999999
 31
0.0
  0
LINE
  5
3FD
330
1E
100
AcDbEntity
  8
0
100
AcDbLine
 10
195.2164999999999
 20
677.3052849999999
 30
0.0
 11
196.9925
 21
681.7452849999999
 31
0.0
  0
LINE
  5
3FE
330
1E
100
AcDbEntity
  8
0
100
AcDbLine
 10
194.7725
 20
677.527285
 30
0.0
 11
196.5484999999999
 21
681.8192849999999
 31
0.0
  0
LINE
  5
3FF
330
1E
100
AcDbEntity
  8
0
100
AcDbLine
 10
194.0170602034909
 20
675.716027269626
 30
0.0
 11
201.8365999999999
 21
658.7552849999999
 31
0.0
  0
LINE
  5
400
330
1E
100
AcDbEntity
  8
0
100
AcDbLine
 10
161.082611
 20
695.1252849999999
 30
0.0
 11
161.4008
 21
695.3282849999999
 31
0.0
  0
LINE
  5
401
330
1E
100
AcDbEntity
  8
0
100
AcDbLine
 10
160.930509
 20
695.0612849999999
 30
0.0
 11
161.082611
 21
695.1252849999999
 31
0.0
  0
LINE
  5
402
330
1E
100
AcDbEntity
  8
0
100
AcDbLine
 10
160.657117
 20
695.0302849999999
 30
0.0
 11
160.908018
 21
695.0522849999999
 31
0.0
  0
LINE
  5
403
330
1E
100
AcDbEntity
  8
0
100
AcDbLine
 10
162.0791796617469
 20
695.8139323582059
 30
0.0
 11
162.748631987623
 21
694.777614969057
 31
0.0
  0
LINE
  5
404
330
1E
100
AcDbEntity
  8
0
100
AcDbLine
 10
161.4455839999999
 20
695.3572849999999
 30
0.0
 11
162.2441499999999
 21
695.921285
 31
0.0
  0
LINE
  5
405
330
1E
100
AcDbEntity
  8
0
100
AcDbLine
 10
161.4455839999999
 20
695.3572849999999
 30
0.0
 11
162.083243186058
 21
695.8076419910769
 31
0.0
  0
LINE
  5
406
330
1E
100
AcDbEntity
  8
0
100
AcDbLine
 10
163.5444999999999
 20
695.4352849999999
 30
0.0
 11
166.4304999999999
 21
699.2092849999998
 31
0.0
  0
LINE
  5
407
330
1E
100
AcDbEntity
  8
0
100
AcDbLine
 10
163.1005
 20
695.657285
 30
0.0
 11
166.0604999999999
 21
699.5792849999999
 31
0.0
  0
LINE
  5
408
330
1E
100
AcDbEntity
  8
0
100
AcDbLine
 10
194.7725
 20
695.4352849999999
 30
0.0
 11
196.5484999999999
 21
691.1432849999999
 31
0.0
  0
LINE
  5
409
330
1E
100
AcDbEntity
  8
0
100
AcDbLine
 10
195.2164999999999
 20
695.657285
 30
0.0
 11
196.9925
 21
691.2172849999999
 31
0.0
  0
LINE
  5
40A
330
1E
100
AcDbEntity
  8
0
100
AcDbLine
 10
166.4304999999999
 20
699.2092849999998
 30
0.0
 11
170.2045
 21
702.095285
 31
0.0
  0
LINE
  5
40B
330
1E
100
AcDbEntity
  8
0
100
AcDbLine
 10
166.0604999999999
 20
699.5792849999999
 30
0.0
 11
169.9824999999999
 21
702.5392849999999
 31
0.0
  0
LINE
  5
40C
330
1E
100
AcDbEntity
  8
0
100
AcDbLine
 10
170.2045
 20
702.095285
 30
0.0
 11
174.4965
 21
703.8712849999999
 31
0.0
  0
LINE
  5
40D
330
1E
100
AcDbEntity
  8
0
100
AcDbLine
 10
169.9824999999999
 20
702.5392849999999
 30
0.0
 11
174.4225
 21
704.315285
 31
0.0
  0
LINE
  5
40E
330
1E
100
AcDbEntity
  8
0
100
AcDbLine
 10
174.4965
 20
703.8712849999999
 30
0.0
 11
179.1584999999999
 21
704.5372849999999
 31
0.0
  0
LINE
  5
40F
330
1E
100
AcDbEntity
  8
0
100
AcDbLine
 10
174.4225
 20
704.315285
 30
0.0
 11
179.1584999999999
 21
704.9812849999999
 31
0.0
  0
LINE
  5
410
330
1E
100
AcDbEntity
  8
0
100
AcDbLine
 10
174.52339928117
 20
704.329473961414
 30
0.0
 11
176.3486
 21
705.383285
 31
0.0
  0
LINE
  5
411
330
1E
100
AcDbEntity
  8
0
100
AcDbLine
 10
174.035801312885
 20
704.160605525154
 30
0.0
 11
175.6102999999999
 21
705.3602849999999
 31
0.0
  0
LINE
  5
412
330
1E
100
AcDbEntity
  8
0
100
AcDbLine
 10
175.6102999999999
 20
705.3602849999999
 30
0.0
 11
175.9919809305519
 21
705.6410545705479
 31
0.0
  0
LINE
  5
413
330
1E
100
AcDbEntity
  8
0
100
AcDbLine
 10
176.3486
 20
705.383285
 30
0.0
 11
178.4270999999999
 21
706.5832849999999
 31
0.0
  0
LINE
  5
414
330
1E
100
AcDbEntity
  8
0
100
AcDbLine
 10
176.1223
 20
705.3672849999998
 30
0.0
 11
177.9597
 21
706.7262849999999
 31
0.0
  0
LINE
  5
415
330
1E
100
AcDbEntity
  8
0
100
AcDbLine
 10
175.508414912686
 20
704.898189683999
 30
0.0
 11
176.1223
 21
705.3672849999998
 31
0.0
  0
LINE
  5
416
330
1E
100
AcDbEntity
  8
0
100
AcDbLine
 10
173.719388641254
 20
704.0340404565021
 30
0.0
 11
175.3386
 21
705.1792849999999
 31
0.0
  0
LINE
  5
417
330
1E
100
AcDbEntity
  8
0
100
AcDbLine
 10
179.1584999999999
 20
704.5372849999999
 30
0.0
 11
183.8205
 21
703.8712849999999
 31
0.0
  0
LINE
  5
418
330
1E
100
AcDbEntity
  8
0
100
AcDbLine
 10
179.1584999999999
 20
704.9812849999999
 30
0.0
 11
183.8945
 21
704.315285
 31
0.0
  0
LINE
  5
419
330
1E
100
AcDbEntity
  8
0
100
AcDbLine
 10
177.720494778876
 20
706.175333946188
 30
0.0
 11
178.9447999999999
 21
707.090285
 31
0.0
  0
LINE
  5
41A
330
1E
100
AcDbEntity
  8
0
100
AcDbLine
 10
178.4270999999999
 20
706.5832849999999
 30
0.0
 11
180.0724999999999
 21
707.5332849999999
 31
0.0
  0
LINE
  5
41B
330
1E
100
AcDbEntity
  8
0
100
AcDbLine
 10
178.9447999999999
 20
707.090285
 30
0.0
 11
179.7594
 21
707.696285
 31
0.0
  0
LINE
  5
41C
330
1E
100
AcDbEntity
  8
0
100
AcDbLine
 10
177.9597
 20
706.7262849999999
 30
0.0
 11
179.3176
 21
707.738285
 31
0.0
  0
LINE
  5
41D
330
1E
100
AcDbEntity
  8
0
100
AcDbLine
 10
176.6162999999999
 20
706.082285
 30
0.0
 11
178.2675
 21
707.2502849999999
 31
0.0
  0
LINE
  5
41E
330
1E
100
AcDbEntity
  8
0
100
AcDbLine
 10
179.9845720836819
 20
707.964550853816
 30
0.0
 11
180.224930732661
 21
707.6212842683569
 31
0.0
  0
LINE
  5
41F
330
1E
100
AcDbEntity
  8
0
100
AcDbLine
 10
179.9845720836819
 20
707.964550853816
 30
0.0
 11
180.224930732661
 21
707.6212842683569
 31
0.0
  0
LINE
  5
420
330
1E
100
AcDbEntity
  8
0
100
AcDbLine
 10
179.7594
 20
707.696285
 30
0.0
 11
180.0252
 21
707.9062849999999
 31
0.0
  0
LINE
  5
421
330
1E
100
AcDbEntity
  8
0
100
AcDbLine
 10
180.0724999999999
 20
707.5332849999999
 30
0.0
 11
181.0252
 21
708.0832849999999
 31
0.0
  0
LINE
  5
422
330
1E
100
AcDbEntity
  8
0
100
AcDbLine
 10
180.224930732661
 20
707.6212842683569
 30
0.0
 11
181.0252
 21
708.0832849999999
 31
0.0
  0
LINE
  5
423
330
1E
100
AcDbEntity
  8
0
100
AcDbLine
 10
180.0252
 20
707.9062849999999
 30
0.0
 11
180.5483999999999
 21
708.6362849999999
 31
0.0
  0
LINE
  5
424
330
1E
100
AcDbEntity
  8
0
100
AcDbLine
 10
180.017648770856
 20
708.4870802930569
 30
0.0
 11
180.5483999999999
 21
708.6362849999999
 31
0.0
  0
LINE
  5
425
330
1E
100
AcDbEntity
  8
0
100
AcDbLine
 10
180.2072
 20
708.3842849999999
 30
0.0
 11
180.5483999999999
 21
708.6362849999999
 31
0.0
  0
LINE
  5
426
330
1E
100
AcDbEntity
  8
0
100
AcDbLine
 10
179.3176
 20
707.738285
 30
0.0
 11
180.2072
 21
708.3842849999999
 31
0.0
  0
LINE
  5
427
330
1E
100
AcDbEntity
  8
0
100
AcDbLine
 10
178.2675
 20
707.2502849999999
 30
0.0
 11
179.3997
 21
708.0512849999999
 31
0.0
  0
LINE
  5
428
330
1E
100
AcDbEntity
  8
0
100
AcDbLine
 10
181.0252
 20
708.0832849999999
 30
0.0
 11
181.3716
 21
708.2832849999999
 31
0.0
  0
LINE
  5
429
330
1E
100
AcDbEntity
  8
0
100
AcDbLine
 10
180.8925999999999
 20
709.1052849999999
 30
0.0
 11
181.2324
 21
709.369285
 31
0.0
  0
LINE
  5
42A
330
1E
100
AcDbEntity
  8
0
100
AcDbLine
 10
180.2278
 20
708.6352849999999
 30
0.0
 11
180.7274999999999
 21
708.989285
 31
0.0
  0
LINE
  5
42B
330
1E
100
AcDbEntity
  8
0
100
AcDbLine
 10
168.1585
 20
885.481285
 30
0.0
 11
168.6585
 21
884.9812849999999
 31
0.0
  0
LINE
  5
42C
330
1E
100
AcDbEntity
  8
0
100
AcDbLine
 10
168.1585
 20
885.481285
 30
0.0
 11
168.1585
 21
936.4812849999999
 31
0.0
  0
LINE
  5
42D
330
1E
100
AcDbEntity
  8
0
100
AcDbLine
 10
168.1585
 20
885.481285
 30
0.0
 11
168.5585
 21
885.481285
 31
0.0
  0
LINE
  5
42E
330
1E
100
AcDbEntity
  8
0
100
AcDbLine
 10
168.1585
 20
936.4812849999999
 30
0.0
 11
168.6585
 21
936.981285
 31
0.0
  0
LINE
  5
42F
330
1E
100
AcDbEntity
  8
0
100
AcDbLine
 10
168.1585
 20
936.4812849999999
 30
0.0
 11
168.1585
 21
885.481285
 31
0.0
  0
LINE
  5
430
330
1E
100
AcDbEntity
  8
0
100
AcDbLine
 10
168.1585
 20
936.4812849999999
 30
0.0
 11
168.5585
 21
936.4812849999999
 31
0.0
  0
LINE
  5
431
330
1E
100
AcDbEntity
  8
0
100
AcDbLine
 10
168.1585
 20
731.092932720572
 30
0.0
 11
168.1585
 21
884.480285
 31
0.0
  0
LINE
  5
432
330
1E
100
AcDbEntity
  8
0
100
AcDbLine
 10
168.5585
 20
884.480285
 30
0.0
 11
169.6584999999999
 21
884.480285
 31
0.0
  0
LINE
  5
433
330
1E
100
AcDbEntity
  8
0
100
AcDbLine
 10
169.6584999999999
 20
884.480285
 30
0.0
 11
171.3584999999999
 21
884.480285
 31
0.0
  0
LINE
  5
434
330
1E
100
AcDbEntity
  8
0
100
AcDbLine
 10
171.3584999999999
 20
884.480285
 30
0.0
 11
173.6585
 21
884.480285
 31
0.0
  0
LINE
  5
435
330
1E
100
AcDbEntity
  8
0
100
AcDbLine
 10
179.1584999999999
 20
884.480285
 30
0.0
 11
181.9585
 21
884.480285
 31
0.0
  0
LINE
  5
436
330
1E
100
AcDbEntity
  8
0
100
AcDbLine
 10
173.6585
 20
884.480285
 30
0.0
 11
176.3584999999999
 21
884.480285
 31
0.0
  0
LINE
  5
437
330
1E
100
AcDbEntity
  8
0
100
AcDbLine
 10
168.6585
 20
884.9812849999999
 30
0.0
 11
169.0585
 21
884.9812849999999
 31
0.0
  0
LINE
  5
438
330
1E
100
AcDbEntity
  8
0
100
AcDbLine
 10
169.0585
 20
884.9812849999999
 30
0.0
 11
170.0585
 21
884.9812849999999
 31
0.0
  0
LINE
  5
439
330
1E
100
AcDbEntity
  8
0
100
AcDbLine
 10
170.0585
 20
884.9812849999999
 30
0.0
 11
171.7584999999999
 21
884.9812849999999
 31
0.0
  0
LINE
  5
43A
330
1E
100
AcDbEntity
  8
0
100
AcDbLine
 10
171.7584999999999
 20
884.9812849999999
 30
0.0
 11
173.9584999999999
 21
884.9812849999999
 31
0.0
  0
LINE
  5
43B
330
1E
100
AcDbEntity
  8
0
100
AcDbLine
 10
168.5585
 20
885.481285
 30
0.0
 11
169.6584999999999
 21
885.481285
 31
0.0
  0
LINE
  5
43C
330
1E
100
AcDbEntity
  8
0
100
AcDbLine
 10
168.5585
 20
936.4812849999999
 30
0.0
 11
169.6584999999999
 21
936.4812849999999
 31
0.0
  0
LINE
  5
43D
330
1E
100
AcDbEntity
  8
0
100
AcDbLine
 10
168.6585
 20
936.981285
 30
0.0
 11
169.0585
 21
936.981285
 31
0.0
  0
LINE
  5
43E
330
1E
100
AcDbEntity
  8
0
100
AcDbLine
 10
169.6584999999999
 20
885.481285
 30
0.0
 11
171.3584999999999
 21
885.481285
 31
0.0
  0
LINE
  5
43F
330
1E
100
AcDbEntity
  8
0
100
AcDbLine
 10
171.3584999999999
 20
885.481285
 30
0.0
 11
173.6585
 21
885.481285
 31
0.0
  0
LINE
  5
440
330
1E
100
AcDbEntity
  8
0
100
AcDbLine
 10
169.6584999999999
 20
936.4812849999999
 30
0.0
 11
171.3584999999999
 21
936.4812849999999
 31
0.0
  0
LINE
  5
441
330
1E
100
AcDbEntity
  8
0
100
AcDbLine
 10
171.3584999999999
 20
936.4812849999999
 30
0.0
 11
173.6585
 21
936.4812849999999
 31
0.0
  0
LINE
  5
442
330
1E
100
AcDbEntity
  8
0
100
AcDbLine
 10
169.0585
 20
936.981285
 30
0.0
 11
170.0585
 21
936.981285
 31
0.0
  0
LINE
  5
443
330
1E
100
AcDbEntity
  8
0
100
AcDbLine
 10
170.0585
 20
936.981285
 30
0.0
 11
171.7584999999999
 21
936.981285
 31
0.0
  0
LINE
  5
444
330
1E
100
AcDbEntity
  8
0
100
AcDbLine
 10
173.6585
 20
885.481285
 30
0.0
 11
176.3584999999999
 21
885.481285
 31
0.0
  0
LINE
  5
445
330
1E
100
AcDbEntity
  8
0
100
AcDbLine
 10
176.3584999999999
 20
885.481285
 30
0.0
 11
179.1584999999999
 21
885.481285
 31
0.0
  0
LINE
  5
446
330
1E
100
AcDbEntity
  8
0
100
AcDbLine
 10
173.6585
 20
936.4812849999999
 30
0.0
 11
176.3584999999999
 21
936.4812849999999
 31
0.0
  0
LINE
  5
447
330
1E
100
AcDbEntity
  8
0
100
AcDbLine
 10
176.3584999999999
 20
936.4812849999999
 30
0.0
 11
179.1584999999999
 21
936.4812849999999
 31
0.0
  0
LINE
  5
448
330
1E
100
AcDbEntity
  8
0
100
AcDbLine
 10
171.7584999999999
 20
936.981285
 30
0.0
 11
173.9584999999999
 21
936.981285
 31
0.0
  0
LINE
  5
449
330
1E
100
AcDbEntity
  8
0
100
AcDbLine
 10
173.9584999999999
 20
936.981285
 30
0.0
 11
176.4584999999999
 21
936.981285
 31
0.0
  0
LINE
  5
44A
330
1E
100
AcDbEntity
  8
0
100
AcDbLine
 10
176.4584999999999
 20
936.981285
 30
0.0
 11
179.1584999999999
 21
936.981285
 31
0.0
  0
LINE
  5
44B
330
1E
100
AcDbEntity
  8
0
100
AcDbLine
 10
173.9584999999999
 20
884.9812849999999
 30
0.0
 11
176.4584999999999
 21
884.9812849999999
 31
0.0
  0
LINE
  5
44C
330
1E
100
AcDbEntity
  8
0
100
AcDbLine
 10
179.1584999999999
 20
885.481285
 30
0.0
 11
241.1585
 21
885.481285
 31
0.0
  0
LINE
  5
44D
330
1E
100
AcDbEntity
  8
0
100
AcDbLine
 10
179.1584999999999
 20
936.4812849999999
 30
0.0
 11
241.1585
 21
936.4812849999999
 31
0.0
  0
LINE
  5
44E
330
1E
100
AcDbEntity
  8
0
100
AcDbLine
 10
179.1584999999999
 20
936.981285
 30
0.0
 11
240.6585
 21
936.981285
 31
0.0
  0
LINE
  5
44F
330
1E
100
AcDbEntity
  8
0
100
AcDbLine
 10
179.1584999999999
 20
884.9812849999999
 30
0.0
 11
181.8584999999999
 21
884.9812849999999
 31
0.0
  0
LINE
  5
450
330
1E
100
AcDbEntity
  8
0
100
AcDbLine
 10
179.1584999999999
 20
884.9812849999999
 30
0.0
 11
240.6585
 21
884.9812849999999
 31
0.0
  0
LINE
  5
451
330
1E
100
AcDbEntity
  8
0
100
AcDbLine
 10
176.4584999999999
 20
884.9812849999999
 30
0.0
 11
179.1584999999999
 21
884.9812849999999
 31
0.0
  0
LINE
  5
452
330
1E
100
AcDbEntity
  8
0
100
AcDbLine
 10
176.3584999999999
 20
884.480285
 30
0.0
 11
179.1584999999999
 21
884.480285
 31
0.0
  0
LINE
  5
453
330
1E
100
AcDbEntity
  8
0
100
AcDbLine
 10
168.1585
 20
884.480285
 30
0.0
 11
168.1585
 21
731.092932720572
 31
0.0
  0
LINE
  5
454
330
1E
100
AcDbEntity
  8
0
100
AcDbLine
 10
168.1585
 20
884.480285
 30
0.0
 11
168.6585
 21
884.9812849999999
 31
0.0
  0
LINE
  5
455
330
1E
100
AcDbEntity
  8
0
100
AcDbLine
 10
168.1585
 20
884.480285
 30
0.0
 11
168.5585
 21
884.480285
 31
0.0
  0
LINE
  5
456
330
1E
100
AcDbEntity
  8
0
100
AcDbLine
 10
172.5220999999999
 20
724.5232849999999
 30
0.0
 11
181.2019
 21
710.5492849999999
 31
0.0
  0
LINE
  5
457
330
1E
100
AcDbEntity
  8
0
100
AcDbLine
 10
163.7041
 20
737.7992849999999
 30
0.0
 11
172.5220999999999
 21
724.5232849999999
 31
0.0
  0
LINE
  5
458
330
1E
100
AcDbEntity
  8
0
100
AcDbLine
 10
181.2019
 20
710.5492849999999
 30
0.0
 11
181.4047
 21
710.1722849999999
 31
0.0
  0
LINE
  5
459
330
1E
100
AcDbEntity
  8
0
100
AcDbLine
 10
181.3716
 20
708.2832849999999
 30
0.0
 11
183.367395307072
 21
704.3894090974429
 31
0.0
  0
LINE
  5
45A
330
1E
100
AcDbEntity
  8
0
100
AcDbLine
 10
181.3591999999999
 20
709.5112849999999
 30
0.0
 11
181.4661
 21
709.7402849999999
 31
0.0
  0
LINE
  5
45B
330
1E
100
AcDbEntity
  8
0
100
AcDbLine
 10
191.8865
 20
699.2092849999998
 30
0.0
 11
194.7725
 21
695.4352849999999
 31
0.0
  0
LINE
  5
45C
330
1E
100
AcDbEntity
  8
0
100
AcDbLine
 10
192.2564999999999
 20
699.5792849999999
 30
0.0
 11
195.2164999999999
 21
695.657285
 31
0.0
  0
LINE
  5
45D
330
1E
100
AcDbEntity
  8
0
100
AcDbLine
 10
190.1585
 20
700.5306967647059
 30
0.0
 11
191.8865
 21
699.2092849999998
 31
0.0
  0
LINE
  5
45E
330
1E
100
AcDbEntity
  8
0
100
AcDbLine
 10
183.8205
 20
703.8712849999999
 30
0.0
 11
188.1125
 21
702.095285
 31
0.0
  0
LINE
  5
45F
330
1E
100
AcDbEntity
  8
0
100
AcDbLine
 10
188.1125
 20
702.095285
 30
0.0
 11
191.8865
 21
699.2092849999998
 31
0.0
  0
LINE
  5
460
330
1E
100
AcDbEntity
  8
0
100
AcDbLine
 10
188.3345
 20
702.5392849999999
 30
0.0
 11
192.2564999999999
 21
699.5792849999999
 31
0.0
  0
LINE
  5
461
330
1E
100
AcDbEntity
  8
0
100
AcDbLine
 10
183.8945
 20
704.315285
 30
0.0
 11
188.3345
 21
702.5392849999999
 31
0.0
  0
LINE
  5
462
330
1E
100
AcDbEntity
  8
0
100
AcDbLine
 10
190.1585
 20
701.1626812264149
 30
0.0
 11
190.1585
 21
884.480285
 31
0.0
  0
LINE
  5
463
330
1E
100
AcDbEntity
  8
0
100
AcDbLine
 10
182.609956287753
 20
704.9913625476119
 30
0.0
 11
182.9329999999999
 21
705.229285
 31
0.0
  0
LINE
  5
464
330
1E
100
AcDbEntity
  8
0
100
AcDbLine
 10
181.4629
 20
709.993285
 30
0.0
 11
181.4661
 21
709.7402849999999
 31
0.0
  0
LINE
  5
465
330
1E
100
AcDbEntity
  8
0
100
AcDbLine
 10
181.8584999999999
 20
884.9812849999999
 30
0.0
 11
184.3585
 21
884.9812849999999
 31
0.0
  0
LINE
  5
466
330
1E
100
AcDbEntity
  8
0
100
AcDbLine
 10
189.7585
 20
884.480285
 30
0.0
 11
190.1585
 21
884.480285
 31
0.0
  0
LINE
  5
467
330
1E
100
AcDbEntity
  8
0
100
AcDbLine
 10
190.1585
 20
884.480285
 30
0.0
 11
190.1585
 21
701.1626812264149
 31
0.0
  0
LINE
  5
468
330
1E
100
AcDbEntity
  8
0
100
AcDbLine
 10
188.6585
 20
884.480285
 30
0.0
 11
189.7585
 21
884.480285
 31
0.0
  0
LINE
  5
469
330
1E
100
AcDbEntity
  8
0
100
AcDbLine
 10
186.9584999999999
 20
884.480285
 30
0.0
 11
188.6585
 21
884.480285
 31
0.0
  0
LINE
  5
46A
330
1E
100
AcDbEntity
  8
0
100
AcDbLine
 10
240.6585
 20
884.9812849999999
 30
0.0
 11
241.1585
 21
885.481285
 31
0.0
  0
LINE
  5
46B
330
1E
100
AcDbEntity
  8
0
100
AcDbLine
 10
189.2585
 20
884.9812849999999
 30
0.0
 11
189.6584999999999
 21
884.9812849999999
 31
0.0
  0
LINE
  5
46C
330
1E
100
AcDbEntity
  8
0
100
AcDbLine
 10
189.6584999999999
 20
884.9812849999999
 30
0.0
 11
190.1585
 21
884.480285
 31
0.0
  0
LINE
  5
46D
330
1E
100
AcDbEntity
  8
0
100
AcDbLine
 10
189.6584999999999
 20
884.9812849999999
 30
0.0
 11
240.6585
 21
884.9812849999999
 31
0.0
  0
LINE
  5
46E
330
1E
100
AcDbEntity
  8
0
100
AcDbLine
 10
188.2584999999999
 20
884.9812849999999
 30
0.0
 11
189.2585
 21
884.9812849999999
 31
0.0
  0
LINE
  5
46F
330
1E
100
AcDbEntity
  8
0
100
AcDbLine
 10
241.1585
 20
936.4812849999999
 30
0.0
 11
241.1585
 21
885.481285
 31
0.0
  0
LINE
  5
470
330
1E
100
AcDbEntity
  8
0
100
AcDbLine
 10
241.1585
 20
885.481285
 30
0.0
 11
241.1585
 21
936.4812849999999
 31
0.0
  0
LINE
  5
471
330
1E
100
AcDbEntity
  8
0
100
AcDbLine
 10
240.6585
 20
936.981285
 30
0.0
 11
241.1585
 21
936.4812849999999
 31
0.0
  0
LINE
  5
472
330
1E
100
AcDbEntity
  8
0
100
AcDbLine
 10
186.5585
 20
884.9812849999999
 30
0.0
 11
188.2584999999999
 21
884.9812849999999
 31
0.0
  0
LINE
  5
473
330
1E
100
AcDbEntity
  8
0
100
AcDbLine
 10
184.3585
 20
884.9812849999999
 30
0.0
 11
186.5585
 21
884.9812849999999
 31
0.0
  0
LINE
  5
474
330
1E
100
AcDbEntity
  8
0
100
AcDbLine
 10
184.6585
 20
884.480285
 30
0.0
 11
186.9584999999999
 21
884.480285
 31
0.0
  0
LINE
  5
475
330
1E
100
AcDbEntity
  8
0
100
AcDbLine
 10
181.9585
 20
884.480285
 30
0.0
 11
184.6585
 21
884.480285
 31
0.0
  0
LINE
  5
476
330
1E
100
AcDbEntity
  8
0
100
AcDbLine
 10
181.4047
 20
710.1722849999999
 30
0.0
 11
181.4629
 21
709.993285
 31
0.0
  0
LINE
  5
477
330
1E
100
AcDbEntity
  8
0
100
AcDbLine
 10
181.2324
 20
709.369285
 30
0.0
 11
181.3591999999999
 21
709.5112849999999
 31
0.0
  0
LINE
  5
478
330
1E
100
AcDbEntity
  8
0
100
AcDbLine
 10
163.1621899999999
 20
696.571285
 30
0.0
 11
164.48535
 21
697.5072849999999
 31
0.0
  0
LINE
  5
479
330
1E
100
AcDbEntity
  8
0
100
AcDbLine
 10
162.2441499999999
 20
695.921285
 30
0.0
 11
163.1621899999999
 21
696.571285
 31
0.0
  0
LINE
  5
47A
330
1E
100
AcDbEntity
  8
0
100
AcDbLine
 10
161.4008
 20
695.3282849999999
 30
0.0
 11
161.4455839999999
 21
695.3572849999999
 31
0.0
  0
LINE
  5
47B
330
1E
100
AcDbEntity
  8
0
100
AcDbLine
 10
160.2920469999999
 20
695.2182849999999
 30
0.0
 11
160.422209
 21
695.1172849999998
 31
0.0
  0
LINE
  5
47C
330
1E
100
AcDbEntity
  8
0
100
AcDbLine
 10
159.9890219999999
 20
695.5512849999999
 30
0.0
 11
160.273628
 21
695.2322849999999
 31
0.0
  0
LINE
  5
481
330
1E
100
AcDbEntity
  8
0
100
AcDbLine
 10
4.458499999999959
 20
849.1092849999999
 30
0.0
 11
74.5065
 21
801.9572849999999
 31
0.0
  0
LINE
  5
482
330
1E
100
AcDbEntity
  8
0
100
AcDbLine
 10
63.75444790640109
 20
793.922478469277
 30
0.0
 11
1.920499999999949
 21
843.879285
 31
0.0
  0
ENDSEC
  0
SECTION
  2
OBJECTS
  0
DICTIONARY
  5
C
330
0
100
AcDbDictionary
281
     1
  3
ACAD_GROUP
350
D
  3
ACAD_LAYOUT
350
19
  3
ACAD_MLINESTYLE
350
16
  3
ACAD_PLOTSETTINGS
350
18
  3
ACAD_PLOTSTYLENAME
350
E
  3
AcDbVariableDictionary
350
484
  0
DICTIONARY
  5
D
102
{ACAD_REACTORS
330
C
102
}
330
C
100
AcDbDictionary
281
     1
  0
DICTIONARY
  5
19
102
{ACAD_REACTORS
330
C
102
}
330
C
100
AcDbDictionary
281
     1
  3
Layout1
350
1D
  3
Model
350
21
  0
DICTIONARY
  5
16
102
{ACAD_REACTORS
330
C
102
}
330
C
100
AcDbDictionary
281
     1
  3
Standard
350
17
  0
DICTIONARY
  5
18
102
{ACAD_REACTORS
330
C
102
}
330
C
100
AcDbDictionary
281
     1
  0
ACDBDICTIONARYWDFLT
  5
E
102
{ACAD_REACTORS
330
C
102
}
330
C
100
AcDbDictionary
281
     1
  3
Normal
350
F
100
AcDbDictionaryWithDefault
340
F
  0
DICTIONARY
  5
484
102
{ACAD_REACTORS
330
C
102
}
330
C
100
AcDbDictionary
281
     1
  3
DIMASSOC
350
485
  0
LAYOUT
  5
1D
102
{ACAD_REACTORS
330
19
102
}
330
19
100
AcDbPlotSettings
  1

  2
C:\Programme\AutoCAD LT 2002 Deu\plotters\DWF ePlot (optimized for plotting).pc3
  4

  6

 40
0.0
 41
0.0
 42
0.0
 43
0.0
 44
0.0
 45
0.0
 46
0.0
 47
0.0
 48
0.0
 49
0.0
140
0.0
141
0.0
142
1.0
143
1.0
 70
   688
 72
     0
 73
     0
 74
     5
  7

 75
    16
147
1.0
148
0.0
149
0.0
100
AcDbLayout
  1
Layout1
 70
     1
 71
     1
 10
0.0
 20
0.0
 11
12.0
 21
9.0
 12
0.0
 22
0.0
 32
0.0
 14
1.000000000000000E+20
 24
1.000000000000000E+20
 34
1.000000000000000E+20
 15
-1.000000000000000E+20
 25
-1.000000000000000E+20
 35
-1.000000000000000E+20
146
0.0
 13
0.0
 23
0.0
 33
0.0
 16
1.0
 26
0.0
 36
0.0
 17
0.0
 27
1.0
 37
0.0
 76
     0
330
1A
  0
LAYOUT
  5
21
102
{ACAD_REACTORS
330
19
102
}
330
19
100
AcDbPlotSettings
  1

  2
C:\Programme\AutoCAD LT 2002 Deu\plotters\DWF ePlot (optimized for plotting).pc3
  4

  6

 40
0.0
 41
0.0
 42
0.0
 43
0.0
 44
0.0
 45
0.0
 46
0.0
 47
0.0
 48
0.0
 49
0.0
140
0.0
141
0.0
142
1.0
143
1.0
 70
  1712
 72
     0
 73
     0
 74
     0
  7

 75
     0
147
1.0
148
0.0
149
0.0
100
AcDbLayout
  1
Model
 70
     1
 71
     0
 10
0.0
 20
0.0
 11
12.0
 21
9.0
 12
0.0
 22
0.0
 32
0.0
 14
0.0
 24
0.0
 34
0.0
 15
0.0
 25
0.0
 35
0.0
146
0.0
 13
0.0
 23
0.0
 33
0.0
 16
1.0
 26
0.0
 36
0.0
 17
0.0
 27
1.0
 37
0.0
 76
     0
330
1E
  0
MLINESTYLE
  5
17
102
{ACAD_REACTORS
330
16
102
}
330
16
100
AcDbMlineStyle
  2
STANDARD
 70
     0
  3

 62
   256
 51
90.0
 52
90.0
 71
     2
 49
0.5
 62
   256
  6
BYLAYER
 49
-0.5
 62
   256
  6
BYLAYER
  0
ACDBPLACEHOLDER
  5
F
102
{ACAD_REACTORS
330
E
102
}
330
E
  0
DICTIONARYVAR
  5
485
102
{ACAD_REACTORS
330
484
102
}
330
484
100
DictionaryVariables
280
     0
  1
1
  0
ENDSEC
  0
EOF
