999
Erzeugt mit innoplus bad 
0
SECTION
2
HEADER
9
$ACADVER
1
AC1009
9
$DWGCODEPAGE
3
ISO8859-1
0
ENDSEC
0
SECTION
2
TABLES
0
TABLE
2
LAYER
70
1
0
LAYER
2
0
70
0
62
7
6
CONTINUOUS
0
ENDTAB
0
ENDSEC
0
SECTION
2
ENTITIES
0
LINE
8
0
6
CONTINUOUS
10
-6.886280
20
58.020375
30
0.0
11
-6.859400
21
57.322885
31
0.0
0
LINE
8
0
6
CONTINUOUS
10
-6.890970
20
58.831435
30
0.0
11
-6.893000
21
58.194745
31
0.0
0
LINE
8
0
6
CONTINUOUS
10
-26.223620
20
49.977215
30
0.0
11
-26.224400
21
47.418455
31
0.0
0
LINE
8
0
6
CONTINUOUS
10
-9.818980
20
16.119175
30
0.0
11
-4.155670
21
15.956905
31
0.0
0
LINE
8
0
6
CONTINUOUS
10
-26.224400
20
21.652475
30
0.0
11
-26.224400
21
20.927215
31
0.0
0
LINE
8
0
6
CONTINUOUS
10
-26.224400
20
20.927215
30
0.0
11
-25.427230
21
19.619375
31
0.0
0
LINE
8
0
6
CONTINUOUS
10
-23.147330
20
18.421615
30
0.0
11
-19.649770
21
17.400525
31
0.0
0
LINE
8
0
6
CONTINUOUS
10
-19.649770
20
17.400525
30
0.0
11
-15.107460
21
16.614445
31
0.0
0
LINE
8
0
6
CONTINUOUS
10
-15.107460
20
16.614445
30
0.0
11
-9.818980
21
16.119175
31
0.0
0
LINE
8
0
6
CONTINUOUS
10
-25.427230
20
19.619375
30
0.0
11
-23.147330
21
18.421615
31
0.0
0
LINE
8
0
6
CONTINUOUS
10
-6.844880
20
73.286705
30
0.0
11
-6.890970
21
58.831435
31
0.0
0
LINE
8
0
6
CONTINUOUS
10
-12.557590
20
54.883505
30
0.0
11
-14.705760
21
54.621435
31
0.0
0
LINE
8
0
6
CONTINUOUS
10
-11.724460
20
55.621955
30
0.0
11
-12.178500
21
54.929755
31
0.0
0
LINE
8
0
6
CONTINUOUS
10
-8.232920
20
64.113085
30
0.0
11
-11.724460
21
55.621955
31
0.0
0
LINE
8
0
6
CONTINUOUS
10
-6.848428
20
72.173823
30
0.0
11
-7.983420
21
64.916895
31
0.0
0
LINE
8
0
6
CONTINUOUS
10
-14.705760
20
54.621435
30
0.0
11
-17.384750
21
54.314005
31
0.0
0
LINE
8
0
6
CONTINUOUS
10
-17.384750
20
54.314005
30
0.0
11
-20.061050
21
54.006545
31
0.0
0
LINE
8
0
6
CONTINUOUS
10
-20.061050
20
54.006545
30
0.0
11
-22.738610
21
53.699115
31
0.0
0
LINE
8
0
6
CONTINUOUS
10
-22.738610
20
53.699115
30
0.0
11
-25.426790
21
53.391715
31
0.0
0
LINE
8
0
6
CONTINUOUS
10
-12.178500
20
54.929755
30
0.0
11
-12.557590
21
54.883505
31
0.0
0
LINE
8
0
6
CONTINUOUS
10
-7.983420
20
64.916895
30
0.0
11
-8.232920
21
64.113085
31
0.0
0
LINE
8
0
6
CONTINUOUS
10
-26.222830
20
52.535975
30
0.0
11
-26.223620
21
49.977215
31
0.0
0
LINE
8
0
6
CONTINUOUS
10
-4.976780
20
58.917435
30
0.0
11
-5.744180
21
58.829035
31
0.0
0
LINE
8
0
6
CONTINUOUS
10
-5.744180
20
58.829035
30
0.0
11
-6.367160
21
58.663235
31
0.0
0
LINE
8
0
6
CONTINUOUS
10
-6.367160
20
58.663235
30
0.0
11
-6.758300
21
58.443175
31
0.0
0
LINE
8
0
6
CONTINUOUS
10
-6.758300
20
58.443175
30
0.0
11
-6.893000
21
58.194745
31
0.0
0
LINE
8
0
6
CONTINUOUS
10
-6.893000
20
58.194745
30
0.0
11
-6.886280
21
58.020375
31
0.0
0
LINE
8
0
6
CONTINUOUS
10
-6.842880
20
73.899585
30
0.0
11
-6.844880
21
73.286705
31
0.0
0
LINE
8
0
6
CONTINUOUS
10
-6.725420
20
74.204165
30
0.0
11
-6.842880
21
73.899585
31
0.0
0
LINE
8
0
6
CONTINUOUS
10
-6.347130
20
74.475005
30
0.0
11
-6.725420
21
74.204165
31
0.0
0
LINE
8
0
6
CONTINUOUS
10
-5.731930
20
74.678585
30
0.0
11
-6.347130
21
74.475005
31
0.0
0
LINE
8
0
6
CONTINUOUS
10
-4.970700
20
74.786075
30
0.0
11
-5.731930
21
74.678585
31
0.0
0
LINE
8
0
6
CONTINUOUS
10
-12.675750
20
49.700855
30
0.0
11
-14.886830
21
49.316435
31
0.0
0
LINE
8
0
6
CONTINUOUS
10
-11.826440
20
49.799105
30
0.0
11
-12.285560
21
49.768685
31
0.0
0
LINE
8
0
6
CONTINUOUS
10
-8.287750
20
50.107855
30
0.0
11
-11.826440
21
49.799105
31
0.0
0
LINE
8
0
6
CONTINUOUS
10
-6.859400
20
57.322885
30
0.0
11
-8.047820
21
50.106985
31
0.0
0
LINE
8
0
6
CONTINUOUS
10
-26.224400
20
43.970265
30
0.0
11
-26.224400
21
40.522055
31
0.0
0
LINE
8
0
6
CONTINUOUS
10
-26.224400
20
40.522055
30
0.0
11
-26.224400
21
37.073865
31
0.0
0
LINE
8
0
6
CONTINUOUS
10
-14.886830
20
49.316435
30
0.0
11
-17.490980
21
48.865275
31
0.0
0
LINE
8
0
6
CONTINUOUS
10
-17.490980
20
48.865275
30
0.0
11
-20.092590
21
48.414655
31
0.0
0
LINE
8
0
6
CONTINUOUS
10
-20.092590
20
48.414655
30
0.0
11
-22.692070
21
48.016785
31
0.0
0
LINE
8
0
6
CONTINUOUS
10
-4.155670
20
58.932135
30
0.0
11
-4.976780
21
58.917435
31
0.0
0
LINE
8
0
6
CONTINUOUS
10
-4.155670
20
74.803635
30
0.0
11
-4.970700
21
74.786075
31
0.0
0
LINE
8
0
6
CONTINUOUS
10
-8.047820
20
50.106985
30
0.0
11
-8.287750
21
50.107855
31
0.0
0
LINE
8
0
6
CONTINUOUS
10
-26.224400
20
47.418455
30
0.0
11
-26.224400
21
43.970265
31
0.0
0
LINE
8
0
6
CONTINUOUS
10
-26.224400
20
37.073865
30
0.0
11
-26.224400
21
21.652475
31
0.0
0
LINE
8
0
6
CONTINUOUS
10
-26.222650
20
53.252235
30
0.0
11
-26.222830
21
52.535975
31
0.0
0
LINE
8
0
6
CONTINUOUS
10
-25.426790
20
53.391715
30
0.0
11
-26.222650
21
53.252235
31
0.0
0
LINE
8
0
6
CONTINUOUS
10
-12.285560
20
49.768685
30
0.0
11
-12.675750
21
49.700855
31
0.0
0
LINE
8
0
6
CONTINUOUS
10
-1.451950
20
57.322885
30
0.0
11
-1.425070
21
58.020375
31
0.0
0
LINE
8
0
6
CONTINUOUS
10
-1.418350
20
58.194745
30
0.0
11
-1.420380
21
58.831435
31
0.0
0
LINE
8
0
6
CONTINUOUS
10
17.913060
20
47.418455
30
0.0
11
17.912270
21
49.977215
31
0.0
0
LINE
8
0
6
CONTINUOUS
10
-4.155670
20
15.956905
30
0.0
11
1.507640
21
16.119175
31
0.0
0
LINE
8
0
6
CONTINUOUS
10
17.913060
20
20.927215
30
0.0
11
17.913060
21
21.652475
31
0.0
0
LINE
8
0
6
CONTINUOUS
10
17.115880
20
19.619375
30
0.0
11
17.913060
21
20.927215
31
0.0
0
LINE
8
0
6
CONTINUOUS
10
11.338420
20
17.400525
30
0.0
11
14.835980
21
18.421615
31
0.0
0
LINE
8
0
6
CONTINUOUS
10
6.796110
20
16.614445
30
0.0
11
11.338420
21
17.400525
31
0.0
0
LINE
8
0
6
CONTINUOUS
10
1.507640
20
16.119175
30
0.0
11
6.796110
21
16.614445
31
0.0
0
LINE
8
0
6
CONTINUOUS
10
14.835980
20
18.421615
30
0.0
11
17.115880
21
19.619375
31
0.0
0
LINE
8
0
6
CONTINUOUS
10
-1.420380
20
58.831435
30
0.0
11
-1.466460
21
73.286705
31
0.0
0
LINE
8
0
6
CONTINUOUS
10
6.394420
20
54.621435
30
0.0
11
4.246240
21
54.883505
31
0.0
0
LINE
8
0
6
CONTINUOUS
10
3.867150
20
54.929755
30
0.0
11
3.413120
21
55.621955
31
0.0
0
LINE
8
0
6
CONTINUOUS
10
3.413120
20
55.621955
30
0.0
11
-0.078430
21
64.113085
31
0.0
0
LINE
8
0
6
CONTINUOUS
10
-0.327920
20
64.916895
30
0.0
11
-1.462912
21
72.173769
31
0.0
0
LINE
8
0
6
CONTINUOUS
10
9.073400
20
54.314005
30
0.0
11
6.394420
21
54.621435
31
0.0
0
LINE
8
0
6
CONTINUOUS
10
11.749700
20
54.006545
30
0.0
11
9.073400
21
54.314005
31
0.0
0
LINE
8
0
6
CONTINUOUS
10
14.427270
20
53.699115
30
0.0
11
11.749700
21
54.006545
31
0.0
0
LINE
8
0
6
CONTINUOUS
10
17.115450
20
53.391715
30
0.0
11
14.427270
21
53.699115
31
0.0
0
LINE
8
0
6
CONTINUOUS
10
4.246240
20
54.883505
30
0.0
11
3.867150
21
54.929755
31
0.0
0
LINE
8
0
6
CONTINUOUS
10
-0.078430
20
64.113085
30
0.0
11
-0.327920
21
64.916895
31
0.0
0
LINE
8
0
6
CONTINUOUS
10
17.912270
20
49.977215
30
0.0
11
17.911480
21
52.535975
31
0.0
0
LINE
8
0
6
CONTINUOUS
10
-2.567170
20
58.829035
30
0.0
11
-3.334560
21
58.917435
31
0.0
0
LINE
8
0
6
CONTINUOUS
10
-1.944180
20
58.663235
30
0.0
11
-2.567170
21
58.829035
31
0.0
0
LINE
8
0
6
CONTINUOUS
10
-1.553050
20
58.443175
30
0.0
11
-1.944180
21
58.663235
31
0.0
0
LINE
8
0
6
CONTINUOUS
10
-1.418350
20
58.194745
30
0.0
11
-1.553050
21
58.443175
31
0.0
0
LINE
8
0
6
CONTINUOUS
10
-1.425070
20
58.020375
30
0.0
11
-1.418350
21
58.194745
31
0.0
0
LINE
8
0
6
CONTINUOUS
10
-1.468470
20
73.899585
30
0.0
11
-1.585920
21
74.204165
31
0.0
0
LINE
8
0
6
CONTINUOUS
10
-1.466460
20
73.286705
30
0.0
11
-1.468470
21
73.899585
31
0.0
0
LINE
8
0
6
CONTINUOUS
10
-1.585920
20
74.204165
30
0.0
11
-1.964220
21
74.475005
31
0.0
0
LINE
8
0
6
CONTINUOUS
10
-1.964220
20
74.475005
30
0.0
11
-2.579410
21
74.678585
31
0.0
0
LINE
8
0
6
CONTINUOUS
10
-2.579410
20
74.678585
30
0.0
11
-3.340650
21
74.786075
31
0.0
0
LINE
8
0
6
CONTINUOUS
10
6.575480
20
49.316435
30
0.0
11
4.364410
21
49.700855
31
0.0
0
LINE
8
0
6
CONTINUOUS
10
3.974220
20
49.768685
30
0.0
11
3.515090
21
49.799105
31
0.0
0
LINE
8
0
6
CONTINUOUS
10
3.515090
20
49.799105
30
0.0
11
-0.023590
21
50.107855
31
0.0
0
LINE
8
0
6
CONTINUOUS
10
-0.263530
20
50.106985
30
0.0
11
-1.451950
21
57.322885
31
0.0
0
LINE
8
0
6
CONTINUOUS
10
17.913060
20
40.522055
30
0.0
11
17.913060
21
43.970265
31
0.0
0
LINE
8
0
6
CONTINUOUS
10
17.913060
20
37.073865
30
0.0
11
17.913060
21
40.522055
31
0.0
0
LINE
8
0
6
CONTINUOUS
10
9.179640
20
48.865275
30
0.0
11
6.575480
21
49.316435
31
0.0
0
LINE
8
0
6
CONTINUOUS
10
11.781240
20
48.414655
30
0.0
11
9.179640
21
48.865275
31
0.0
0
LINE
8
0
6
CONTINUOUS
10
14.380730
20
48.016785
30
0.0
11
11.781240
21
48.414655
31
0.0
0
LINE
8
0
6
CONTINUOUS
10
-3.334560
20
58.917435
30
0.0
11
-4.155670
21
58.932135
31
0.0
0
LINE
8
0
6
CONTINUOUS
10
-3.340650
20
74.786075
30
0.0
11
-4.155670
21
74.803635
31
0.0
0
LINE
8
0
6
CONTINUOUS
10
-0.023590
20
50.107855
30
0.0
11
-0.263530
21
50.106985
31
0.0
0
LINE
8
0
6
CONTINUOUS
10
17.913060
20
43.970265
30
0.0
11
17.913060
21
47.418455
31
0.0
0
LINE
8
0
6
CONTINUOUS
10
17.913060
20
21.652475
30
0.0
11
17.913060
21
37.073865
31
0.0
0
LINE
8
0
6
CONTINUOUS
10
17.911310
20
53.252235
30
0.0
11
17.115450
21
53.391715
31
0.0
0
LINE
8
0
6
CONTINUOUS
10
17.911480
20
52.535975
30
0.0
11
17.911310
21
53.252235
31
0.0
0
LINE
8
0
6
CONTINUOUS
10
4.364410
20
49.700855
30
0.0
11
3.974220
21
49.768685
31
0.0
0
LINE
8
0
6
CONTINUOUS
10
28.097980
20
-27.706025
30
0.0
11
28.287220
21
-27.618495
31
0.0
0
LINE
8
0
6
CONTINUOUS
10
22.612450
20
-27.827185
30
0.0
11
27.043100
21
-27.970435
31
0.0
0
LINE
8
0
6
CONTINUOUS
10
27.043100
20
-27.970435
30
0.0
11
28.097980
21
-27.706025
31
0.0
0
LINE
8
0
6
CONTINUOUS
10
26.570440
20
-25.675265
30
0.0
11
22.845190
21
-25.132315
31
0.0
0
LINE
8
0
6
CONTINUOUS
10
20.765600
20
-28.125345
30
0.0
11
21.997390
21
-27.430545
31
0.0
0
LINE
8
0
6
CONTINUOUS
10
20.319790
20
-28.569495
30
0.0
11
20.765600
21
-28.125345
31
0.0
0
LINE
8
0
6
CONTINUOUS
10
19.606830
20
-29.870635
30
0.0
11
20.004140
21
-27.819075
31
0.0
0
LINE
8
0
6
CONTINUOUS
10
19.502050
20
-30.276055
30
0.0
11
20.319790
21
-28.569495
31
0.0
0
LINE
8
0
6
CONTINUOUS
10
21.144280
20
-25.004915
30
0.0
11
19.050250
21
-25.359095
31
0.0
0
LINE
8
0
6
CONTINUOUS
10
19.502050
20
-30.276055
30
0.0
11
19.606830
21
-29.870635
31
0.0
0
LINE
8
0
6
CONTINUOUS
10
19.285590
20
-30.893865
30
0.0
11
19.502050
21
-30.276055
31
0.0
0
LINE
8
0
6
CONTINUOUS
10
19.606830
20
-29.870635
30
0.0
11
19.326210
21
-30.634515
31
0.0
0
LINE
8
0
6
CONTINUOUS
10
22.231470
20
-26.622975
30
0.0
11
24.019660
21
-27.108605
31
0.0
0
LINE
8
0
6
CONTINUOUS
10
24.019660
20
-27.108605
30
0.0
11
28.287220
21
-27.618495
31
0.0
0
LINE
8
0
6
CONTINUOUS
10
20.054850
20
-25.462065
30
0.0
11
18.605439
21
-26.764972
31
0.0
0
LINE
8
0
6
CONTINUOUS
10
22.161970
20
-25.509215
30
0.0
11
24.232900
21
-25.601445
31
0.0
0
LINE
8
0
6
CONTINUOUS
10
28.390410
20
-27.618495
30
0.0
11
28.532420
21
-26.602945
31
0.0
0
LINE
8
0
6
CONTINUOUS
10
28.287220
20
-27.618495
30
0.0
11
28.390410
21
-27.618495
31
0.0
0
LINE
8
0
6
CONTINUOUS
10
28.436600
20
-26.602945
30
0.0
11
28.287220
21
-27.618495
31
0.0
0
LINE
8
0
6
CONTINUOUS
10
28.532420
20
-26.602945
30
0.0
11
28.480920
21
-26.166285
31
0.0
0
LINE
8
0
6
CONTINUOUS
10
28.385100
20
-26.166285
30
0.0
11
28.436600
21
-26.602945
31
0.0
0
LINE
8
0
6
CONTINUOUS
10
28.480920
20
-26.166285
30
0.0
11
28.361350
21
-26.038195
31
0.0
0
LINE
8
0
6
CONTINUOUS
10
28.385100
20
-26.166285
30
0.0
11
28.480920
21
-26.166285
31
0.0
0
LINE
8
0
6
CONTINUOUS
10
27.346880
20
-25.675265
30
0.0
11
26.570440
21
-25.675265
31
0.0
0
LINE
8
0
6
CONTINUOUS
10
28.361350
20
-26.038195
30
0.0
11
27.346880
21
-25.675265
31
0.0
0
LINE
8
0
6
CONTINUOUS
10
21.068850
20
-27.877475
30
0.0
11
22.612450
21
-27.827185
31
0.0
0
LINE
8
0
6
CONTINUOUS
10
23.782210
20
-27.658095
30
0.0
11
21.997390
21
-27.430545
31
0.0
0
LINE
8
0
6
CONTINUOUS
10
22.845190
20
-25.132315
30
0.0
11
21.144280
21
-25.004915
31
0.0
0
LINE
8
0
6
CONTINUOUS
10
21.966140
20
-25.247835
30
0.0
11
24.117100
21
-25.404005
31
0.0
0
LINE
8
0
6
CONTINUOUS
10
28.195090
20
-26.038195
30
0.0
11
24.117100
21
-25.404005
31
0.0
0
LINE
8
0
6
CONTINUOUS
10
24.232900
20
-25.601445
30
0.0
11
28.385100
21
-26.166285
31
0.0
0
LINE
8
0
6
CONTINUOUS
10
19.806870
20
-25.247835
30
0.0
11
18.559567
21
-25.401095
31
0.0
0
LINE
8
0
6
CONTINUOUS
10
18.807464
20
-32.771833
30
0.0
11
19.285590
21
-30.893865
31
0.0
0
LINE
8
0
6
CONTINUOUS
10
16.918900
20
-74.803615
30
0.0
11
19.280950
21
-74.803595
31
0.0
0
LINE
8
0
6
CONTINUOUS
10
13.119910
20
-74.803635
30
0.0
11
16.918900
21
-74.803615
31
0.0
0
LINE
8
0
6
CONTINUOUS
10
2.184010
20
-74.803625
30
0.0
11
8.075630
21
-74.803625
31
0.0
0
LINE
8
0
6
CONTINUOUS
10
-4.155660
20
-74.803595
30
0.0
11
2.184010
21
-74.803625
31
0.0
0
LINE
8
0
6
CONTINUOUS
10
8.075630
20
-74.803625
30
0.0
11
13.119910
21
-74.803635
31
0.0
0
LINE
8
0
6
CONTINUOUS
10
19.280950
20
-74.803595
30
0.0
11
20.221100
21
-74.803595
31
0.0
0
LINE
8
0
6
CONTINUOUS
10
20.221100
20
-74.803595
30
0.0
11
20.206030
21
-74.355575
31
0.0
0
LINE
8
0
6
CONTINUOUS
10
16.327690
20
11.806635
30
0.0
11
16.561020
21
13.600795
31
0.0
0
LINE
8
0
6
CONTINUOUS
10
18.063520
20
-10.652175
30
0.0
11
17.806470
21
-3.009345
31
0.0
0
LINE
8
0
6
CONTINUOUS
10
16.794340
20
15.394925
30
0.0
11
16.950530
21
16.595885
31
0.0
0
LINE
8
0
6
CONTINUOUS
10
18.345220
20
-19.028015
30
0.0
11
18.063520
21
-10.652175
31
0.0
0
LINE
8
0
6
CONTINUOUS
10
17.106710
20
17.796835
30
0.0
11
16.750660
21
19.099475
31
0.0
0
LINE
8
0
6
CONTINUOUS
10
17.342650
20
10.781755
30
0.0
11
17.151970
21
16.451315
31
0.0
0
LINE
8
0
6
CONTINUOUS
10
0.149250
20
-3.466315
30
0.0
11
-4.155660
21
-3.580165
31
0.0
0
LINE
8
0
6
CONTINUOUS
10
20.206030
20
-74.355575
30
0.0
11
19.216560
21
-44.935605
31
0.0
0
LINE
8
0
6
CONTINUOUS
10
7.837530
20
-14.799976
30
0.0
11
8.748370
21
-14.250385
31
0.0
0
LINE
8
0
6
CONTINUOUS
10
8.748370
20
-14.250385
30
0.0
11
11.486100
21
-11.051775
31
0.0
0
LINE
8
0
6
CONTINUOUS
10
11.486100
20
-11.051775
30
0.0
11
13.220490
21
-7.252735
31
0.0
0
LINE
8
0
6
CONTINUOUS
10
14.812600
20
0.853015
30
0.0
11
14.207420
21
-0.108625
31
0.0
0
LINE
8
0
6
CONTINUOUS
10
14.207420
20
-0.108625
30
0.0
11
12.882230
21
-1.033065
31
0.0
0
LINE
8
0
6
CONTINUOUS
10
12.882230
20
-1.033065
30
0.0
11
10.753840
21
-1.879065
31
0.0
0
LINE
8
0
6
CONTINUOUS
10
10.753840
20
-1.879065
30
0.0
11
7.800280
21
-2.589465
31
0.0
0
LINE
8
0
6
CONTINUOUS
10
7.800280
20
-2.589465
30
0.0
11
4.200300
21
-3.124895
31
0.0
0
LINE
8
0
6
CONTINUOUS
10
4.200300
20
-3.124895
30
0.0
11
0.149250
21
-3.466315
31
0.0
0
LINE
8
0
6
CONTINUOUS
10
16.794340
20
15.394925
30
0.0
11
16.561020
21
13.600795
31
0.0
0
LINE
8
0
6
CONTINUOUS
10
13.220490
20
-7.252735
30
0.0
11
13.620090
21
-6.295455
31
0.0
0
LINE
8
0
6
CONTINUOUS
10
13.620090
20
-6.295455
30
0.0
11
14.939710
21
-1.822815
31
0.0
0
LINE
8
0
6
CONTINUOUS
10
18.922610
20
-36.195495
30
0.0
11
18.630770
21
-27.518135
31
0.0
0
LINE
8
0
6
CONTINUOUS
10
18.630770
20
-27.518135
30
0.0
11
18.345220
21
-19.028015
31
0.0
0
LINE
8
0
6
CONTINUOUS
10
17.806470
20
-3.009345
30
0.0
11
17.574340
21
3.892815
31
0.0
0
LINE
8
0
6
CONTINUOUS
10
19.216560
20
-44.935605
30
0.0
11
18.922610
21
-36.195495
31
0.0
0
LINE
8
0
6
CONTINUOUS
10
14.939710
20
-1.822815
30
0.0
11
15.309930
21
-0.332735
31
0.0
0
LINE
8
0
6
CONTINUOUS
10
16.327690
20
11.806635
30
0.0
11
16.094360
21
10.012505
31
0.0
0
LINE
8
0
6
CONTINUOUS
10
16.094360
20
10.012505
30
0.0
11
15.861030
21
8.218355
31
0.0
0
LINE
8
0
6
CONTINUOUS
10
17.106710
20
17.796835
30
0.0
11
16.950530
21
16.595885
31
0.0
0
LINE
8
0
6
CONTINUOUS
10
17.151970
20
16.451315
30
0.0
11
17.106710
21
17.796835
31
0.0
0
LINE
8
0
6
CONTINUOUS
10
17.574340
20
3.892815
30
0.0
11
17.342650
21
10.781755
31
0.0
0
LINE
8
0
6
CONTINUOUS
10
14.812600
20
0.853015
30
0.0
11
15.861030
21
8.218355
31
0.0
0
LINE
8
0
6
CONTINUOUS
10
-27.592270
20
-74.803595
30
0.0
11
-25.230220
21
-74.803615
31
0.0
0
LINE
8
0
6
CONTINUOUS
10
-25.230220
20
-74.803615
30
0.0
11
-21.431230
21
-74.803635
31
0.0
0
LINE
8
0
6
CONTINUOUS
10
-16.386950
20
-74.803625
30
0.0
11
-10.495330
21
-74.803625
31
0.0
0
LINE
8
0
6
CONTINUOUS
10
-10.495330
20
-74.803625
30
0.0
11
-4.155660
21
-74.803595
31
0.0
0
LINE
8
0
6
CONTINUOUS
10
-21.431230
20
-74.803635
30
0.0
11
-16.386950
21
-74.803625
31
0.0
0
LINE
8
0
6
CONTINUOUS
10
-28.517350
20
-74.355575
30
0.0
11
-28.532420
21
-74.803595
31
0.0
0
LINE
8
0
6
CONTINUOUS
10
-28.532420
20
-74.803595
30
0.0
11
-27.592270
21
-74.803595
31
0.0
0
LINE
8
0
6
CONTINUOUS
10
-24.872340
20
13.600795
30
0.0
11
-24.639010
21
11.806635
31
0.0
0
LINE
8
0
6
CONTINUOUS
10
-26.117790
20
-3.009345
30
0.0
11
-26.374840
21
-10.652175
31
0.0
0
LINE
8
0
6
CONTINUOUS
10
-25.261850
20
16.595885
30
0.0
11
-25.105660
21
15.394925
31
0.0
0
LINE
8
0
6
CONTINUOUS
10
-26.374840
20
-10.652175
30
0.0
11
-26.656540
21
-19.028015
31
0.0
0
LINE
8
0
6
CONTINUOUS
10
-25.061980
20
19.099475
30
0.0
11
-25.418030
21
17.796835
31
0.0
0
LINE
8
0
6
CONTINUOUS
10
-25.463290
20
16.451315
30
0.0
11
-25.653970
21
10.781755
31
0.0
0
LINE
8
0
6
CONTINUOUS
10
-4.155660
20
-3.580165
30
0.0
11
-8.460570
21
-3.466315
31
0.0
0
LINE
8
0
6
CONTINUOUS
10
-27.527880
20
-44.935605
30
0.0
11
-28.517350
21
-74.355575
31
0.0
0
LINE
8
0
6
CONTINUOUS
10
-17.059690
20
-14.250385
30
0.0
11
-16.148870
21
-14.799964
31
0.0
0
LINE
8
0
6
CONTINUOUS
10
-19.797420
20
-11.051775
30
0.0
11
-17.059690
21
-14.250385
31
0.0
0
LINE
8
0
6
CONTINUOUS
10
-21.531810
20
-7.252735
30
0.0
11
-19.797420
21
-11.051775
31
0.0
0
LINE
8
0
6
CONTINUOUS
10
-22.518740
20
-0.108625
30
0.0
11
-23.123920
21
0.853015
31
0.0
0
LINE
8
0
6
CONTINUOUS
10
-21.193550
20
-1.033065
30
0.0
11
-22.518740
21
-0.108625
31
0.0
0
LINE
8
0
6
CONTINUOUS
10
-19.065160
20
-1.879065
30
0.0
11
-21.193550
21
-1.033065
31
0.0
0
LINE
8
0
6
CONTINUOUS
10
-16.111600
20
-2.589465
30
0.0
11
-19.065160
21
-1.879065
31
0.0
0
LINE
8
0
6
CONTINUOUS
10
-12.511620
20
-3.124895
30
0.0
11
-16.111600
21
-2.589465
31
0.0
0
LINE
8
0
6
CONTINUOUS
10
-8.460570
20
-3.466315
30
0.0
11
-12.511620
21
-3.124895
31
0.0
0
LINE
8
0
6
CONTINUOUS
10
-24.872340
20
13.600795
30
0.0
11
-25.105660
21
15.394925
31
0.0
0
LINE
8
0
6
CONTINUOUS
10
-21.931410
20
-6.295455
30
0.0
11
-21.531810
21
-7.252735
31
0.0
0
LINE
8
0
6
CONTINUOUS
10
-23.251030
20
-1.822815
30
0.0
11
-21.931410
21
-6.295455
31
0.0
0
LINE
8
0
6
CONTINUOUS
10
-26.942090
20
-27.518135
30
0.0
11
-27.233930
21
-36.195495
31
0.0
0
LINE
8
0
6
CONTINUOUS
10
-26.656540
20
-19.028015
30
0.0
11
-26.942090
21
-27.518135
31
0.0
0
LINE
8
0
6
CONTINUOUS
10
-25.885660
20
3.892815
30
0.0
11
-26.117790
21
-3.009345
31
0.0
0
LINE
8
0
6
CONTINUOUS
10
-27.233930
20
-36.195495
30
0.0
11
-27.527880
21
-44.935605
31
0.0
0
LINE
8
0
6
CONTINUOUS
10
-23.621250
20
-0.332735
30
0.0
11
-23.251030
21
-1.822815
31
0.0
0
LINE
8
0
6
CONTINUOUS
10
-24.405680
20
10.012505
30
0.0
11
-24.639010
21
11.806635
31
0.0
0
LINE
8
0
6
CONTINUOUS
10
-24.172350
20
8.218355
30
0.0
11
-24.405680
21
10.012505
31
0.0
0
LINE
8
0
6
CONTINUOUS
10
-25.418030
20
17.796835
30
0.0
11
-25.463290
21
16.451315
31
0.0
0
LINE
8
0
6
CONTINUOUS
10
-25.261850
20
16.595885
30
0.0
11
-25.418030
21
17.796835
31
0.0
0
LINE
8
0
6
CONTINUOUS
10
-25.653970
20
10.781755
30
0.0
11
-25.885660
21
3.892815
31
0.0
0
LINE
8
0
6
CONTINUOUS
10
-24.172350
20
8.218355
30
0.0
11
-23.123920
21
0.853015
31
0.0
0
LINE
8
0
6
CONTINUOUS
10
7.837530
20
-18.948385
30
0.0
11
7.837530
21
-18.515395
31
0.0
0
LINE
8
0
6
CONTINUOUS
10
-16.148870
20
-12.268775
30
0.0
11
-16.148870
21
-18.515395
31
0.0
0
LINE
8
0
6
CONTINUOUS
10
0.569830
20
-23.543205
30
0.0
11
4.332230
21
-22.482715
31
0.0
0
LINE
8
0
6
CONTINUOUS
10
4.332230
20
-22.482715
30
0.0
11
6.878730
21
-20.915355
31
0.0
0
LINE
8
0
6
CONTINUOUS
10
6.878730
20
-20.915355
30
0.0
11
7.837530
21
-18.948385
31
0.0
0
LINE
8
0
6
CONTINUOUS
10
-15.190070
20
-20.915355
30
0.0
11
-12.643570
21
-22.482715
31
0.0
0
LINE
8
0
6
CONTINUOUS
10
-16.148870
20
-18.948385
30
0.0
11
-15.190070
21
-20.915355
31
0.0
0
LINE
8
0
6
CONTINUOUS
10
-12.643570
20
-22.482715
30
0.0
11
-8.881170
21
-23.543205
31
0.0
0
LINE
8
0
6
CONTINUOUS
10
-8.881170
20
-23.543205
30
0.0
11
-4.155670
21
-23.942845
31
0.0
0
LINE
8
0
6
CONTINUOUS
10
6.878730
20
-16.981395
30
0.0
11
4.332230
21
-15.414355
31
0.0
0
LINE
8
0
6
CONTINUOUS
10
4.332230
20
-15.414355
30
0.0
11
0.569830
21
-14.353345
31
0.0
0
LINE
8
0
6
CONTINUOUS
10
0.569830
20
-14.353345
30
0.0
11
-4.155670
21
-13.953395
31
0.0
0
LINE
8
0
6
CONTINUOUS
10
7.837530
20
-18.948385
30
0.0
11
6.878730
21
-16.981395
31
0.0
0
LINE
8
0
6
CONTINUOUS
10
-4.155670
20
-23.942845
30
0.0
11
0.569830
21
-23.543205
31
0.0
0
LINE
8
0
6
CONTINUOUS
10
2.806200
20
-21.847365
30
0.0
11
-0.267190
21
-22.713655
31
0.0
0
LINE
8
0
6
CONTINUOUS
10
5.675430
20
-18.948375
30
0.0
11
4.886470
21
-20.566885
31
0.0
0
LINE
8
0
6
CONTINUOUS
10
-11.117540
20
-21.847365
30
0.0
11
-13.197820
21
-20.566885
31
0.0
0
LINE
8
0
6
CONTINUOUS
10
-13.197820
20
-20.566885
30
0.0
11
-13.986780
21
-18.948375
31
0.0
0
LINE
8
0
6
CONTINUOUS
10
-13.197820
20
-17.329785
30
0.0
11
-11.117550
21
-16.049705
31
0.0
0
LINE
8
0
6
CONTINUOUS
10
-11.117550
20
-16.049705
30
0.0
11
-8.044150
21
-15.183005
31
0.0
0
LINE
8
0
6
CONTINUOUS
10
-8.044160
20
-22.713655
30
0.0
11
-11.117540
21
-21.847365
31
0.0
0
LINE
8
0
6
CONTINUOUS
10
-8.044150
20
-15.183005
30
0.0
11
-4.155670
21
-14.853875
31
0.0
0
LINE
8
0
6
CONTINUOUS
10
-13.986780
20
-18.948375
30
0.0
11
-13.197820
21
-17.329785
31
0.0
0
LINE
8
0
6
CONTINUOUS
10
-4.155670
20
-23.042515
30
0.0
11
-8.044160
21
-22.713655
31
0.0
0
LINE
8
0
6
CONTINUOUS
10
2.806200
20
-16.049705
30
0.0
11
4.886480
21
-17.329785
31
0.0
0
LINE
8
0
6
CONTINUOUS
10
-0.267200
20
-15.183005
30
0.0
11
2.806200
21
-16.049705
31
0.0
0
LINE
8
0
6
CONTINUOUS
10
-4.155670
20
-14.853875
30
0.0
11
-0.267200
21
-15.183005
31
0.0
0
LINE
8
0
6
CONTINUOUS
10
4.886480
20
-17.329785
30
0.0
11
5.675430
21
-18.948375
31
0.0
0
LINE
8
0
6
CONTINUOUS
10
-0.267190
20
-22.713655
30
0.0
11
-4.155670
21
-23.042515
31
0.0
0
LINE
8
0
6
CONTINUOUS
10
2.806200
20
-21.847365
30
0.0
11
4.886470
21
-20.566885
31
0.0
0
LINE
8
0
6
CONTINUOUS
10
-0.267190
20
-21.446675
30
0.0
11
2.806200
21
-20.580385
31
0.0
0
LINE
8
0
6
CONTINUOUS
10
2.806200
20
-20.580385
30
0.0
11
4.886470
21
-19.299905
31
0.0
0
LINE
8
0
6
CONTINUOUS
10
4.886470
20
-19.299905
30
0.0
11
5.675430
21
-17.681395
31
0.0
0
LINE
8
0
6
CONTINUOUS
10
-13.197820
20
-19.299905
30
0.0
11
-11.117540
21
-20.580385
31
0.0
0
LINE
8
0
6
CONTINUOUS
10
-13.986780
20
-17.681395
30
0.0
11
-13.197820
21
-19.299905
31
0.0
0
LINE
8
0
6
CONTINUOUS
10
-11.117540
20
-20.580385
30
0.0
11
-8.044160
21
-21.446675
31
0.0
0
LINE
8
0
6
CONTINUOUS
10
-8.044160
20
-21.446675
30
0.0
11
-4.155670
21
-21.775545
31
0.0
0
LINE
8
0
6
CONTINUOUS
10
-4.155670
20
-21.775545
30
0.0
11
-0.267190
21
-21.446675
31
0.0
0
LINE
8
0
6
CONTINUOUS
10
-8.881170
20
-14.353345
30
0.0
11
-4.155670
21
-13.953395
31
0.0
0
LINE
8
0
6
CONTINUOUS
10
-16.148870
20
-18.515395
30
0.0
11
-16.148870
21
-18.948385
31
0.0
0
LINE
8
0
6
CONTINUOUS
10
-16.148870
20
-18.948385
30
0.0
11
-15.190070
21
-16.981395
31
0.0
0
LINE
8
0
6
CONTINUOUS
10
-12.643570
20
-15.414355
30
0.0
11
-8.881170
21
-14.353345
31
0.0
0
LINE
8
0
6
CONTINUOUS
10
7.837530
20
-18.515395
30
0.0
11
7.837530
21
-12.268795
31
0.0
0
LINE
8
0
6
CONTINUOUS
10
-15.190070
20
-16.981395
30
0.0
11
-12.643570
21
-15.414355
31
0.0
0
ENDSEC
0
EOF
