999
unknown String-ID: 20550
0
SECTION
2
HEADER
9
$ACADVER
1
AC1009
9
$DWGCODEPAGE
3
unknown String-ID: 20561
0
ENDSEC
0
SECTION
2
TABLES
0
TABLE
2
LAYER
70
1
0
LAYER
2
0
70
0
62
7
6
CONTINUOUS
0
ENDTAB
0
ENDSEC
0
SECTION
2
ENTITIES
0
LINE
8
0
6
CONTINUOUS
10
-0.068967
20
-0.217854
30
0.0
11
-0.067038
21
-0.217976
31
0.0
0
LINE
8
0
6
CONTINUOUS
10
-0.068049
20
-0.196661
30
0.0
11
-0.068967
21
-0.217854
31
0.0
0
LINE
8
0
6
CONTINUOUS
10
-0.067038
20
-0.217976
30
0.0
11
-0.062380
21
-0.218271
31
0.0
0
LINE
8
0
6
CONTINUOUS
10
-0.062380
20
-0.218271
30
0.0
11
-0.057722
21
-0.218566
31
0.0
0
LINE
8
0
6
CONTINUOUS
10
-0.057722
20
-0.218566
30
0.0
11
-0.055793
21
-0.218688
31
0.0
0
LINE
8
0
6
CONTINUOUS
10
-0.055793
20
-0.218688
30
0.0
11
-0.054856
21
-0.197083
31
0.0
0
LINE
8
0
6
CONTINUOUS
10
-0.067592
20
-0.174389
30
0.0
11
-0.068049
21
-0.196661
31
0.0
0
LINE
8
0
6
CONTINUOUS
10
-0.054856
20
-0.197083
30
0.0
11
-0.054394
21
-0.174659
31
0.0
0
LINE
8
0
6
CONTINUOUS
10
-0.067116
20
-0.151065
30
0.0
11
-0.067592
21
-0.174389
31
0.0
0
LINE
8
0
6
CONTINUOUS
10
-0.054394
20
-0.174659
30
0.0
11
-0.053922
21
-0.151465
31
0.0
0
LINE
8
0
6
CONTINUOUS
10
-0.066136
20
-0.126741
30
0.0
11
-0.067116
21
-0.151065
31
0.0
0
LINE
8
0
6
CONTINUOUS
10
-0.053922
20
-0.151465
30
0.0
11
-0.052959
21
-0.127521
31
0.0
0
LINE
8
0
6
CONTINUOUS
10
-0.064158
20
-0.101468
30
0.0
11
-0.066136
21
-0.126741
31
0.0
0
LINE
8
0
6
CONTINUOUS
10
-0.052959
20
-0.127521
30
0.0
11
-0.051030
21
-0.102850
31
0.0
0
LINE
8
0
6
CONTINUOUS
10
-0.060686
20
-0.075296
30
0.0
11
-0.064158
21
-0.101468
31
0.0
0
LINE
8
0
6
CONTINUOUS
10
-0.051030
20
-0.102850
30
0.0
11
-0.047667
21
-0.077473
31
0.0
0
LINE
8
0
6
CONTINUOUS
10
-0.055326
20
-0.048789
30
0.0
11
-0.060686
21
-0.075296
31
0.0
0
LINE
8
0
6
CONTINUOUS
10
-0.047667
20
-0.077473
30
0.0
11
-0.042440
21
-0.051610
31
0.0
0
LINE
8
0
6
CONTINUOUS
10
-0.042820
20
-0.051526
30
0.0
11
-0.041620
21
-0.051790
31
0.0
0
LINE
8
0
6
CONTINUOUS
10
-0.040335
20
-0.052068
30
0.0
11
-0.040037
21
-0.051046
31
0.0
0
LINE
8
0
6
CONTINUOUS
10
-0.040037
20
-0.051046
30
0.0
11
-0.027096
21
-0.006533
31
0.0
0
LINE
8
0
6
CONTINUOUS
10
-0.026842
20
-0.005660
30
0.0
11
-0.027027
21
-0.005616
31
0.0
0
LINE
8
0
6
CONTINUOUS
10
-0.027096
20
-0.006533
30
0.0
11
-0.026842
21
-0.005660
31
0.0
0
LINE
8
0
6
CONTINUOUS
10
-0.058855
20
-0.048023
30
0.0
11
-0.056994
21
-0.048426
31
0.0
0
LINE
8
0
6
CONTINUOUS
10
-0.050831
20
-0.049771
30
0.0
11
-0.049191
21
-0.050129
31
0.0
0
LINE
8
0
6
CONTINUOUS
10
-0.059943
20
-0.047789
30
0.0
11
-0.058855
21
-0.048023
31
0.0
0
LINE
8
0
6
CONTINUOUS
10
-0.044321
20
-0.051197
30
0.0
11
-0.042820
21
-0.051526
31
0.0
0
LINE
8
0
6
CONTINUOUS
10
-0.052442
20
-0.049418
30
0.0
11
-0.050831
21
-0.049771
31
0.0
0
LINE
8
0
6
CONTINUOUS
10
-0.041310
20
-0.051858
30
0.0
11
-0.040460
21
-0.052041
31
0.0
0
LINE
8
0
6
CONTINUOUS
10
-0.056994
20
-0.048426
30
0.0
11
-0.054868
21
-0.048889
31
0.0
0
LINE
8
0
6
CONTINUOUS
10
-0.060385
20
-0.047696
30
0.0
11
-0.059943
21
-0.047789
31
0.0
0
LINE
8
0
6
CONTINUOUS
10
-0.060926
20
-0.047578
30
0.0
11
-0.060385
21
-0.047696
31
0.0
0
LINE
8
0
6
CONTINUOUS
10
-0.054868
20
-0.048889
30
0.0
11
-0.052442
21
-0.049418
31
0.0
0
LINE
8
0
6
CONTINUOUS
10
-0.045908
20
-0.050848
30
0.0
11
-0.044321
21
-0.051197
31
0.0
0
LINE
8
0
6
CONTINUOUS
10
-0.049191
20
-0.050129
30
0.0
11
-0.047533
21
-0.050492
31
0.0
0
LINE
8
0
6
CONTINUOUS
10
-0.047533
20
-0.050492
30
0.0
11
-0.045908
21
-0.050848
31
0.0
0
LINE
8
0
6
CONTINUOUS
10
-0.075996
20
-0.044279
30
0.0
11
-0.060926
21
-0.047578
31
0.0
0
LINE
8
0
6
CONTINUOUS
10
-0.038528
20
-0.002939
30
0.0
11
-0.075993
21
0.005741
31
0.0
0
LINE
8
0
6
CONTINUOUS
10
-0.036707
20
-0.003361
30
0.0
11
-0.038528
21
-0.002939
31
0.0
0
LINE
8
0
6
CONTINUOUS
10
-0.076852
20
0.005881
30
0.0
11
-0.076851
21
0.004941
31
0.0
0
LINE
8
0
6
CONTINUOUS
10
-0.075993
20
0.005741
30
0.0
11
-0.076839
21
0.005937
31
0.0
0
LINE
8
0
6
CONTINUOUS
10
-0.029596
20
-0.005012
30
0.0
11
-0.031279
21
-0.004620
31
0.0
0
LINE
8
0
6
CONTINUOUS
10
-0.041424
20
-0.051833
30
0.0
11
-0.041310
21
-0.051858
31
0.0
0
LINE
8
0
6
CONTINUOUS
10
-0.041620
20
-0.051790
30
0.0
11
-0.041424
21
-0.051833
31
0.0
0
LINE
8
0
6
CONTINUOUS
10
-0.033065
20
-0.004205
30
0.0
11
-0.034886
21
-0.003783
31
0.0
0
LINE
8
0
6
CONTINUOUS
10
-0.031279
20
-0.004620
30
0.0
11
-0.033065
21
-0.004205
31
0.0
0
LINE
8
0
6
CONTINUOUS
10
-0.034886
20
-0.003783
30
0.0
11
-0.036707
21
-0.003361
31
0.0
0
LINE
8
0
6
CONTINUOUS
10
-0.027027
20
-0.005616
30
0.0
11
-0.028161
21
-0.005349
31
0.0
0
LINE
8
0
6
CONTINUOUS
10
-0.028161
20
-0.005349
30
0.0
11
-0.029596
21
-0.005012
31
0.0
0
LINE
8
0
6
CONTINUOUS
10
-0.076844
20
-0.044093
30
0.0
11
-0.075996
21
-0.044279
31
0.0
0
LINE
8
0
6
CONTINUOUS
10
0.027887
20
0.137089
30
0.0
11
0.029064
21
0.137089
31
0.0
0
LINE
8
0
6
CONTINUOUS
10
0.029064
20
0.137089
30
0.0
11
0.029245
21
0.137313
31
0.0
0
LINE
8
0
6
CONTINUOUS
10
0.029245
20
0.137313
30
0.0
11
0.029770
21
0.137966
31
0.0
0
LINE
8
0
6
CONTINUOUS
10
0.029770
20
0.137966
30
0.0
11
0.030617
21
0.139018
31
0.0
0
LINE
8
0
6
CONTINUOUS
10
0.030617
20
0.139018
30
0.0
11
0.031762
21
0.140440
31
0.0
0
LINE
8
0
6
CONTINUOUS
10
0.031489
20
0.142391
30
0.0
11
0.030565
21
0.141243
31
0.0
0
LINE
8
0
6
CONTINUOUS
10
0.031762
20
0.140440
30
0.0
11
0.033181
21
0.142204
31
0.0
0
LINE
8
0
6
CONTINUOUS
10
0.033220
20
0.144542
30
0.0
11
0.031489
21
0.142391
31
0.0
0
LINE
8
0
6
CONTINUOUS
10
0.033181
20
0.142204
30
0.0
11
0.034851
21
0.144279
31
0.0
0
LINE
8
0
6
CONTINUOUS
10
0.035186
20
0.146985
30
0.0
11
0.033220
21
0.144542
31
0.0
0
LINE
8
0
6
CONTINUOUS
10
0.034851
20
0.144279
30
0.0
11
0.036748
21
0.146636
31
0.0
0
LINE
8
0
6
CONTINUOUS
10
0.037364
20
0.149690
30
0.0
11
0.035186
21
0.146985
31
0.0
0
LINE
8
0
6
CONTINUOUS
10
0.036748
20
0.146636
30
0.0
11
0.038849
21
0.149246
31
0.0
0
LINE
8
0
6
CONTINUOUS
10
0.039729
20
0.152628
30
0.0
11
0.037364
21
0.149690
31
0.0
0
LINE
8
0
6
CONTINUOUS
10
0.038849
20
0.149246
30
0.0
11
0.041130
21
0.152080
31
0.0
0
LINE
8
0
6
CONTINUOUS
10
0.042256
20
0.155768
30
0.0
11
0.039729
21
0.152628
31
0.0
0
LINE
8
0
6
CONTINUOUS
10
0.041130
20
0.152080
30
0.0
11
0.043567
21
0.155108
31
0.0
0
LINE
8
0
6
CONTINUOUS
10
0.044921
20
0.159079
30
0.0
11
0.042256
21
0.155768
31
0.0
0
LINE
8
0
6
CONTINUOUS
10
0.043567
20
0.155108
30
0.0
11
0.046137
21
0.158302
31
0.0
0
LINE
8
0
6
CONTINUOUS
10
0.047698
20
0.162529
30
0.0
11
0.044921
21
0.159079
31
0.0
0
LINE
8
0
6
CONTINUOUS
10
0.046137
20
0.158302
30
0.0
11
0.048817
21
0.161631
31
0.0
0
LINE
8
0
6
CONTINUOUS
10
0.050475
20
0.165979
30
0.0
11
0.047698
21
0.162529
31
0.0
0
LINE
8
0
6
CONTINUOUS
10
0.048817
20
0.161631
30
0.0
11
0.051497
21
0.164960
31
0.0
0
LINE
8
0
6
CONTINUOUS
10
0.053139
20
0.169290
30
0.0
11
0.050475
21
0.165979
31
0.0
0
LINE
8
0
6
CONTINUOUS
10
0.051497
20
0.164960
30
0.0
11
0.054067
21
0.168154
31
0.0
0
LINE
8
0
6
CONTINUOUS
10
0.055667
20
0.172430
30
0.0
11
0.053139
21
0.169290
31
0.0
0
LINE
8
0
6
CONTINUOUS
10
0.054067
20
0.168154
30
0.0
11
0.056505
21
0.171182
31
0.0
0
LINE
8
0
6
CONTINUOUS
10
0.058032
20
0.175368
30
0.0
11
0.055667
21
0.172430
31
0.0
0
LINE
8
0
6
CONTINUOUS
10
0.056505
20
0.171182
30
0.0
11
0.058786
21
0.174016
31
0.0
0
LINE
8
0
6
CONTINUOUS
10
0.060209
20
0.178074
30
0.0
11
0.058032
21
0.175368
31
0.0
0
LINE
8
0
6
CONTINUOUS
10
0.058786
20
0.174016
30
0.0
11
0.060887
21
0.176626
31
0.0
0
LINE
8
0
6
CONTINUOUS
10
0.062034
20
0.180341
30
0.0
11
0.060209
21
0.178074
31
0.0
0
LINE
8
0
6
CONTINUOUS
10
0.060887
20
0.176626
30
0.0
11
0.062783
21
0.178982
31
0.0
0
LINE
8
0
6
CONTINUOUS
10
0.062784
20
0.178983
30
0.0
11
0.064454
21
0.181058
31
0.0
0
LINE
8
0
6
CONTINUOUS
10
0.065378
20
0.184495
30
0.0
11
0.064024
21
0.182813
31
0.0
0
LINE
8
0
6
CONTINUOUS
10
0.064454
20
0.181058
30
0.0
11
0.065873
21
0.182821
31
0.0
0
LINE
8
0
6
CONTINUOUS
10
0.066565
20
0.185970
30
0.0
11
0.065378
21
0.184495
31
0.0
0
LINE
8
0
6
CONTINUOUS
10
0.065873
20
0.182821
30
0.0
11
0.067018
21
0.184244
31
0.0
0
LINE
8
0
6
CONTINUOUS
10
0.067443
20
0.187061
30
0.0
11
0.066565
21
0.185970
31
0.0
0
LINE
8
0
6
CONTINUOUS
10
0.067018
20
0.184244
30
0.0
11
0.067865
21
0.185296
31
0.0
0
LINE
8
0
6
CONTINUOUS
10
0.067865
20
0.185296
30
0.0
11
0.068391
21
0.185949
31
0.0
0
LINE
8
0
6
CONTINUOUS
10
0.068571
20
0.186173
30
0.0
11
0.068175
21
0.187970
31
0.0
0
LINE
8
0
6
CONTINUOUS
10
0.068391
20
0.185949
30
0.0
11
0.068571
21
0.186173
31
0.0
0
LINE
8
0
6
CONTINUOUS
10
0.039219
20
0.147195
30
0.0
11
0.040245
21
0.148449
31
0.0
0
LINE
8
0
6
CONTINUOUS
10
0.038547
20
0.146373
30
0.0
11
0.039219
21
0.147195
31
0.0
0
LINE
8
0
6
CONTINUOUS
10
0.040245
20
0.148449
30
0.0
11
0.040599
21
0.148881
31
0.0
0
LINE
8
0
6
CONTINUOUS
10
0.051265
20
0.170568
30
0.0
11
0.051938
21
0.171390
31
0.0
0
LINE
8
0
6
CONTINUOUS
10
0.050999
20
0.161949
30
0.0
11
0.051570
21
0.162647
31
0.0
0
LINE
8
0
6
CONTINUOUS
10
0.049928
20
0.162826
30
0.0
11
0.050999
21
0.161949
31
0.0
0
LINE
8
0
6
CONTINUOUS
10
0.051570
20
0.162647
30
0.0
11
0.052610
21
0.163919
31
0.0
0
LINE
8
0
6
CONTINUOUS
10
0.053080
20
0.164493
30
0.0
11
0.051899
21
0.165460
31
0.0
0
LINE
8
0
6
CONTINUOUS
10
0.052610
20
0.163919
30
0.0
11
0.053080
21
0.164493
31
0.0
0
LINE
8
0
6
CONTINUOUS
10
0.056672
20
0.171107
30
0.0
11
0.057243
21
0.171805
31
0.0
0
LINE
8
0
6
CONTINUOUS
10
0.057243
20
0.171805
30
0.0
11
0.058283
21
0.173077
31
0.0
0
LINE
8
0
6
CONTINUOUS
10
0.058753
20
0.173651
30
0.0
11
0.058596
21
0.173780
31
0.0
0
LINE
8
0
6
CONTINUOUS
10
0.058283
20
0.173077
30
0.0
11
0.058753
21
0.173651
31
0.0
0
LINE
8
0
6
CONTINUOUS
10
0.057947
20
0.170683
30
0.0
11
0.058689
21
0.171590
31
0.0
0
LINE
8
0
6
CONTINUOUS
10
0.057017
20
0.171445
30
0.0
11
0.057947
21
0.170683
31
0.0
0
LINE
8
0
6
CONTINUOUS
10
0.058689
20
0.171590
30
0.0
11
0.059694
21
0.172818
31
0.0
0
LINE
8
0
6
CONTINUOUS
10
0.045456
20
0.159911
30
0.0
11
0.046129
21
0.160733
31
0.0
0
LINE
8
0
6
CONTINUOUS
10
0.037608
20
0.150014
30
0.0
11
0.036802
21
0.150674
31
0.0
0
LINE
8
0
6
CONTINUOUS
10
0.037255
20
0.149583
30
0.0
11
0.037608
21
0.150014
31
0.0
0
LINE
8
0
6
CONTINUOUS
10
0.030940
20
0.140935
30
0.0
11
0.030095
21
0.141626
31
0.0
0
LINE
8
0
6
CONTINUOUS
10
0.030587
20
0.140503
30
0.0
11
0.030940
21
0.140935
31
0.0
0
LINE
8
0
6
CONTINUOUS
10
0.023509
20
0.135697
30
0.0
11
0.024182
21
0.136519
31
0.0
0
LINE
8
0
6
CONTINUOUS
10
0.022647
20
0.136403
30
0.0
11
0.023509
21
0.135697
31
0.0
0
LINE
8
0
6
CONTINUOUS
10
0.043997
20
0.151682
30
0.0
11
0.044351
21
0.152114
31
0.0
0
LINE
8
0
6
CONTINUOUS
10
0.041528
20
0.150960
30
0.0
11
0.042863
21
0.150841
31
0.0
0
LINE
8
0
6
CONTINUOUS
10
0.042863
20
0.150841
30
0.0
11
0.042935
21
0.150928
31
0.0
0
LINE
8
0
6
CONTINUOUS
10
0.042935
20
0.150928
30
0.0
11
0.043145
21
0.151182
31
0.0
0
LINE
8
0
6
CONTINUOUS
10
0.043145
20
0.151182
30
0.0
11
0.043484
21
0.151591
31
0.0
0
LINE
8
0
6
CONTINUOUS
10
0.043484
20
0.151591
30
0.0
11
0.043941
21
0.152144
31
0.0
0
LINE
8
0
6
CONTINUOUS
10
0.043941
20
0.152144
30
0.0
11
0.044509
21
0.152830
31
0.0
0
LINE
8
0
6
CONTINUOUS
10
0.044509
20
0.152830
30
0.0
11
0.045176
21
0.153637
31
0.0
0
LINE
8
0
6
CONTINUOUS
10
0.045176
20
0.153637
30
0.0
11
0.045935
21
0.154554
31
0.0
0
LINE
8
0
6
CONTINUOUS
10
0.045439
20
0.156063
30
0.0
11
0.044537
21
0.154973
31
0.0
0
LINE
8
0
6
CONTINUOUS
10
0.045935
20
0.154554
30
0.0
11
0.046775
21
0.155569
31
0.0
0
LINE
8
0
6
CONTINUOUS
10
0.046418
20
0.157247
30
0.0
11
0.045439
21
0.156063
31
0.0
0
LINE
8
0
6
CONTINUOUS
10
0.046775
20
0.155569
30
0.0
11
0.047687
21
0.156671
31
0.0
0
LINE
8
0
6
CONTINUOUS
10
0.047465
20
0.158512
30
0.0
11
0.046418
21
0.157247
31
0.0
0
LINE
8
0
6
CONTINUOUS
10
0.047687
20
0.156671
30
0.0
11
0.048662
21
0.157848
31
0.0
0
LINE
8
0
6
CONTINUOUS
10
0.048569
20
0.159846
30
0.0
11
0.047465
21
0.158512
31
0.0
0
LINE
8
0
6
CONTINUOUS
10
0.048662
20
0.157848
30
0.0
11
0.049689
21
0.159090
31
0.0
0
LINE
8
0
6
CONTINUOUS
10
0.049719
20
0.161236
30
0.0
11
0.048569
21
0.159846
31
0.0
0
LINE
8
0
6
CONTINUOUS
10
0.049689
20
0.159090
30
0.0
11
0.050761
21
0.160385
31
0.0
0
LINE
8
0
6
CONTINUOUS
10
0.050870
20
0.162626
30
0.0
11
0.049719
21
0.161236
31
0.0
0
LINE
8
0
6
CONTINUOUS
10
0.050761
20
0.160385
30
0.0
11
0.051832
21
0.161680
31
0.0
0
LINE
8
0
6
CONTINUOUS
10
0.051832
20
0.161680
30
0.0
11
0.052860
21
0.162922
31
0.0
0
LINE
8
0
6
CONTINUOUS
10
0.052860
20
0.162922
30
0.0
11
0.053835
21
0.164100
31
0.0
0
LINE
8
0
6
CONTINUOUS
10
0.054000
20
0.166409
30
0.0
11
0.053021
21
0.165225
31
0.0
0
LINE
8
0
6
CONTINUOUS
10
0.053835
20
0.164100
30
0.0
11
0.054747
21
0.165202
31
0.0
0
LINE
8
0
6
CONTINUOUS
10
0.054902
20
0.167499
30
0.0
11
0.054000
21
0.166409
31
0.0
0
LINE
8
0
6
CONTINUOUS
10
0.054747
20
0.165202
30
0.0
11
0.055587
21
0.166217
31
0.0
0
LINE
8
0
6
CONTINUOUS
10
0.055717
20
0.168483
30
0.0
11
0.054902
21
0.167499
31
0.0
0
LINE
8
0
6
CONTINUOUS
10
0.055587
20
0.166217
30
0.0
11
0.056345
21
0.167133
31
0.0
0
LINE
8
0
6
CONTINUOUS
10
0.056434
20
0.169349
30
0.0
11
0.055717
21
0.168483
31
0.0
0
LINE
8
0
6
CONTINUOUS
10
0.056345
20
0.167133
30
0.0
11
0.057013
21
0.167940
31
0.0
0
LINE
8
0
6
CONTINUOUS
10
0.057043
20
0.170086
30
0.0
11
0.056434
21
0.169349
31
0.0
0
LINE
8
0
6
CONTINUOUS
10
0.057013
20
0.167940
30
0.0
11
0.057581
21
0.168626
31
0.0
0
LINE
8
0
6
CONTINUOUS
10
0.057535
20
0.170680
30
0.0
11
0.057043
21
0.170086
31
0.0
0
LINE
8
0
6
CONTINUOUS
10
0.057581
20
0.168626
30
0.0
11
0.058038
21
0.169179
31
0.0
0
LINE
8
0
6
CONTINUOUS
10
0.058038
20
0.169179
30
0.0
11
0.058377
21
0.169588
31
0.0
0
LINE
8
0
6
CONTINUOUS
10
0.058377
20
0.169588
30
0.0
11
0.058587
21
0.169842
31
0.0
0
LINE
8
0
6
CONTINUOUS
10
0.058659
20
0.169929
30
0.0
11
0.058202
21
0.171486
31
0.0
0
LINE
8
0
6
CONTINUOUS
10
0.058587
20
0.169842
30
0.0
11
0.058659
21
0.169929
31
0.0
0
LINE
8
0
6
CONTINUOUS
10
0.042001
20
0.159409
30
0.0
11
0.041300
21
0.159982
31
0.0
0
LINE
8
0
6
CONTINUOUS
10
0.041647
20
0.158977
30
0.0
11
0.042001
21
0.159409
31
0.0
0
LINE
8
0
6
CONTINUOUS
10
0.026247
20
0.134341
30
0.0
11
0.027273
21
0.135595
31
0.0
0
LINE
8
0
6
CONTINUOUS
10
0.027273
20
0.135595
30
0.0
11
0.027626
21
0.136027
31
0.0
0
LINE
8
0
6
CONTINUOUS
10
0.034286
20
0.142750
30
0.0
11
0.035312
21
0.144004
31
0.0
0
LINE
8
0
6
CONTINUOUS
10
0.033613
20
0.141928
30
0.0
11
0.034286
21
0.142750
31
0.0
0
LINE
8
0
6
CONTINUOUS
10
0.035312
20
0.144004
30
0.0
11
0.035665
21
0.144436
31
0.0
0
LINE
8
0
6
CONTINUOUS
10
0.020469
20
0.129694
30
0.0
11
0.021495
21
0.130948
31
0.0
0
LINE
8
0
6
CONTINUOUS
10
0.021848
20
0.131379
30
0.0
11
0.021806
21
0.131414
31
0.0
0
LINE
8
0
6
CONTINUOUS
10
0.021495
20
0.130948
30
0.0
11
0.021848
21
0.131379
31
0.0
0
LINE
8
0
6
CONTINUOUS
10
0.067839
20
0.187036
30
0.0
11
0.068763
21
0.188166
31
0.0
0
LINE
8
0
6
CONTINUOUS
10
0.068763
20
0.188166
30
0.0
11
0.069642
21
0.189240
31
0.0
0
LINE
8
0
6
CONTINUOUS
10
0.063233
20
0.178707
30
0.0
11
0.064157
21
0.179836
31
0.0
0
LINE
8
0
6
CONTINUOUS
10
0.063188
20
0.178652
30
0.0
11
0.063233
21
0.178707
31
0.0
0
LINE
8
0
6
CONTINUOUS
10
0.064157
20
0.179836
30
0.0
11
0.065037
21
0.180911
31
0.0
0
LINE
8
0
6
CONTINUOUS
10
0.058246
20
0.170977
30
0.0
11
0.059251
21
0.172205
31
0.0
0
LINE
8
0
6
CONTINUOUS
10
0.059251
20
0.172205
30
0.0
11
0.059992
21
0.173112
31
0.0
0
LINE
8
0
6
CONTINUOUS
10
0.072028
20
0.195409
30
0.0
11
0.072830
21
0.196389
31
0.0
0
LINE
8
0
6
CONTINUOUS
10
0.072830
20
0.196389
30
0.0
11
0.073808
21
0.197584
31
0.0
0
LINE
8
0
6
CONTINUOUS
10
0.059496
20
0.180368
30
0.0
11
0.060067
21
0.181066
31
0.0
0
LINE
8
0
6
CONTINUOUS
10
0.058636
20
0.181072
30
0.0
11
0.059496
21
0.180368
31
0.0
0
LINE
8
0
6
CONTINUOUS
10
0.060067
20
0.181066
30
0.0
11
0.061108
21
0.182338
31
0.0
0
LINE
8
0
6
CONTINUOUS
10
0.061108
20
0.182338
30
0.0
11
0.061578
21
0.182912
31
0.0
0
LINE
8
0
6
CONTINUOUS
10
0.067213
20
0.189573
30
0.0
11
0.067954
21
0.190479
31
0.0
0
LINE
8
0
6
CONTINUOUS
10
0.066294
20
0.190325
30
0.0
11
0.067213
21
0.189573
31
0.0
0
LINE
8
0
6
CONTINUOUS
10
0.067954
20
0.190479
30
0.0
11
0.068959
21
0.191707
31
0.0
0
LINE
8
0
6
CONTINUOUS
10
0.068959
20
0.191707
30
0.0
11
0.069223
21
0.192029
31
0.0
0
LINE
8
0
6
CONTINUOUS
10
0.073557
20
0.197217
30
0.0
11
0.074325
21
0.198155
31
0.0
0
LINE
8
0
6
CONTINUOUS
10
0.074325
20
0.198155
30
0.0
11
0.075319
21
0.199370
31
0.0
0
LINE
8
0
6
CONTINUOUS
10
0.075547
20
0.199648
30
0.0
11
0.074023
21
0.200895
31
0.0
0
LINE
8
0
6
CONTINUOUS
10
0.075319
20
0.199370
30
0.0
11
0.075547
21
0.199648
31
0.0
0
LINE
8
0
6
CONTINUOUS
10
0.071959
20
0.195465
30
0.0
11
0.072135
21
0.195679
31
0.0
0
LINE
8
0
6
CONTINUOUS
10
0.071269
20
0.196030
30
0.0
11
0.071959
21
0.195465
31
0.0
0
LINE
8
0
6
CONTINUOUS
10
0.072135
20
0.195679
30
0.0
11
0.073112
21
0.196873
31
0.0
0
LINE
8
0
6
CONTINUOUS
10
0.073914
20
0.197854
30
0.0
11
0.073027
21
0.198579
31
0.0
0
LINE
8
0
6
CONTINUOUS
10
0.073112
20
0.196873
30
0.0
11
0.073914
21
0.197854
31
0.0
0
LINE
8
0
6
CONTINUOUS
10
0.049886
20
0.168883
30
0.0
11
0.050239
21
0.169314
31
0.0
0
LINE
8
0
6
CONTINUOUS
10
0.049073
20
0.169548
30
0.0
11
0.049886
21
0.168883
31
0.0
0
LINE
8
0
6
CONTINUOUS
10
0.050239
20
0.169314
30
0.0
11
0.051265
21
0.170568
31
0.0
0
LINE
8
0
6
CONTINUOUS
10
0.053768
20
0.170227
30
0.0
11
0.054339
21
0.170925
31
0.0
0
LINE
8
0
6
CONTINUOUS
10
0.052668
20
0.171128
30
0.0
11
0.053768
21
0.170227
31
0.0
0
LINE
8
0
6
CONTINUOUS
10
0.054339
20
0.170925
30
0.0
11
0.055380
21
0.172197
31
0.0
0
LINE
8
0
6
CONTINUOUS
10
0.055380
20
0.172197
30
0.0
11
0.055849
21
0.172771
31
0.0
0
LINE
8
0
6
CONTINUOUS
10
0.059957
20
0.173140
30
0.0
11
0.058826
21
0.174066
31
0.0
0
LINE
8
0
6
CONTINUOUS
10
0.062148
20
0.180246
30
0.0
11
0.062890
21
0.181153
31
0.0
0
LINE
8
0
6
CONTINUOUS
10
0.061060
20
0.181137
30
0.0
11
0.062148
21
0.180246
31
0.0
0
LINE
8
0
6
CONTINUOUS
10
0.062890
20
0.181153
30
0.0
11
0.063895
21
0.182381
31
0.0
0
LINE
8
0
6
CONTINUOUS
10
0.064158
20
0.182703
30
0.0
11
0.064024
21
0.182813
31
0.0
0
LINE
8
0
6
CONTINUOUS
10
0.063895
20
0.182381
30
0.0
11
0.064158
21
0.182703
31
0.0
0
LINE
8
0
6
CONTINUOUS
10
0.063151
20
0.178682
30
0.0
11
0.064030
21
0.179756
31
0.0
0
LINE
8
0
6
CONTINUOUS
10
0.062637
20
0.179102
30
0.0
11
0.063151
21
0.178682
31
0.0
0
LINE
8
0
6
CONTINUOUS
10
0.064030
20
0.179756
30
0.0
11
0.064954
21
0.180886
31
0.0
0
LINE
8
0
6
CONTINUOUS
10
0.064999
20
0.180941
30
0.0
11
0.064614
21
0.181257
31
0.0
0
LINE
8
0
6
CONTINUOUS
10
0.064954
20
0.180886
30
0.0
11
0.064999
21
0.180941
31
0.0
0
LINE
8
0
6
CONTINUOUS
10
0.067722
20
0.187039
30
0.0
11
0.068601
21
0.188114
31
0.0
0
LINE
8
0
6
CONTINUOUS
10
0.066690
20
0.187884
30
0.0
11
0.067722
21
0.187039
31
0.0
0
LINE
8
0
6
CONTINUOUS
10
0.068601
20
0.188114
30
0.0
11
0.069526
21
0.189243
31
0.0
0
LINE
8
0
6
CONTINUOUS
10
0.069571
20
0.189299
30
0.0
11
0.068708
21
0.190004
31
0.0
0
LINE
8
0
6
CONTINUOUS
10
0.069526
20
0.189243
30
0.0
11
0.069571
21
0.189299
31
0.0
0
LINE
8
0
6
CONTINUOUS
10
0.065230
20
0.181330
30
0.0
11
0.065406
21
0.181544
31
0.0
0
LINE
8
0
6
CONTINUOUS
10
0.064894
20
0.181605
30
0.0
11
0.065230
21
0.181330
31
0.0
0
LINE
8
0
6
CONTINUOUS
10
0.065406
20
0.181544
30
0.0
11
0.066383
21
0.182738
31
0.0
0
LINE
8
0
6
CONTINUOUS
10
0.066383
20
0.182738
30
0.0
11
0.067185
21
0.183719
31
0.0
0
LINE
8
0
6
CONTINUOUS
10
0.069785
20
0.189498
30
0.0
11
0.069961
21
0.189712
31
0.0
0
LINE
8
0
6
CONTINUOUS
10
0.068849
20
0.190264
30
0.0
11
0.069785
21
0.189498
31
0.0
0
LINE
8
0
6
CONTINUOUS
10
0.069961
20
0.189712
30
0.0
11
0.070938
21
0.190907
31
0.0
0
LINE
8
0
6
CONTINUOUS
10
0.071740
20
0.191887
30
0.0
11
0.070345
21
0.193028
31
0.0
0
LINE
8
0
6
CONTINUOUS
10
0.070938
20
0.190907
30
0.0
11
0.071740
21
0.191887
31
0.0
0
LINE
8
0
6
CONTINUOUS
10
0.043470
20
0.152459
30
0.0
11
0.043823
21
0.152891
31
0.0
0
LINE
8
0
6
CONTINUOUS
10
0.042508
20
0.153246
30
0.0
11
0.043470
21
0.152459
31
0.0
0
LINE
8
0
6
CONTINUOUS
10
0.043823
20
0.152891
30
0.0
11
0.044849
21
0.154144
31
0.0
0
LINE
8
0
6
CONTINUOUS
10
0.045521
20
0.154966
30
0.0
11
0.044274
21
0.155987
31
0.0
0
LINE
8
0
6
CONTINUOUS
10
0.044849
20
0.154144
30
0.0
11
0.045521
21
0.154966
31
0.0
0
LINE
8
0
6
CONTINUOUS
10
0.048069
20
0.160254
30
0.0
11
0.048422
21
0.160685
31
0.0
0
LINE
8
0
6
CONTINUOUS
10
0.048422
20
0.160685
30
0.0
11
0.049448
21
0.161939
31
0.0
0
LINE
8
0
6
CONTINUOUS
10
0.050120
20
0.162761
30
0.0
11
0.049883
21
0.162955
31
0.0
0
LINE
8
0
6
CONTINUOUS
10
0.049448
20
0.161939
30
0.0
11
0.050120
21
0.162761
31
0.0
0
LINE
8
0
6
CONTINUOUS
10
0.044077
20
0.158225
30
0.0
11
0.044430
21
0.158657
31
0.0
0
LINE
8
0
6
CONTINUOUS
10
0.043041
20
0.159073
30
0.0
11
0.044077
21
0.158225
31
0.0
0
LINE
8
0
6
CONTINUOUS
10
0.044430
20
0.158657
30
0.0
11
0.045456
21
0.159911
31
0.0
0
LINE
8
0
6
CONTINUOUS
10
0.018934
20
0.129578
30
0.0
11
0.019275
21
0.129298
31
0.0
0
LINE
8
0
6
CONTINUOUS
10
0.019628
20
0.129730
30
0.0
11
0.020654
21
0.130984
31
0.0
0
LINE
8
0
6
CONTINUOUS
10
0.020654
20
0.130984
30
0.0
11
0.021327
21
0.131806
31
0.0
0
LINE
8
0
6
CONTINUOUS
10
0.019147
20
0.127431
30
0.0
11
0.019500
21
0.127863
31
0.0
0
LINE
8
0
6
CONTINUOUS
10
0.018427
20
0.128021
30
0.0
11
0.019147
21
0.127431
31
0.0
0
LINE
8
0
6
CONTINUOUS
10
0.019500
20
0.127863
30
0.0
11
0.020526
21
0.129117
31
0.0
0
LINE
8
0
6
CONTINUOUS
10
0.021199
20
0.129939
30
0.0
11
0.020724
21
0.130327
31
0.0
0
LINE
8
0
6
CONTINUOUS
10
0.020526
20
0.129117
30
0.0
11
0.021199
21
0.129939
31
0.0
0
LINE
8
0
6
CONTINUOUS
10
0.033566
20
0.141967
30
0.0
11
0.033919
21
0.142399
31
0.0
0
LINE
8
0
6
CONTINUOUS
10
0.033919
20
0.142399
30
0.0
11
0.034945
21
0.143652
31
0.0
0
LINE
8
0
6
CONTINUOUS
10
0.035618
20
0.144474
30
0.0
11
0.035250
21
0.144775
31
0.0
0
LINE
8
0
6
CONTINUOUS
10
0.034945
20
0.143652
30
0.0
11
0.035618
21
0.144474
31
0.0
0
LINE
8
0
6
CONTINUOUS
10
0.036229
20
0.148329
30
0.0
11
0.037255
21
0.149583
31
0.0
0
LINE
8
0
6
CONTINUOUS
10
0.035556
20
0.147507
30
0.0
11
0.036229
21
0.148329
31
0.0
0
LINE
8
0
6
CONTINUOUS
10
0.034452
20
0.148411
30
0.0
11
0.035556
21
0.147507
31
0.0
0
LINE
8
0
6
CONTINUOUS
10
0.041319
20
0.151767
30
0.0
11
0.041672
21
0.152198
31
0.0
0
LINE
8
0
6
CONTINUOUS
10
0.040293
20
0.150513
30
0.0
11
0.041319
21
0.151767
31
0.0
0
LINE
8
0
6
CONTINUOUS
10
0.039621
20
0.149691
30
0.0
11
0.040293
21
0.150513
31
0.0
0
LINE
8
0
6
CONTINUOUS
10
0.029561
20
0.139249
30
0.0
11
0.030587
21
0.140503
31
0.0
0
LINE
8
0
6
CONTINUOUS
10
0.028889
20
0.138427
30
0.0
11
0.029561
21
0.139249
31
0.0
0
LINE
8
0
6
CONTINUOUS
10
0.027698
20
0.139401
30
0.0
11
0.028889
21
0.138427
31
0.0
0
LINE
8
0
6
CONTINUOUS
10
0.025561
20
0.138205
30
0.0
11
0.025082
21
0.138597
31
0.0
0
LINE
8
0
6
CONTINUOUS
10
0.025208
20
0.137773
30
0.0
11
0.025561
21
0.138205
31
0.0
0
LINE
8
0
6
CONTINUOUS
10
0.024182
20
0.136519
30
0.0
11
0.025208
21
0.137773
31
0.0
0
LINE
8
0
6
CONTINUOUS
10
0.032625
20
0.147866
30
0.0
11
0.032262
21
0.148163
31
0.0
0
LINE
8
0
6
CONTINUOUS
10
0.032271
20
0.147434
30
0.0
11
0.032625
21
0.147866
31
0.0
0
LINE
8
0
6
CONTINUOUS
10
0.031246
20
0.146180
30
0.0
11
0.032271
21
0.147434
31
0.0
0
LINE
8
0
6
CONTINUOUS
10
0.030573
20
0.145358
30
0.0
11
0.031246
21
0.146180
31
0.0
0
LINE
8
0
6
CONTINUOUS
10
0.029903
20
0.145907
30
0.0
11
0.030573
21
0.145358
31
0.0
0
LINE
8
0
6
CONTINUOUS
10
0.025518
20
0.133565
30
0.0
11
0.025872
21
0.133997
31
0.0
0
LINE
8
0
6
CONTINUOUS
10
0.024591
20
0.134324
30
0.0
11
0.025518
21
0.133565
31
0.0
0
LINE
8
0
6
CONTINUOUS
10
0.025872
20
0.133997
30
0.0
11
0.026897
21
0.135250
31
0.0
0
LINE
8
0
6
CONTINUOUS
10
0.027570
20
0.136072
30
0.0
11
0.027169
21
0.136400
31
0.0
0
LINE
8
0
6
CONTINUOUS
10
0.031496
20
0.138836
30
0.0
11
0.031849
21
0.139268
31
0.0
0
LINE
8
0
6
CONTINUOUS
10
0.030515
20
0.139638
30
0.0
11
0.031496
21
0.138836
31
0.0
0
LINE
8
0
6
CONTINUOUS
10
0.031849
20
0.139268
30
0.0
11
0.032875
21
0.140522
31
0.0
0
LINE
8
0
6
CONTINUOUS
10
0.033547
20
0.141344
30
0.0
11
0.032909
21
0.141866
31
0.0
0
LINE
8
0
6
CONTINUOUS
10
0.032875
20
0.140522
30
0.0
11
0.033547
21
0.141344
31
0.0
0
LINE
8
0
6
CONTINUOUS
10
0.038522
20
0.146394
30
0.0
11
0.038875
21
0.146826
31
0.0
0
LINE
8
0
6
CONTINUOUS
10
0.037519
20
0.147214
30
0.0
11
0.038522
21
0.146394
31
0.0
0
LINE
8
0
6
CONTINUOUS
10
0.038875
20
0.146826
30
0.0
11
0.039901
21
0.148079
31
0.0
0
LINE
8
0
6
CONTINUOUS
10
0.040573
20
0.148901
30
0.0
11
0.039996
21
0.149374
31
0.0
0
LINE
8
0
6
CONTINUOUS
10
0.039901
20
0.148079
30
0.0
11
0.040573
21
0.148901
31
0.0
0
LINE
8
0
6
CONTINUOUS
10
0.044351
20
0.152114
30
0.0
11
0.045376
21
0.153368
31
0.0
0
LINE
8
0
6
CONTINUOUS
10
0.045376
20
0.153368
30
0.0
11
0.046049
21
0.154190
31
0.0
0
LINE
8
0
6
CONTINUOUS
10
0.060720
20
0.173952
30
0.0
11
0.061644
21
0.175081
31
0.0
0
LINE
8
0
6
CONTINUOUS
10
0.060675
20
0.173897
30
0.0
11
0.060720
21
0.173952
31
0.0
0
LINE
8
0
6
CONTINUOUS
10
0.059735
20
0.174666
30
0.0
11
0.060675
21
0.173897
31
0.0
0
LINE
8
0
6
CONTINUOUS
10
0.062523
20
0.176156
30
0.0
11
0.061342
21
0.177123
31
0.0
0
LINE
8
0
6
CONTINUOUS
10
0.061644
20
0.175081
30
0.0
11
0.062523
21
0.176156
31
0.0
0
LINE
8
0
6
CONTINUOUS
10
0.040622
20
0.157723
30
0.0
11
0.041647
21
0.158977
31
0.0
0
LINE
8
0
6
CONTINUOUS
10
0.039949
20
0.156901
30
0.0
11
0.040622
21
0.157723
31
0.0
0
LINE
8
0
6
CONTINUOUS
10
0.039062
20
0.157627
30
0.0
11
0.039949
21
0.156901
31
0.0
0
LINE
8
0
6
CONTINUOUS
10
0.040245
20
0.148449
30
0.0
11
0.039219
21
0.147195
31
0.0
0
LINE
8
0
6
CONTINUOUS
10
0.040599
20
0.148881
30
0.0
11
0.040245
21
0.148449
31
0.0
0
LINE
8
0
6
CONTINUOUS
10
0.039219
20
0.147195
30
0.0
11
0.038547
21
0.146373
31
0.0
0
LINE
8
0
6
CONTINUOUS
10
0.027273
20
0.135595
30
0.0
11
0.026247
21
0.134341
31
0.0
0
LINE
8
0
6
CONTINUOUS
10
0.027626
20
0.136027
30
0.0
11
0.027273
21
0.135595
31
0.0
0
LINE
8
0
6
CONTINUOUS
10
0.026247
20
0.134341
30
0.0
11
0.025574
21
0.133519
31
0.0
0
LINE
8
0
6
CONTINUOUS
10
0.035312
20
0.144004
30
0.0
11
0.034286
21
0.142750
31
0.0
0
LINE
8
0
6
CONTINUOUS
10
0.035665
20
0.144436
30
0.0
11
0.035312
21
0.144004
31
0.0
0
LINE
8
0
6
CONTINUOUS
10
0.034286
20
0.142750
30
0.0
11
0.033613
21
0.141928
31
0.0
0
LINE
8
0
6
CONTINUOUS
10
0.021495
20
0.130948
30
0.0
11
0.020469
21
0.129694
31
0.0
0
LINE
8
0
6
CONTINUOUS
10
0.021848
20
0.131379
30
0.0
11
0.021495
21
0.130948
31
0.0
0
LINE
8
0
6
CONTINUOUS
10
0.068763
20
0.188166
30
0.0
11
0.067839
21
0.187036
31
0.0
0
LINE
8
0
6
CONTINUOUS
10
0.069642
20
0.189240
30
0.0
11
0.068763
21
0.188166
31
0.0
0
LINE
8
0
6
CONTINUOUS
10
0.064157
20
0.179836
30
0.0
11
0.063233
21
0.178707
31
0.0
0
LINE
8
0
6
CONTINUOUS
10
0.065037
20
0.180911
30
0.0
11
0.064157
21
0.179836
31
0.0
0
LINE
8
0
6
CONTINUOUS
10
0.063233
20
0.178707
30
0.0
11
0.063188
21
0.178652
31
0.0
0
LINE
8
0
6
CONTINUOUS
10
0.059251
20
0.172205
30
0.0
11
0.058246
21
0.170977
31
0.0
0
LINE
8
0
6
CONTINUOUS
10
0.059992
20
0.173112
30
0.0
11
0.059251
21
0.172205
31
0.0
0
LINE
8
0
6
CONTINUOUS
10
0.072830
20
0.196389
30
0.0
11
0.072028
21
0.195409
31
0.0
0
LINE
8
0
6
CONTINUOUS
10
0.073808
20
0.197584
30
0.0
11
0.072830
21
0.196389
31
0.0
0
LINE
8
0
6
CONTINUOUS
10
0.060067
20
0.181066
30
0.0
11
0.059496
21
0.180368
31
0.0
0
LINE
8
0
6
CONTINUOUS
10
0.061108
20
0.182338
30
0.0
11
0.060067
21
0.181066
31
0.0
0
LINE
8
0
6
CONTINUOUS
10
0.061578
20
0.182912
30
0.0
11
0.061108
21
0.182338
31
0.0
0
LINE
8
0
6
CONTINUOUS
10
0.067954
20
0.190479
30
0.0
11
0.067213
21
0.189573
31
0.0
0
LINE
8
0
6
CONTINUOUS
10
0.068959
20
0.191707
30
0.0
11
0.067954
21
0.190479
31
0.0
0
LINE
8
0
6
CONTINUOUS
10
0.069223
20
0.192029
30
0.0
11
0.068959
21
0.191707
31
0.0
0
LINE
8
0
6
CONTINUOUS
10
0.074325
20
0.198155
30
0.0
11
0.073557
21
0.197217
31
0.0
0
LINE
8
0
6
CONTINUOUS
10
0.075319
20
0.199370
30
0.0
11
0.074325
21
0.198155
31
0.0
0
LINE
8
0
6
CONTINUOUS
10
0.075547
20
0.199648
30
0.0
11
0.075319
21
0.199370
31
0.0
0
LINE
8
0
6
CONTINUOUS
10
0.072135
20
0.195679
30
0.0
11
0.071959
21
0.195465
31
0.0
0
LINE
8
0
6
CONTINUOUS
10
0.073112
20
0.196873
30
0.0
11
0.072135
21
0.195679
31
0.0
0
LINE
8
0
6
CONTINUOUS
10
0.073914
20
0.197854
30
0.0
11
0.073112
21
0.196873
31
0.0
0
LINE
8
0
6
CONTINUOUS
10
0.050239
20
0.169314
30
0.0
11
0.049886
21
0.168883
31
0.0
0
LINE
8
0
6
CONTINUOUS
10
0.051265
20
0.170568
30
0.0
11
0.050239
21
0.169314
31
0.0
0
LINE
8
0
6
CONTINUOUS
10
0.051938
20
0.171390
30
0.0
11
0.051265
21
0.170568
31
0.0
0
LINE
8
0
6
CONTINUOUS
10
0.051570
20
0.162647
30
0.0
11
0.050999
21
0.161949
31
0.0
0
LINE
8
0
6
CONTINUOUS
10
0.052610
20
0.163919
30
0.0
11
0.051570
21
0.162647
31
0.0
0
LINE
8
0
6
CONTINUOUS
10
0.053080
20
0.164493
30
0.0
11
0.052610
21
0.163919
31
0.0
0
LINE
8
0
6
CONTINUOUS
10
0.057243
20
0.171805
30
0.0
11
0.056672
21
0.171107
31
0.0
0
LINE
8
0
6
CONTINUOUS
10
0.058283
20
0.173077
30
0.0
11
0.057243
21
0.171805
31
0.0
0
LINE
8
0
6
CONTINUOUS
10
0.058753
20
0.173651
30
0.0
11
0.058283
21
0.173077
31
0.0
0
LINE
8
0
6
CONTINUOUS
10
0.054339
20
0.170925
30
0.0
11
0.053768
21
0.170227
31
0.0
0
LINE
8
0
6
CONTINUOUS
10
0.055380
20
0.172197
30
0.0
11
0.054339
21
0.170925
31
0.0
0
LINE
8
0
6
CONTINUOUS
10
0.055849
20
0.172771
30
0.0
11
0.055380
21
0.172197
31
0.0
0
LINE
8
0
6
CONTINUOUS
10
0.058689
20
0.171590
30
0.0
11
0.057947
21
0.170683
31
0.0
0
LINE
8
0
6
CONTINUOUS
10
0.059694
20
0.172818
30
0.0
11
0.058689
21
0.171590
31
0.0
0
LINE
8
0
6
CONTINUOUS
10
0.059957
20
0.173140
30
0.0
11
0.059694
21
0.172818
31
0.0
0
LINE
8
0
6
CONTINUOUS
10
0.062890
20
0.181153
30
0.0
11
0.062148
21
0.180246
31
0.0
0
LINE
8
0
6
CONTINUOUS
10
0.063895
20
0.182381
30
0.0
11
0.062890
21
0.181153
31
0.0
0
LINE
8
0
6
CONTINUOUS
10
0.064158
20
0.182703
30
0.0
11
0.063895
21
0.182381
31
0.0
0
LINE
8
0
6
CONTINUOUS
10
0.064030
20
0.179756
30
0.0
11
0.063151
21
0.178682
31
0.0
0
LINE
8
0
6
CONTINUOUS
10
0.064954
20
0.180886
30
0.0
11
0.064030
21
0.179756
31
0.0
0
LINE
8
0
6
CONTINUOUS
10
0.064999
20
0.180941
30
0.0
11
0.064954
21
0.180886
31
0.0
0
LINE
8
0
6
CONTINUOUS
10
0.068601
20
0.188114
30
0.0
11
0.067722
21
0.187039
31
0.0
0
LINE
8
0
6
CONTINUOUS
10
0.069526
20
0.189243
30
0.0
11
0.068601
21
0.188114
31
0.0
0
LINE
8
0
6
CONTINUOUS
10
0.069571
20
0.189299
30
0.0
11
0.069526
21
0.189243
31
0.0
0
LINE
8
0
6
CONTINUOUS
10
0.065406
20
0.181544
30
0.0
11
0.065230
21
0.181330
31
0.0
0
LINE
8
0
6
CONTINUOUS
10
0.066383
20
0.182738
30
0.0
11
0.065406
21
0.181544
31
0.0
0
LINE
8
0
6
CONTINUOUS
10
0.067185
20
0.183719
30
0.0
11
0.066383
21
0.182738
31
0.0
0
LINE
8
0
6
CONTINUOUS
10
0.069961
20
0.189712
30
0.0
11
0.069785
21
0.189498
31
0.0
0
LINE
8
0
6
CONTINUOUS
10
0.070938
20
0.190907
30
0.0
11
0.069961
21
0.189712
31
0.0
0
LINE
8
0
6
CONTINUOUS
10
0.071740
20
0.191887
30
0.0
11
0.070938
21
0.190907
31
0.0
0
LINE
8
0
6
CONTINUOUS
10
0.043823
20
0.152891
30
0.0
11
0.043470
21
0.152459
31
0.0
0
LINE
8
0
6
CONTINUOUS
10
0.044849
20
0.154144
30
0.0
11
0.043823
21
0.152891
31
0.0
0
LINE
8
0
6
CONTINUOUS
10
0.045521
20
0.154966
30
0.0
11
0.044849
21
0.154144
31
0.0
0
LINE
8
0
6
CONTINUOUS
10
0.048422
20
0.160685
30
0.0
11
0.048069
21
0.160254
31
0.0
0
LINE
8
0
6
CONTINUOUS
10
0.049448
20
0.161939
30
0.0
11
0.048422
21
0.160685
31
0.0
0
LINE
8
0
6
CONTINUOUS
10
0.050120
20
0.162761
30
0.0
11
0.049448
21
0.161939
31
0.0
0
LINE
8
0
6
CONTINUOUS
10
0.044430
20
0.158657
30
0.0
11
0.044077
21
0.158225
31
0.0
0
LINE
8
0
6
CONTINUOUS
10
0.045456
20
0.159911
30
0.0
11
0.044430
21
0.158657
31
0.0
0
LINE
8
0
6
CONTINUOUS
10
0.046129
20
0.160733
30
0.0
11
0.045456
21
0.159911
31
0.0
0
LINE
8
0
6
CONTINUOUS
10
0.019628
20
0.129730
30
0.0
11
0.019275
21
0.129298
31
0.0
0
LINE
8
0
6
CONTINUOUS
10
0.020654
20
0.130984
30
0.0
11
0.019628
21
0.129730
31
0.0
0
LINE
8
0
6
CONTINUOUS
10
0.021327
20
0.131806
30
0.0
11
0.020654
21
0.130984
31
0.0
0
LINE
8
0
6
CONTINUOUS
10
0.019500
20
0.127863
30
0.0
11
0.019147
21
0.127431
31
0.0
0
LINE
8
0
6
CONTINUOUS
10
0.020526
20
0.129117
30
0.0
11
0.019500
21
0.127863
31
0.0
0
LINE
8
0
6
CONTINUOUS
10
0.021199
20
0.129939
30
0.0
11
0.020526
21
0.129117
31
0.0
0
LINE
8
0
6
CONTINUOUS
10
0.033919
20
0.142399
30
0.0
11
0.033566
21
0.141967
31
0.0
0
LINE
8
0
6
CONTINUOUS
10
0.034945
20
0.143652
30
0.0
11
0.033919
21
0.142399
31
0.0
0
LINE
8
0
6
CONTINUOUS
10
0.035618
20
0.144474
30
0.0
11
0.034945
21
0.143652
31
0.0
0
LINE
8
0
6
CONTINUOUS
10
0.036229
20
0.148329
30
0.0
11
0.035556
21
0.147507
31
0.0
0
LINE
8
0
6
CONTINUOUS
10
0.037255
20
0.149583
30
0.0
11
0.036229
21
0.148329
31
0.0
0
LINE
8
0
6
CONTINUOUS
10
0.037608
20
0.150014
30
0.0
11
0.037255
21
0.149583
31
0.0
0
LINE
8
0
6
CONTINUOUS
10
0.040293
20
0.150513
30
0.0
11
0.039621
21
0.149691
31
0.0
0
LINE
8
0
6
CONTINUOUS
10
0.041319
20
0.151767
30
0.0
11
0.040293
21
0.150513
31
0.0
0
LINE
8
0
6
CONTINUOUS
10
0.041672
20
0.152198
30
0.0
11
0.041319
21
0.151767
31
0.0
0
LINE
8
0
6
CONTINUOUS
10
0.029561
20
0.139249
30
0.0
11
0.028889
21
0.138427
31
0.0
0
LINE
8
0
6
CONTINUOUS
10
0.030587
20
0.140503
30
0.0
11
0.029561
21
0.139249
31
0.0
0
LINE
8
0
6
CONTINUOUS
10
0.030940
20
0.140935
30
0.0
11
0.030587
21
0.140503
31
0.0
0
LINE
8
0
6
CONTINUOUS
10
0.024182
20
0.136519
30
0.0
11
0.023509
21
0.135697
31
0.0
0
LINE
8
0
6
CONTINUOUS
10
0.025208
20
0.137773
30
0.0
11
0.024182
21
0.136519
31
0.0
0
LINE
8
0
6
CONTINUOUS
10
0.025561
20
0.138205
30
0.0
11
0.025208
21
0.137773
31
0.0
0
LINE
8
0
6
CONTINUOUS
10
0.031246
20
0.146180
30
0.0
11
0.030573
21
0.145358
31
0.0
0
LINE
8
0
6
CONTINUOUS
10
0.032271
20
0.147434
30
0.0
11
0.031246
21
0.146180
31
0.0
0
LINE
8
0
6
CONTINUOUS
10
0.032625
20
0.147866
30
0.0
11
0.032271
21
0.147434
31
0.0
0
LINE
8
0
6
CONTINUOUS
10
0.025872
20
0.133997
30
0.0
11
0.025518
21
0.133565
31
0.0
0
LINE
8
0
6
CONTINUOUS
10
0.026897
20
0.135250
30
0.0
11
0.025872
21
0.133997
31
0.0
0
LINE
8
0
6
CONTINUOUS
10
0.027570
20
0.136072
30
0.0
11
0.026897
21
0.135250
31
0.0
0
LINE
8
0
6
CONTINUOUS
10
0.031849
20
0.139268
30
0.0
11
0.031496
21
0.138836
31
0.0
0
LINE
8
0
6
CONTINUOUS
10
0.032875
20
0.140522
30
0.0
11
0.031849
21
0.139268
31
0.0
0
LINE
8
0
6
CONTINUOUS
10
0.033547
20
0.141344
30
0.0
11
0.032875
21
0.140522
31
0.0
0
LINE
8
0
6
CONTINUOUS
10
0.038875
20
0.146826
30
0.0
11
0.038522
21
0.146394
31
0.0
0
LINE
8
0
6
CONTINUOUS
10
0.039901
20
0.148079
30
0.0
11
0.038875
21
0.146826
31
0.0
0
LINE
8
0
6
CONTINUOUS
10
0.040573
20
0.148901
30
0.0
11
0.039901
21
0.148079
31
0.0
0
LINE
8
0
6
CONTINUOUS
10
0.044351
20
0.152114
30
0.0
11
0.043997
21
0.151682
31
0.0
0
LINE
8
0
6
CONTINUOUS
10
0.045376
20
0.153368
30
0.0
11
0.044351
21
0.152114
31
0.0
0
LINE
8
0
6
CONTINUOUS
10
0.046049
20
0.154190
30
0.0
11
0.045376
21
0.153368
31
0.0
0
LINE
8
0
6
CONTINUOUS
10
0.061644
20
0.175081
30
0.0
11
0.060720
21
0.173952
31
0.0
0
LINE
8
0
6
CONTINUOUS
10
0.062523
20
0.176156
30
0.0
11
0.061644
21
0.175081
31
0.0
0
LINE
8
0
6
CONTINUOUS
10
0.060720
20
0.173952
30
0.0
11
0.060675
21
0.173897
31
0.0
0
LINE
8
0
6
CONTINUOUS
10
0.040622
20
0.157723
30
0.0
11
0.039949
21
0.156901
31
0.0
0
LINE
8
0
6
CONTINUOUS
10
0.041647
20
0.158977
30
0.0
11
0.040622
21
0.157723
31
0.0
0
LINE
8
0
6
CONTINUOUS
10
0.042001
20
0.159409
30
0.0
11
0.041647
21
0.158977
31
0.0
0
LINE
8
0
6
CONTINUOUS
10
0.076852
20
0.207559
30
0.0
11
0.076066
21
0.208547
31
0.0
0
LINE
8
0
6
CONTINUOUS
10
-0.004507
20
0.138507
30
0.0
11
-0.006040
21
0.135060
31
0.0
0
LINE
8
0
6
CONTINUOUS
10
0.059512
20
0.213751
30
0.0
11
0.056270
21
0.209762
31
0.0
0
LINE
8
0
6
CONTINUOUS
10
0.063618
20
0.218688
30
0.0
11
0.063145
21
0.218348
31
0.0
0
LINE
8
0
6
CONTINUOUS
10
0.056270
20
0.209762
30
0.0
11
0.052247
21
0.204738
31
0.0
0
LINE
8
0
6
CONTINUOUS
10
-0.020501
20
0.003201
30
0.0
11
-0.016338
21
0.018449
31
0.0
0
LINE
8
0
6
CONTINUOUS
10
-0.039353
20
0.024295
30
0.0
11
-0.043671
21
0.008960
31
0.0
0
LINE
8
0
6
CONTINUOUS
10
-0.029677
20
0.057807
30
0.0
11
-0.039353
21
0.024295
31
0.0
0
LINE
8
0
6
CONTINUOUS
10
-0.006991
20
0.052027
30
0.0
11
0.000802
21
0.077911
31
0.0
0
LINE
8
0
6
CONTINUOUS
10
0.000802
20
0.077911
30
0.0
11
0.005496
21
0.097369
31
0.0
0
LINE
8
0
6
CONTINUOUS
10
-0.022275
20
0.083544
30
0.0
11
-0.029677
21
0.057807
31
0.0
0
LINE
8
0
6
CONTINUOUS
10
-0.016153
20
0.104732
30
0.0
11
-0.022275
21
0.083544
31
0.0
0
LINE
8
0
6
CONTINUOUS
10
-0.012855
20
0.115762
30
0.0
11
-0.016153
21
0.104732
31
0.0
0
LINE
8
0
6
CONTINUOUS
10
-0.010426
20
0.123371
30
0.0
11
-0.012855
21
0.115762
31
0.0
0
LINE
8
0
6
CONTINUOUS
10
-0.008930
20
0.127710
30
0.0
11
-0.010426
21
0.123371
31
0.0
0
LINE
8
0
6
CONTINUOUS
10
-0.006040
20
0.135060
30
0.0
11
-0.007410
21
0.131655
31
0.0
0
LINE
8
0
6
CONTINUOUS
10
0.065288
20
0.218685
30
0.0
11
0.063618
21
0.218688
31
0.0
0
LINE
8
0
6
CONTINUOUS
10
0.065903
20
0.218121
30
0.0
11
0.065288
21
0.218685
31
0.0
0
LINE
8
0
6
CONTINUOUS
10
0.075943
20
0.208670
30
0.0
11
0.072606
21
0.211977
31
0.0
0
LINE
8
0
6
CONTINUOUS
10
-0.007410
20
0.131655
30
0.0
11
-0.008930
21
0.127710
31
0.0
0
LINE
8
0
6
CONTINUOUS
10
-0.016338
20
0.018449
30
0.0
11
-0.006991
21
0.052027
31
0.0
0
LINE
8
0
6
CONTINUOUS
10
-0.002570
20
0.142557
30
0.0
11
-0.004507
21
0.138507
31
0.0
0
LINE
8
0
6
CONTINUOUS
10
-0.000516
20
0.146664
30
0.0
11
-0.002570
21
0.142557
31
0.0
0
LINE
8
0
6
CONTINUOUS
10
0.006653
20
0.158663
30
0.0
11
0.004815
21
0.155751
31
0.0
0
LINE
8
0
6
CONTINUOUS
10
0.002976
20
0.152840
30
0.0
11
0.001230
21
0.149752
31
0.0
0
LINE
8
0
6
CONTINUOUS
10
0.017558
20
0.173740
30
0.0
11
0.006653
21
0.158663
31
0.0
0
LINE
8
0
6
CONTINUOUS
10
0.030415
20
0.188947
30
0.0
11
0.023987
21
0.181343
31
0.0
0
LINE
8
0
6
CONTINUOUS
10
0.044814
20
0.203319
30
0.0
11
0.037615
21
0.196133
31
0.0
0
LINE
8
0
6
CONTINUOUS
10
0.056164
20
0.213040
30
0.0
11
0.050489
21
0.208179
31
0.0
0
LINE
8
0
6
CONTINUOUS
10
0.021634
20
0.138904
30
0.0
11
0.024539
21
0.142448
31
0.0
0
LINE
8
0
6
CONTINUOUS
10
0.063145
20
0.218348
30
0.0
11
0.056164
21
0.213040
31
0.0
0
LINE
8
0
6
CONTINUOUS
10
0.018037
20
0.134028
30
0.0
11
0.019538
21
0.136108
31
0.0
0
LINE
8
0
6
CONTINUOUS
10
0.074493
20
0.204349
30
0.0
11
0.076097
21
0.206300
31
0.0
0
LINE
8
0
6
CONTINUOUS
10
0.015313
20
0.129923
30
0.0
11
0.018037
21
0.134028
31
0.0
0
LINE
8
0
6
CONTINUOUS
10
0.028265
20
0.146985
30
0.0
11
0.033803
21
0.153945
31
0.0
0
LINE
8
0
6
CONTINUOUS
10
0.072606
20
0.211977
30
0.0
11
0.065903
21
0.218121
31
0.0
0
LINE
8
0
6
CONTINUOUS
10
0.076066
20
0.208547
30
0.0
11
0.075943
21
0.208670
31
0.0
0
LINE
8
0
6
CONTINUOUS
10
-0.020923
20
0.002834
30
0.0
11
-0.020537
21
0.003062
31
0.0
0
LINE
8
0
6
CONTINUOUS
10
-0.036803
20
0.006782
30
0.0
11
-0.032621
21
0.005742
31
0.0
0
LINE
8
0
6
CONTINUOUS
10
-0.037720
20
0.007010
30
0.0
11
-0.037382
21
0.006926
31
0.0
0
LINE
8
0
6
CONTINUOUS
10
-0.037382
20
0.006926
30
0.0
11
-0.036803
21
0.006782
31
0.0
0
LINE
8
0
6
CONTINUOUS
10
-0.040162
20
0.007617
30
0.0
11
-0.037720
21
0.007010
31
0.0
0
LINE
8
0
6
CONTINUOUS
10
-0.043709
20
0.008822
30
0.0
11
-0.043486
21
0.008443
31
0.0
0
LINE
8
0
6
CONTINUOUS
10
-0.020537
20
0.003062
30
0.0
11
-0.020501
21
0.003201
31
0.0
0
LINE
8
0
6
CONTINUOUS
10
-0.043671
20
0.008960
30
0.0
11
-0.043709
21
0.008822
31
0.0
0
LINE
8
0
6
CONTINUOUS
10
0.005730
20
0.100922
30
0.0
11
0.005409
21
0.103037
31
0.0
0
LINE
8
0
6
CONTINUOUS
10
0.006074
20
0.100000
30
0.0
11
0.005730
21
0.100922
31
0.0
0
LINE
8
0
6
CONTINUOUS
10
0.006132
20
0.099724
30
0.0
11
0.006074
21
0.100000
31
0.0
0
LINE
8
0
6
CONTINUOUS
10
0.005496
20
0.097369
30
0.0
11
0.006132
21
0.099724
31
0.0
0
LINE
8
0
6
CONTINUOUS
10
0.005409
20
0.103037
30
0.0
11
0.007696
21
0.112296
31
0.0
0
LINE
8
0
6
CONTINUOUS
10
0.007696
20
0.112296
30
0.0
11
0.011582
21
0.121123
31
0.0
0
LINE
8
0
6
CONTINUOUS
10
0.013395
20
0.126508
30
0.0
11
0.015313
21
0.129923
31
0.0
0
LINE
8
0
6
CONTINUOUS
10
0.069779
20
0.198292
30
0.0
11
0.072418
21
0.201536
31
0.0
0
LINE
8
0
6
CONTINUOUS
10
0.072418
20
0.201536
30
0.0
11
0.074493
21
0.204349
31
0.0
0
LINE
8
0
6
CONTINUOUS
10
0.076597
20
0.206887
30
0.0
11
0.076852
21
0.207559
31
0.0
0
LINE
8
0
6
CONTINUOUS
10
0.076097
20
0.206300
30
0.0
11
0.076597
21
0.206887
31
0.0
0
LINE
8
0
6
CONTINUOUS
10
0.046028
20
0.168861
30
0.0
11
0.051455
21
0.175481
31
0.0
0
LINE
8
0
6
CONTINUOUS
10
0.066046
20
0.193689
30
0.0
11
0.069779
21
0.198292
31
0.0
0
LINE
8
0
6
CONTINUOUS
10
0.061333
20
0.187736
30
0.0
11
0.066046
21
0.193689
31
0.0
0
LINE
8
0
6
CONTINUOUS
10
0.033803
20
0.153945
30
0.0
11
0.040102
21
0.161628
31
0.0
0
LINE
8
0
6
CONTINUOUS
10
0.013295
20
0.125043
30
0.0
11
0.013395
21
0.126508
31
0.0
0
LINE
8
0
6
CONTINUOUS
10
0.011582
20
0.121123
30
0.0
11
0.013284
21
0.124896
31
0.0
0
LINE
8
0
6
CONTINUOUS
10
0.013284
20
0.124896
30
0.0
11
0.013295
21
0.125043
31
0.0
0
LINE
8
0
6
CONTINUOUS
10
0.004815
20
0.155751
30
0.0
11
0.002976
21
0.152840
31
0.0
0
LINE
8
0
6
CONTINUOUS
10
0.024539
20
0.142448
30
0.0
11
0.028265
21
0.146985
31
0.0
0
LINE
8
0
6
CONTINUOUS
10
0.001230
20
0.149752
30
0.0
11
-0.000516
21
0.146664
31
0.0
0
LINE
8
0
6
CONTINUOUS
10
0.019538
20
0.136108
30
0.0
11
0.021634
21
0.138904
31
0.0
0
LINE
8
0
6
CONTINUOUS
10
0.023987
20
0.181343
30
0.0
11
0.017558
21
0.173740
31
0.0
0
LINE
8
0
6
CONTINUOUS
10
0.040102
20
0.161628
30
0.0
11
0.046028
21
0.168861
31
0.0
0
LINE
8
0
6
CONTINUOUS
10
0.050489
20
0.208179
30
0.0
11
0.044814
21
0.203319
31
0.0
0
LINE
8
0
6
CONTINUOUS
10
0.056620
20
0.181784
30
0.0
11
0.061333
21
0.187736
31
0.0
0
LINE
8
0
6
CONTINUOUS
10
0.037615
20
0.196133
30
0.0
11
0.030415
21
0.188947
31
0.0
0
LINE
8
0
6
CONTINUOUS
10
0.051455
20
0.175481
30
0.0
11
0.056620
21
0.181784
31
0.0
0
LINE
8
0
6
CONTINUOUS
10
-0.044086
20
0.006430
30
0.0
11
-0.045570
21
-0.001308
31
0.0
0
LINE
8
0
6
CONTINUOUS
10
-0.029568
20
-0.026041
30
0.0
11
-0.021336
21
0.000775
31
0.0
0
LINE
8
0
6
CONTINUOUS
10
-0.043580
20
0.008466
30
0.0
11
-0.043602
21
0.008376
31
0.0
0
LINE
8
0
6
CONTINUOUS
10
-0.043192
20
0.008370
30
0.0
11
-0.043580
21
0.008466
31
0.0
0
LINE
8
0
6
CONTINUOUS
10
-0.022354
20
0.003190
30
0.0
11
-0.024162
21
0.003639
31
0.0
0
LINE
8
0
6
CONTINUOUS
10
-0.021218
20
0.002907
30
0.0
11
-0.022354
21
0.003190
31
0.0
0
LINE
8
0
6
CONTINUOUS
10
-0.029261
20
0.004907
30
0.0
11
-0.032205
21
0.005639
31
0.0
0
LINE
8
0
6
CONTINUOUS
10
-0.020853
20
0.002721
30
0.0
11
-0.020830
21
0.002811
31
0.0
0
LINE
8
0
6
CONTINUOUS
10
-0.043602
20
0.008376
30
0.0
11
-0.044086
21
0.006430
31
0.0
0
LINE
8
0
6
CONTINUOUS
10
-0.021336
20
0.000775
30
0.0
11
-0.020853
21
0.002721
31
0.0
0
LINE
8
0
6
CONTINUOUS
10
-0.029713
20
-0.026511
30
0.0
11
-0.029568
21
-0.026041
31
0.0
0
LINE
8
0
6
CONTINUOUS
10
0.018037
20
0.134028
30
0.0
11
0.015313
21
0.129923
31
0.0
0
LINE
8
0
6
CONTINUOUS
10
0.076097
20
0.206300
30
0.0
11
0.074493
21
0.204349
31
0.0
0
LINE
8
0
6
CONTINUOUS
10
0.022518
20
0.132129
30
0.0
11
0.024786
21
0.134164
31
0.0
0
LINE
8
0
6
CONTINUOUS
10
0.017038
20
0.127150
30
0.0
11
0.017898
21
0.127502
31
0.0
0
LINE
8
0
6
CONTINUOUS
10
0.013395
20
0.126508
30
0.0
11
0.013295
21
0.125043
31
0.0
0
LINE
8
0
6
CONTINUOUS
10
0.015313
20
0.129923
30
0.0
11
0.013395
21
0.126508
31
0.0
0
LINE
8
0
6
CONTINUOUS
10
0.061333
20
0.187736
30
0.0
11
0.056620
21
0.181784
31
0.0
0
LINE
8
0
6
CONTINUOUS
10
0.072418
20
0.201536
30
0.0
11
0.069779
21
0.198292
31
0.0
0
LINE
8
0
6
CONTINUOUS
10
0.069779
20
0.198292
30
0.0
11
0.066046
21
0.193689
31
0.0
0
LINE
8
0
6
CONTINUOUS
10
0.074493
20
0.204349
30
0.0
11
0.072418
21
0.201536
31
0.0
0
LINE
8
0
6
CONTINUOUS
10
0.065882
20
0.184785
30
0.0
11
0.067293
21
0.187390
31
0.0
0
LINE
8
0
6
CONTINUOUS
10
0.076597
20
0.206887
30
0.0
11
0.076097
21
0.206300
31
0.0
0
LINE
8
0
6
CONTINUOUS
10
0.073985
20
0.200808
30
0.0
11
0.076597
21
0.206887
31
0.0
0
LINE
8
0
6
CONTINUOUS
10
0.047588
20
0.170764
30
0.0
11
0.046028
21
0.168861
31
0.0
0
LINE
8
0
6
CONTINUOUS
10
0.056476
20
0.169683
30
0.0
11
0.057415
21
0.171119
31
0.0
0
LINE
8
0
6
CONTINUOUS
10
0.037722
20
0.158725
30
0.0
11
0.033803
21
0.153945
31
0.0
0
LINE
8
0
6
CONTINUOUS
10
0.033803
20
0.153945
30
0.0
11
0.028265
21
0.146985
31
0.0
0
LINE
8
0
6
CONTINUOUS
10
0.035417
20
0.144638
30
0.0
11
0.037736
21
0.147037
31
0.0
0
LINE
8
0
6
CONTINUOUS
10
0.039996
20
0.149374
30
0.0
11
0.041530
21
0.150959
31
0.0
0
LINE
8
0
6
CONTINUOUS
10
0.024539
20
0.142448
30
0.0
11
0.021634
21
0.138904
31
0.0
0
LINE
8
0
6
CONTINUOUS
10
0.020857
20
0.137868
30
0.0
11
0.019538
21
0.136108
31
0.0
0
LINE
8
0
6
CONTINUOUS
10
0.027798
20
0.137003
30
0.0
11
0.027887
21
0.137089
31
0.0
0
LINE
8
0
6
CONTINUOUS
10
0.018217
20
0.127810
30
0.0
11
0.018427
21
0.128021
31
0.0
0
LINE
8
0
6
CONTINUOUS
10
0.020724
20
0.130327
30
0.0
11
0.022518
21
0.132129
31
0.0
0
LINE
8
0
6
CONTINUOUS
10
0.017898
20
0.127502
30
0.0
11
0.017973
21
0.127547
31
0.0
0
LINE
8
0
6
CONTINUOUS
10
0.017973
20
0.127547
30
0.0
11
0.018217
21
0.127810
31
0.0
0
LINE
8
0
6
CONTINUOUS
10
0.013284
20
0.124896
30
0.0
11
0.017038
21
0.127150
31
0.0
0
LINE
8
0
6
CONTINUOUS
10
0.013295
20
0.125043
30
0.0
11
0.013284
21
0.124896
31
0.0
0
LINE
8
0
6
CONTINUOUS
10
0.028265
20
0.146985
30
0.0
11
0.024539
21
0.142448
31
0.0
0
LINE
8
0
6
CONTINUOUS
10
0.018250
20
0.134324
30
0.0
11
0.018037
21
0.134028
31
0.0
0
LINE
8
0
6
CONTINUOUS
10
0.027169
20
0.136400
30
0.0
11
0.027798
21
0.137003
31
0.0
0
LINE
8
0
6
CONTINUOUS
10
0.046028
20
0.168861
30
0.0
11
0.040102
21
0.161628
31
0.0
0
LINE
8
0
6
CONTINUOUS
10
0.066046
20
0.193689
30
0.0
11
0.061333
21
0.187736
31
0.0
0
LINE
8
0
6
CONTINUOUS
10
0.068708
20
0.190004
30
0.0
11
0.068849
21
0.190264
31
0.0
0
LINE
8
0
6
CONTINUOUS
10
0.070345
20
0.193028
30
0.0
11
0.071755
21
0.195632
31
0.0
0
LINE
8
0
6
CONTINUOUS
10
0.051889
20
0.176011
30
0.0
11
0.051455
21
0.175481
31
0.0
0
LINE
8
0
6
CONTINUOUS
10
0.059163
20
0.173790
30
0.0
11
0.059735
21
0.174666
31
0.0
0
LINE
8
0
6
CONTINUOUS
10
0.013335
20
0.124692
30
0.0
11
0.016777
21
0.126753
31
0.0
0
LINE
8
0
6
CONTINUOUS
10
0.011621
20
0.120935
30
0.0
11
0.013335
21
0.124692
31
0.0
0
LINE
8
0
6
CONTINUOUS
10
0.017641
20
0.127105
30
0.0
11
0.017719
21
0.127147
31
0.0
0
LINE
8
0
6
CONTINUOUS
10
0.005607
20
0.103297
30
0.0
11
0.007804
21
0.112190
31
0.0
0
LINE
8
0
6
CONTINUOUS
10
0.007804
20
0.112190
30
0.0
11
0.011621
21
0.120935
31
0.0
0
LINE
8
0
6
CONTINUOUS
10
0.006203
20
0.100470
30
0.0
11
0.005886
21
0.101486
31
0.0
0
LINE
8
0
6
CONTINUOUS
10
0.005886
20
0.101486
30
0.0
11
0.005607
21
0.103297
31
0.0
0
LINE
8
0
6
CONTINUOUS
10
0.006256
20
0.100183
30
0.0
11
0.006203
21
0.100470
31
0.0
0
LINE
8
0
6
CONTINUOUS
10
0.016777
20
0.126753
30
0.0
11
0.017641
21
0.127105
31
0.0
0
LINE
8
0
6
CONTINUOUS
10
0.006203
20
0.100470
30
0.0
11
0.006256
21
0.100183
31
0.0
0
LINE
8
0
6
CONTINUOUS
10
0.006256
20
0.100183
30
0.0
11
0.009073
21
0.110615
31
0.0
0
LINE
8
0
6
CONTINUOUS
10
0.005886
20
0.101486
30
0.0
11
0.006203
21
0.100470
31
0.0
0
LINE
8
0
6
CONTINUOUS
10
0.011621
20
0.120935
30
0.0
11
0.007804
21
0.112190
31
0.0
0
LINE
8
0
6
CONTINUOUS
10
0.009073
20
0.110615
30
0.0
11
0.011905
21
0.117991
31
0.0
0
LINE
8
0
6
CONTINUOUS
10
0.016777
20
0.126753
30
0.0
11
0.013335
21
0.124692
31
0.0
0
LINE
8
0
6
CONTINUOUS
10
0.013335
20
0.124692
30
0.0
11
0.011621
21
0.120935
31
0.0
0
LINE
8
0
6
CONTINUOUS
10
0.005607
20
0.103297
30
0.0
11
0.005886
21
0.101486
31
0.0
0
LINE
8
0
6
CONTINUOUS
10
0.007804
20
0.112190
30
0.0
11
0.005607
21
0.103297
31
0.0
0
LINE
8
0
6
CONTINUOUS
10
0.017641
20
0.127105
30
0.0
11
0.016777
21
0.126753
31
0.0
0
LINE
8
0
6
CONTINUOUS
10
0.017719
20
0.127147
30
0.0
11
0.017641
21
0.127105
31
0.0
0
LINE
8
0
6
CONTINUOUS
10
0.011905
20
0.117991
30
0.0
11
0.017719
21
0.127147
31
0.0
0
LINE
8
0
6
CONTINUOUS
10
0.029556
20
0.141358
30
0.0
11
0.030095
21
0.141626
31
0.0
0
LINE
8
0
6
CONTINUOUS
10
0.041514
20
0.151061
30
0.0
11
0.041530
21
0.150959
31
0.0
0
LINE
8
0
6
CONTINUOUS
10
0.041675
20
0.151338
30
0.0
11
0.041514
21
0.151061
31
0.0
0
LINE
8
0
6
CONTINUOUS
10
0.042000
20
0.151779
30
0.0
11
0.041675
21
0.151338
31
0.0
0
LINE
8
0
6
CONTINUOUS
10
0.042478
20
0.152373
30
0.0
11
0.042000
21
0.151779
31
0.0
0
LINE
8
0
6
CONTINUOUS
10
0.043098
20
0.153104
30
0.0
11
0.042478
21
0.152373
31
0.0
0
LINE
8
0
6
CONTINUOUS
10
0.058970
20
0.181963
30
0.0
11
0.059901
21
0.183325
31
0.0
0
LINE
8
0
6
CONTINUOUS
10
0.073205
20
0.199070
30
0.0
11
0.073858
21
0.200566
31
0.0
0
LINE
8
0
6
CONTINUOUS
10
0.071282
20
0.196377
30
0.0
11
0.071279
21
0.196088
31
0.0
0
LINE
8
0
6
CONTINUOUS
10
0.053004
20
0.172017
30
0.0
11
0.054004
21
0.173322
31
0.0
0
LINE
8
0
6
CONTINUOUS
10
0.061709
20
0.182672
30
0.0
11
0.062396
21
0.183607
31
0.0
0
LINE
8
0
6
CONTINUOUS
10
0.066690
20
0.187884
30
0.0
11
0.067288
21
0.189189
31
0.0
0
LINE
8
0
6
CONTINUOUS
10
0.068940
20
0.190547
30
0.0
11
0.069670
21
0.191944
31
0.0
0
LINE
8
0
6
CONTINUOUS
10
0.042691
20
0.153817
30
0.0
11
0.042508
21
0.153246
31
0.0
0
LINE
8
0
6
CONTINUOUS
10
0.042691
20
0.153817
30
0.0
11
0.043687
21
0.155095
31
0.0
0
LINE
8
0
6
CONTINUOUS
10
0.019084
20
0.130175
30
0.0
11
0.019058
21
0.130104
31
0.0
0
LINE
8
0
6
CONTINUOUS
10
0.019084
20
0.130175
30
0.0
11
0.020183
21
0.131369
31
0.0
0
LINE
8
0
6
CONTINUOUS
10
0.018815
20
0.128424
30
0.0
11
0.019962
21
0.129579
31
0.0
0
LINE
8
0
6
CONTINUOUS
10
0.036187
20
0.150456
30
0.0
11
0.035012
21
0.149325
31
0.0
0
LINE
8
0
6
CONTINUOUS
10
0.035012
20
0.149325
30
0.0
11
0.034452
21
0.148411
31
0.0
0
LINE
8
0
6
CONTINUOUS
10
0.028326
20
0.140260
30
0.0
11
0.027745
21
0.139455
31
0.0
0
LINE
8
0
6
CONTINUOUS
10
0.027745
20
0.139455
30
0.0
11
0.027698
21
0.139401
31
0.0
0
LINE
8
0
6
CONTINUOUS
10
0.031636
20
0.147954
30
0.0
11
0.030456
21
0.146826
31
0.0
0
LINE
8
0
6
CONTINUOUS
10
0.030456
20
0.146826
30
0.0
11
0.029903
21
0.145907
31
0.0
0
LINE
8
0
6
CONTINUOUS
10
0.046053
20
0.156820
30
0.0
11
0.047067
21
0.158084
31
0.0
0
LINE
8
0
6
CONTINUOUS
10
0.024970
20
0.134734
30
0.0
11
0.024591
21
0.134324
31
0.0
0
LINE
8
0
6
CONTINUOUS
10
0.037855
20
0.147660
30
0.0
11
0.037519
21
0.147214
31
0.0
0
LINE
8
0
6
CONTINUOUS
10
0.059743
20
0.174751
30
0.0
11
0.060522
21
0.175999
31
0.0
0
LINE
8
0
6
CONTINUOUS
10
0.039513
20
0.158630
30
0.0
11
0.040426
21
0.159600
31
0.0
0
LINE
8
0
6
CONTINUOUS
10
0.040426
20
0.159600
30
0.0
11
0.040629
21
0.159810
31
0.0
0
LINE
8
0
6
CONTINUOUS
10
0.039513
20
0.158630
30
0.0
11
0.039062
21
0.157627
31
0.0
0
LINE
8
0
6
CONTINUOUS
10
0.027858
20
0.137319
30
0.0
11
0.027881
21
0.137115
31
0.0
0
ENDSEC
0
EOF
