999
unknown String-ID: 20550
0
SECTION
2
HEADER
9
$ACADVER
1
AC1009
9
$DWGCODEPAGE
3
unknown String-ID: 20561
0
ENDSEC
0
SECTION
2
TABLES
0
TABLE
2
LAYER
70
1
0
LAYER
2
0
70
0
62
7
6
CONTINUOUS
0
ENDTAB
0
ENDSEC
0
SECTION
2
ENTITIES
0
LINE
8
0
6
CONTINUOUS
10
-0.015701
20
-0.018596
30
0.0
11
-0.019156
21
-0.023205
31
0.0
0
LINE
8
0
6
CONTINUOUS
10
-0.002856
20
-0.012526
30
0.0
11
-0.005711
21
-0.012935
31
0.0
0
LINE
8
0
6
CONTINUOUS
10
-0.011093
20
-0.015141
30
0.0
11
-0.015701
21
-0.018596
31
0.0
0
LINE
8
0
6
CONTINUOUS
10
-0.005711
20
-0.012935
30
0.0
11
-0.011093
21
-0.015141
31
0.0
0
LINE
8
0
6
CONTINUOUS
10
-0.021364
20
-0.028587
30
0.0
11
-0.022180
21
-0.034298
31
0.0
0
LINE
8
0
6
CONTINUOUS
10
-0.019156
20
-0.023205
30
0.0
11
-0.021364
21
-0.028587
31
0.0
0
LINE
8
0
6
CONTINUOUS
10
0.000000
20
-0.012118
30
0.0
11
-0.002856
21
-0.012526
31
0.0
0
LINE
8
0
6
CONTINUOUS
10
-0.019156
20
-0.045392
30
0.0
11
-0.015701
21
-0.050000
31
0.0
0
LINE
8
0
6
CONTINUOUS
10
-0.005711
20
-0.055662
30
0.0
11
-0.002856
21
-0.056070
31
0.0
0
LINE
8
0
6
CONTINUOUS
10
-0.015701
20
-0.050000
30
0.0
11
-0.011093
21
-0.053455
31
0.0
0
LINE
8
0
6
CONTINUOUS
10
-0.011093
20
-0.053455
30
0.0
11
-0.005711
21
-0.055662
31
0.0
0
LINE
8
0
6
CONTINUOUS
10
-0.022180
20
-0.034298
30
0.0
11
-0.021364
21
-0.040009
31
0.0
0
LINE
8
0
6
CONTINUOUS
10
-0.021364
20
-0.040009
30
0.0
11
-0.019156
21
-0.045392
31
0.0
0
LINE
8
0
6
CONTINUOUS
10
-0.002856
20
-0.056070
30
0.0
11
0.000000
21
-0.056478
31
0.0
0
LINE
8
0
6
CONTINUOUS
10
0.019156
20
-0.023205
30
0.0
11
0.015701
21
-0.018596
31
0.0
0
LINE
8
0
6
CONTINUOUS
10
0.005711
20
-0.012935
30
0.0
11
0.002856
21
-0.012526
31
0.0
0
LINE
8
0
6
CONTINUOUS
10
0.015701
20
-0.018596
30
0.0
11
0.011093
21
-0.015141
31
0.0
0
LINE
8
0
6
CONTINUOUS
10
0.011093
20
-0.015141
30
0.0
11
0.005711
21
-0.012935
31
0.0
0
LINE
8
0
6
CONTINUOUS
10
0.022181
20
-0.034298
30
0.0
11
0.021364
21
-0.028587
31
0.0
0
LINE
8
0
6
CONTINUOUS
10
0.021364
20
-0.028587
30
0.0
11
0.019156
21
-0.023205
31
0.0
0
LINE
8
0
6
CONTINUOUS
10
0.002856
20
-0.012526
30
0.0
11
0.000000
21
-0.012118
31
0.0
0
LINE
8
0
6
CONTINUOUS
10
0.015701
20
-0.050000
30
0.0
11
0.019156
21
-0.045392
31
0.0
0
LINE
8
0
6
CONTINUOUS
10
0.002856
20
-0.056070
30
0.0
11
0.005711
21
-0.055662
31
0.0
0
LINE
8
0
6
CONTINUOUS
10
0.011093
20
-0.053455
30
0.0
11
0.015701
21
-0.050000
31
0.0
0
LINE
8
0
6
CONTINUOUS
10
0.005711
20
-0.055662
30
0.0
11
0.011093
21
-0.053455
31
0.0
0
LINE
8
0
6
CONTINUOUS
10
0.021364
20
-0.040009
30
0.0
11
0.022181
21
-0.034298
31
0.0
0
LINE
8
0
6
CONTINUOUS
10
0.019156
20
-0.045392
30
0.0
11
0.021364
21
-0.040009
31
0.0
0
LINE
8
0
6
CONTINUOUS
10
0.000000
20
-0.056478
30
0.0
11
0.002856
21
-0.056070
31
0.0
0
LINE
8
0
6
CONTINUOUS
10
0.000000
20
-0.012812
30
0.0
11
-0.001537
21
-0.012986
31
0.0
0
LINE
8
0
6
CONTINUOUS
10
-0.001537
20
-0.012986
30
0.0
11
-0.002963
21
-0.013574
31
0.0
0
LINE
8
0
6
CONTINUOUS
10
-0.005104
20
-0.015757
30
0.0
11
-0.005724
21
-0.017184
31
0.0
0
LINE
8
0
6
CONTINUOUS
10
-0.004214
20
-0.014515
30
0.0
11
-0.005104
21
-0.015757
31
0.0
0
LINE
8
0
6
CONTINUOUS
10
-0.005724
20
-0.017184
30
0.0
11
-0.006008
21
-0.018702
31
0.0
0
LINE
8
0
6
CONTINUOUS
10
-0.002963
20
-0.013574
30
0.0
11
-0.004214
21
-0.014515
31
0.0
0
LINE
8
0
6
CONTINUOUS
10
-0.006008
20
-0.018702
30
0.0
11
-0.006008
21
-0.034298
31
0.0
0
LINE
8
0
6
CONTINUOUS
10
-0.001537
20
-0.055611
30
0.0
11
0.000000
21
-0.055784
31
0.0
0
LINE
8
0
6
CONTINUOUS
10
-0.002963
20
-0.055022
30
0.0
11
-0.001537
21
-0.055611
31
0.0
0
LINE
8
0
6
CONTINUOUS
10
-0.005724
20
-0.051413
30
0.0
11
-0.005104
21
-0.052839
31
0.0
0
LINE
8
0
6
CONTINUOUS
10
-0.005104
20
-0.052839
30
0.0
11
-0.004214
21
-0.054081
31
0.0
0
LINE
8
0
6
CONTINUOUS
10
-0.006008
20
-0.049894
30
0.0
11
-0.005724
21
-0.051413
31
0.0
0
LINE
8
0
6
CONTINUOUS
10
-0.004214
20
-0.054081
30
0.0
11
-0.002963
21
-0.055022
31
0.0
0
LINE
8
0
6
CONTINUOUS
10
-0.006008
20
-0.034298
30
0.0
11
-0.006008
21
-0.049894
31
0.0
0
LINE
8
0
6
CONTINUOUS
10
0.001537
20
-0.012986
30
0.0
11
0.000000
21
-0.012812
31
0.0
0
LINE
8
0
6
CONTINUOUS
10
0.002963
20
-0.013574
30
0.0
11
0.001537
21
-0.012986
31
0.0
0
LINE
8
0
6
CONTINUOUS
10
0.005724
20
-0.017184
30
0.0
11
0.005104
21
-0.015757
31
0.0
0
LINE
8
0
6
CONTINUOUS
10
0.005104
20
-0.015757
30
0.0
11
0.004214
21
-0.014515
31
0.0
0
LINE
8
0
6
CONTINUOUS
10
0.006008
20
-0.018702
30
0.0
11
0.005724
21
-0.017184
31
0.0
0
LINE
8
0
6
CONTINUOUS
10
0.004214
20
-0.014515
30
0.0
11
0.002963
21
-0.013574
31
0.0
0
LINE
8
0
6
CONTINUOUS
10
0.006008
20
-0.034298
30
0.0
11
0.006008
21
-0.018702
31
0.0
0
LINE
8
0
6
CONTINUOUS
10
0.000000
20
-0.055784
30
0.0
11
0.001537
21
-0.055611
31
0.0
0
LINE
8
0
6
CONTINUOUS
10
0.001537
20
-0.055611
30
0.0
11
0.002963
21
-0.055022
31
0.0
0
LINE
8
0
6
CONTINUOUS
10
0.005104
20
-0.052839
30
0.0
11
0.005724
21
-0.051413
31
0.0
0
LINE
8
0
6
CONTINUOUS
10
0.004214
20
-0.054081
30
0.0
11
0.005104
21
-0.052839
31
0.0
0
LINE
8
0
6
CONTINUOUS
10
0.005724
20
-0.051413
30
0.0
11
0.006008
21
-0.049894
31
0.0
0
LINE
8
0
6
CONTINUOUS
10
0.002963
20
-0.055022
30
0.0
11
0.004214
21
-0.054081
31
0.0
0
LINE
8
0
6
CONTINUOUS
10
0.006008
20
-0.049894
30
0.0
11
0.006008
21
-0.034298
31
0.0
0
LINE
8
0
6
CONTINUOUS
10
-0.006783
20
0.022034
30
0.0
11
-0.003517
21
0.020694
31
0.0
0
LINE
8
0
6
CONTINUOUS
10
-0.009631
20
0.043432
30
0.0
11
-0.011766
21
0.040584
31
0.0
0
LINE
8
0
6
CONTINUOUS
10
-0.011766
20
0.027016
30
0.0
11
-0.009631
21
0.024168
31
0.0
0
LINE
8
0
6
CONTINUOUS
10
-0.006783
20
0.045567
30
0.0
11
-0.009631
21
0.043432
31
0.0
0
LINE
8
0
6
CONTINUOUS
10
-0.013609
20
0.033800
30
0.0
11
-0.013106
21
0.030283
31
0.0
0
LINE
8
0
6
CONTINUOUS
10
-0.013106
20
0.030283
30
0.0
11
-0.011766
21
0.027016
31
0.0
0
LINE
8
0
6
CONTINUOUS
10
-0.013106
20
0.037317
30
0.0
11
-0.013609
21
0.033800
31
0.0
0
LINE
8
0
6
CONTINUOUS
10
-0.003517
20
0.020694
30
0.0
11
-0.000000
21
0.020191
31
0.0
0
LINE
8
0
6
CONTINUOUS
10
-0.009631
20
0.024168
30
0.0
11
-0.006783
21
0.022034
31
0.0
0
LINE
8
0
6
CONTINUOUS
10
-0.011766
20
0.040584
30
0.0
11
-0.013106
21
0.037317
31
0.0
0
LINE
8
0
6
CONTINUOUS
10
-0.003517
20
0.046906
30
0.0
11
-0.006783
21
0.045567
31
0.0
0
LINE
8
0
6
CONTINUOUS
10
-0.000000
20
0.047409
30
0.0
11
-0.003517
21
0.046906
31
0.0
0
LINE
8
0
6
CONTINUOUS
10
0.003517
20
0.020694
30
0.0
11
0.006783
21
0.022034
31
0.0
0
LINE
8
0
6
CONTINUOUS
10
0.011766
20
0.040584
30
0.0
11
0.009631
21
0.043432
31
0.0
0
LINE
8
0
6
CONTINUOUS
10
0.009631
20
0.024168
30
0.0
11
0.011766
21
0.027016
31
0.0
0
LINE
8
0
6
CONTINUOUS
10
0.009631
20
0.043432
30
0.0
11
0.006783
21
0.045567
31
0.0
0
LINE
8
0
6
CONTINUOUS
10
0.013106
20
0.030283
30
0.0
11
0.013609
21
0.033800
31
0.0
0
LINE
8
0
6
CONTINUOUS
10
0.011766
20
0.027016
30
0.0
11
0.013106
21
0.030283
31
0.0
0
LINE
8
0
6
CONTINUOUS
10
0.013609
20
0.033800
30
0.0
11
0.013106
21
0.037317
31
0.0
0
LINE
8
0
6
CONTINUOUS
10
-0.000000
20
0.020191
30
0.0
11
0.003517
21
0.020694
31
0.0
0
LINE
8
0
6
CONTINUOUS
10
0.006783
20
0.022034
30
0.0
11
0.009631
21
0.024168
31
0.0
0
LINE
8
0
6
CONTINUOUS
10
0.013106
20
0.037317
30
0.0
11
0.011766
21
0.040584
31
0.0
0
LINE
8
0
6
CONTINUOUS
10
0.006783
20
0.045567
30
0.0
11
0.003517
21
0.046906
31
0.0
0
LINE
8
0
6
CONTINUOUS
10
0.003517
20
0.046906
30
0.0
11
-0.000000
21
0.047409
31
0.0
0
LINE
8
0
6
CONTINUOUS
10
-0.028950
20
-0.050989
30
0.0
11
-0.023696
21
-0.057996
31
0.0
0
LINE
8
0
6
CONTINUOUS
10
-0.023696
20
-0.057996
30
0.0
11
-0.016690
21
-0.063248
31
0.0
0
LINE
8
0
6
CONTINUOUS
10
-0.023696
20
-0.010601
30
0.0
11
-0.028950
21
-0.017607
31
0.0
0
LINE
8
0
6
CONTINUOUS
10
0.000000
20
-0.000816
30
0.0
11
-0.008654
21
-0.002052
31
0.0
0
LINE
8
0
6
CONTINUOUS
10
-0.016690
20
-0.005347
30
0.0
11
-0.023696
21
-0.010601
31
0.0
0
LINE
8
0
6
CONTINUOUS
10
-0.008654
20
-0.066545
30
0.0
11
0.000000
21
-0.067782
31
0.0
0
LINE
8
0
6
CONTINUOUS
10
-0.008654
20
-0.002052
30
0.0
11
-0.016690
21
-0.005347
31
0.0
0
LINE
8
0
6
CONTINUOUS
10
-0.016690
20
-0.063248
30
0.0
11
-0.008654
21
-0.066545
31
0.0
0
LINE
8
0
6
CONTINUOUS
10
-0.032247
20
-0.025644
30
0.0
11
-0.033484
21
-0.034298
31
0.0
0
LINE
8
0
6
CONTINUOUS
10
-0.028950
20
-0.017607
30
0.0
11
-0.032247
21
-0.025644
31
0.0
0
LINE
8
0
6
CONTINUOUS
10
-0.032247
20
-0.042953
30
0.0
11
-0.028950
21
-0.050989
31
0.0
0
LINE
8
0
6
CONTINUOUS
10
-0.033484
20
-0.034298
30
0.0
11
-0.032247
21
-0.042953
31
0.0
0
LINE
8
0
6
CONTINUOUS
10
0.023696
20
-0.057996
30
0.0
11
0.028950
21
-0.050989
31
0.0
0
LINE
8
0
6
CONTINUOUS
10
0.016690
20
-0.063248
30
0.0
11
0.023696
21
-0.057996
31
0.0
0
LINE
8
0
6
CONTINUOUS
10
0.029257
20
-0.017430
30
0.0
11
0.032589
21
-0.025552
31
0.0
0
LINE
8
0
6
CONTINUOUS
10
0.028950
20
-0.017607
30
0.0
11
0.023696
21
-0.010601
31
0.0
0
LINE
8
0
6
CONTINUOUS
10
0.008654
20
-0.002052
30
0.0
11
0.000000
21
-0.000816
31
0.0
0
LINE
8
0
6
CONTINUOUS
10
0.023696
20
-0.010601
30
0.0
11
0.016690
21
-0.005347
31
0.0
0
LINE
8
0
6
CONTINUOUS
10
0.000000
20
-0.067782
30
0.0
11
0.008654
21
-0.066545
31
0.0
0
LINE
8
0
6
CONTINUOUS
10
0.016690
20
-0.005347
30
0.0
11
0.008654
21
-0.002052
31
0.0
0
LINE
8
0
6
CONTINUOUS
10
0.008654
20
-0.066545
30
0.0
11
0.016690
21
-0.063248
31
0.0
0
LINE
8
0
6
CONTINUOUS
10
0.033484
20
-0.034298
30
0.0
11
0.032247
21
-0.025644
31
0.0
0
LINE
8
0
6
CONTINUOUS
10
0.032247
20
-0.025644
30
0.0
11
0.028950
21
-0.017607
31
0.0
0
LINE
8
0
6
CONTINUOUS
10
0.028950
20
-0.050989
30
0.0
11
0.032247
21
-0.042953
31
0.0
0
LINE
8
0
6
CONTINUOUS
10
0.032247
20
-0.042953
30
0.0
11
0.033484
21
-0.034298
31
0.0
0
LINE
8
0
6
CONTINUOUS
10
-0.032589
20
-0.025552
30
0.0
11
-0.029257
21
-0.017430
31
0.0
0
LINE
8
0
6
CONTINUOUS
10
-0.029257
20
-0.017430
30
0.0
11
-0.023948
21
-0.010349
31
0.0
0
LINE
8
0
6
CONTINUOUS
10
-0.008746
20
-0.001710
30
0.0
11
0.000000
21
-0.000460
31
0.0
0
LINE
8
0
6
CONTINUOUS
10
-0.023948
20
-0.010349
30
0.0
11
-0.016867
21
-0.005040
31
0.0
0
LINE
8
0
6
CONTINUOUS
10
-0.023948
20
-0.058247
30
0.0
11
-0.029257
21
-0.051166
31
0.0
0
LINE
8
0
6
CONTINUOUS
10
0.000000
20
-0.068137
30
0.0
11
-0.008746
21
-0.066887
31
0.0
0
LINE
8
0
6
CONTINUOUS
10
-0.016867
20
-0.005040
30
0.0
11
-0.008746
21
-0.001710
31
0.0
0
LINE
8
0
6
CONTINUOUS
10
-0.008746
20
-0.066887
30
0.0
11
-0.016867
21
-0.063555
31
0.0
0
LINE
8
0
6
CONTINUOUS
10
-0.033839
20
-0.034298
30
0.0
11
-0.032589
21
-0.025552
31
0.0
0
LINE
8
0
6
CONTINUOUS
10
-0.016867
20
-0.063555
30
0.0
11
-0.023948
21
-0.058247
31
0.0
0
LINE
8
0
6
CONTINUOUS
10
-0.029257
20
-0.051166
30
0.0
11
-0.032589
21
-0.043045
31
0.0
0
LINE
8
0
6
CONTINUOUS
10
-0.032589
20
-0.043045
30
0.0
11
-0.033839
21
-0.034298
31
0.0
0
LINE
8
0
6
CONTINUOUS
10
0.023948
20
-0.010349
30
0.0
11
0.029257
21
-0.017430
31
0.0
0
LINE
8
0
6
CONTINUOUS
10
0.000000
20
-0.000460
30
0.0
11
0.008746
21
-0.001710
31
0.0
0
LINE
8
0
6
CONTINUOUS
10
0.016867
20
-0.005040
30
0.0
11
0.023948
21
-0.010349
31
0.0
0
LINE
8
0
6
CONTINUOUS
10
0.029257
20
-0.051166
30
0.0
11
0.023948
21
-0.058247
31
0.0
0
LINE
8
0
6
CONTINUOUS
10
0.008746
20
-0.066887
30
0.0
11
0.000000
21
-0.068137
31
0.0
0
LINE
8
0
6
CONTINUOUS
10
0.008746
20
-0.001710
30
0.0
11
0.016867
21
-0.005040
31
0.0
0
LINE
8
0
6
CONTINUOUS
10
0.016867
20
-0.063555
30
0.0
11
0.008746
21
-0.066887
31
0.0
0
LINE
8
0
6
CONTINUOUS
10
0.032589
20
-0.025552
30
0.0
11
0.033839
21
-0.034298
31
0.0
0
LINE
8
0
6
CONTINUOUS
10
0.023948
20
-0.058247
30
0.0
11
0.016867
21
-0.063555
31
0.0
0
LINE
8
0
6
CONTINUOUS
10
0.032589
20
-0.043045
30
0.0
11
0.029257
21
-0.051166
31
0.0
0
LINE
8
0
6
CONTINUOUS
10
0.033839
20
-0.034298
30
0.0
11
0.032589
21
-0.043045
31
0.0
0
LINE
8
0
6
CONTINUOUS
10
-0.019510
20
-0.023013
30
0.0
11
-0.015985
21
-0.018312
31
0.0
0
LINE
8
0
6
CONTINUOUS
10
-0.005821
20
-0.012548
30
0.0
11
0.000000
21
-0.011716
31
0.0
0
LINE
8
0
6
CONTINUOUS
10
-0.015985
20
-0.018312
30
0.0
11
-0.011284
21
-0.014788
31
0.0
0
LINE
8
0
6
CONTINUOUS
10
-0.015985
20
-0.050284
30
0.0
11
-0.019510
21
-0.045583
31
0.0
0
LINE
8
0
6
CONTINUOUS
10
0.000000
20
-0.056881
30
0.0
11
-0.005820
21
-0.056049
31
0.0
0
LINE
8
0
6
CONTINUOUS
10
-0.011284
20
-0.014788
30
0.0
11
-0.005821
21
-0.012548
31
0.0
0
LINE
8
0
6
CONTINUOUS
10
-0.005820
20
-0.056049
30
0.0
11
-0.011284
21
-0.053808
31
0.0
0
LINE
8
0
6
CONTINUOUS
10
-0.022583
20
-0.034298
30
0.0
11
-0.021751
21
-0.028477
31
0.0
0
LINE
8
0
6
CONTINUOUS
10
-0.011284
20
-0.053808
30
0.0
11
-0.015985
21
-0.050284
31
0.0
0
LINE
8
0
6
CONTINUOUS
10
-0.021751
20
-0.028477
30
0.0
11
-0.019510
21
-0.023013
31
0.0
0
LINE
8
0
6
CONTINUOUS
10
-0.019510
20
-0.045583
30
0.0
11
-0.021751
21
-0.040119
31
0.0
0
LINE
8
0
6
CONTINUOUS
10
-0.021751
20
-0.040119
30
0.0
11
-0.022583
21
-0.034298
31
0.0
0
LINE
8
0
6
CONTINUOUS
10
0.015985
20
-0.018312
30
0.0
11
0.019510
21
-0.023013
31
0.0
0
LINE
8
0
6
CONTINUOUS
10
0.000000
20
-0.011716
30
0.0
11
0.005821
21
-0.012548
31
0.0
0
LINE
8
0
6
CONTINUOUS
10
0.011284
20
-0.014788
30
0.0
11
0.015985
21
-0.018312
31
0.0
0
LINE
8
0
6
CONTINUOUS
10
0.019510
20
-0.045583
30
0.0
11
0.015985
21
-0.050284
31
0.0
0
LINE
8
0
6
CONTINUOUS
10
0.005820
20
-0.056049
30
0.0
11
0.000000
21
-0.056881
31
0.0
0
LINE
8
0
6
CONTINUOUS
10
0.005821
20
-0.012548
30
0.0
11
0.011284
21
-0.014788
31
0.0
0
LINE
8
0
6
CONTINUOUS
10
0.021751
20
-0.028477
30
0.0
11
0.022583
21
-0.034298
31
0.0
0
LINE
8
0
6
CONTINUOUS
10
0.019510
20
-0.023013
30
0.0
11
0.021751
21
-0.028477
31
0.0
0
LINE
8
0
6
CONTINUOUS
10
0.022583
20
-0.034298
30
0.0
11
0.021751
21
-0.040119
31
0.0
0
LINE
8
0
6
CONTINUOUS
10
0.019510
20
-0.045583
30
0.0
11
0.021751
21
-0.040119
31
0.0
0
LINE
8
0
6
CONTINUOUS
10
0.011284
20
-0.053808
30
0.0
11
0.015985
21
-0.050284
31
0.0
0
LINE
8
0
6
CONTINUOUS
10
0.005820
20
-0.056049
30
0.0
11
0.011284
21
-0.053808
31
0.0
0
LINE
8
0
6
CONTINUOUS
10
0.069355
20
0.028728
30
0.0
11
0.062418
21
0.041706
31
0.0
0
LINE
8
0
6
CONTINUOUS
10
0.028728
20
-0.069355
30
0.0
11
0.041706
21
-0.062418
31
0.0
0
LINE
8
0
6
CONTINUOUS
10
0.069355
20
-0.028728
30
0.0
11
0.073627
21
-0.014645
31
0.0
0
LINE
8
0
6
CONTINUOUS
10
0.028728
20
0.069355
30
0.0
11
0.014645
21
0.073627
31
0.0
0
LINE
8
0
6
CONTINUOUS
10
-0.028728
20
-0.069355
30
0.0
11
-0.014645
21
-0.073627
31
0.0
0
LINE
8
0
6
CONTINUOUS
10
-0.069355
20
-0.028728
30
0.0
11
-0.062418
21
-0.041706
31
0.0
0
LINE
8
0
6
CONTINUOUS
10
-0.069355
20
0.028728
30
0.0
11
-0.073627
21
0.014645
31
0.0
0
LINE
8
0
6
CONTINUOUS
10
-0.028728
20
0.069355
30
0.0
11
-0.041706
21
0.062418
31
0.0
0
LINE
8
0
6
CONTINUOUS
10
0.014645
20
0.073627
30
0.0
11
0.000000
21
0.075069
31
0.0
0
LINE
8
0
6
CONTINUOUS
10
0.062418
20
0.041706
30
0.0
11
0.053082
21
0.053082
31
0.0
0
LINE
8
0
6
CONTINUOUS
10
0.073627
20
-0.014645
30
0.0
11
0.075069
21
0.000000
31
0.0
0
LINE
8
0
6
CONTINUOUS
10
0.041706
20
-0.062418
30
0.0
11
0.053082
21
-0.053082
31
0.0
0
LINE
8
0
6
CONTINUOUS
10
-0.014645
20
-0.073627
30
0.0
11
0.000000
21
-0.075069
31
0.0
0
LINE
8
0
6
CONTINUOUS
10
-0.062418
20
-0.041706
30
0.0
11
-0.053082
21
-0.053082
31
0.0
0
LINE
8
0
6
CONTINUOUS
10
-0.073627
20
0.014645
30
0.0
11
-0.075069
21
0.000000
31
0.0
0
LINE
8
0
6
CONTINUOUS
10
-0.041706
20
0.062418
30
0.0
11
-0.053082
21
0.053082
31
0.0
0
LINE
8
0
6
CONTINUOUS
10
0.053082
20
0.053082
30
0.0
11
0.041706
21
0.062418
31
0.0
0
LINE
8
0
6
CONTINUOUS
10
0.075069
20
0.000000
30
0.0
11
0.073627
21
0.014645
31
0.0
0
LINE
8
0
6
CONTINUOUS
10
0.053082
20
-0.053082
30
0.0
11
0.062418
21
-0.041706
31
0.0
0
LINE
8
0
6
CONTINUOUS
10
0.000000
20
-0.075069
30
0.0
11
0.014645
21
-0.073627
31
0.0
0
LINE
8
0
6
CONTINUOUS
10
-0.053082
20
0.053082
30
0.0
11
-0.062418
21
0.041706
31
0.0
0
LINE
8
0
6
CONTINUOUS
10
0.000000
20
0.075069
30
0.0
11
-0.014645
21
0.073627
31
0.0
0
LINE
8
0
6
CONTINUOUS
10
-0.053082
20
-0.053082
30
0.0
11
-0.041706
21
-0.062418
31
0.0
0
LINE
8
0
6
CONTINUOUS
10
-0.075069
20
0.000000
30
0.0
11
-0.073627
21
-0.014645
31
0.0
0
LINE
8
0
6
CONTINUOUS
10
0.041706
20
0.062418
30
0.0
11
0.028728
21
0.069355
31
0.0
0
LINE
8
0
6
CONTINUOUS
10
0.073627
20
0.014645
30
0.0
11
0.069355
21
0.028728
31
0.0
0
LINE
8
0
6
CONTINUOUS
10
0.062418
20
-0.041706
30
0.0
11
0.069355
21
-0.028728
31
0.0
0
LINE
8
0
6
CONTINUOUS
10
0.014645
20
-0.073627
30
0.0
11
0.028728
21
-0.069355
31
0.0
0
LINE
8
0
6
CONTINUOUS
10
-0.073627
20
-0.014645
30
0.0
11
-0.069355
21
-0.028728
31
0.0
0
LINE
8
0
6
CONTINUOUS
10
-0.062418
20
0.041706
30
0.0
11
-0.069355
21
0.028728
31
0.0
0
LINE
8
0
6
CONTINUOUS
10
-0.014645
20
0.073627
30
0.0
11
-0.028728
21
0.069355
31
0.0
0
LINE
8
0
6
CONTINUOUS
10
-0.041706
20
-0.062418
30
0.0
11
-0.028728
21
-0.069355
31
0.0
0
LINE
8
0
6
CONTINUOUS
10
-0.009778
20
0.024168
30
0.0
11
-0.011945
21
0.027060
31
0.0
0
LINE
8
0
6
CONTINUOUS
10
-0.003571
20
0.047252
30
0.0
11
-0.000000
21
0.047763
31
0.0
0
LINE
8
0
6
CONTINUOUS
10
-0.011945
20
0.040834
30
0.0
11
-0.009778
21
0.043725
31
0.0
0
LINE
8
0
6
CONTINUOUS
10
-0.006887
20
0.045893
30
0.0
11
-0.003571
21
0.047252
31
0.0
0
LINE
8
0
6
CONTINUOUS
10
-0.003571
20
0.020641
30
0.0
11
-0.006887
21
0.022002
31
0.0
0
LINE
8
0
6
CONTINUOUS
10
-0.013306
20
0.037518
30
0.0
11
-0.011945
21
0.040834
31
0.0
0
LINE
8
0
6
CONTINUOUS
10
-0.011945
20
0.027060
30
0.0
11
-0.013306
21
0.030376
31
0.0
0
LINE
8
0
6
CONTINUOUS
10
-0.013816
20
0.033947
30
0.0
11
-0.013306
21
0.037518
31
0.0
0
LINE
8
0
6
CONTINUOUS
10
-0.000000
20
0.020131
30
0.0
11
-0.003571
21
0.020641
31
0.0
0
LINE
8
0
6
CONTINUOUS
10
-0.006887
20
0.022002
30
0.0
11
-0.009778
21
0.024168
31
0.0
0
LINE
8
0
6
CONTINUOUS
10
-0.013306
20
0.030376
30
0.0
11
-0.013816
21
0.033947
31
0.0
0
LINE
8
0
6
CONTINUOUS
10
-0.009778
20
0.043725
30
0.0
11
-0.006887
21
0.045893
31
0.0
0
LINE
8
0
6
CONTINUOUS
10
0.011945
20
0.027060
30
0.0
11
0.009778
21
0.024168
31
0.0
0
LINE
8
0
6
CONTINUOUS
10
-0.000000
20
0.047763
30
0.0
11
0.003571
21
0.047252
31
0.0
0
LINE
8
0
6
CONTINUOUS
10
0.009778
20
0.043725
30
0.0
11
0.011945
21
0.040834
31
0.0
0
LINE
8
0
6
CONTINUOUS
10
0.003571
20
0.047252
30
0.0
11
0.006887
21
0.045893
31
0.0
0
LINE
8
0
6
CONTINUOUS
10
0.006887
20
0.022002
30
0.0
11
0.003571
21
0.020641
31
0.0
0
LINE
8
0
6
CONTINUOUS
10
0.011945
20
0.040834
30
0.0
11
0.013306
21
0.037518
31
0.0
0
LINE
8
0
6
CONTINUOUS
10
0.013306
20
0.030376
30
0.0
11
0.011945
21
0.027060
31
0.0
0
LINE
8
0
6
CONTINUOUS
10
0.013306
20
0.037518
30
0.0
11
0.013816
21
0.033947
31
0.0
0
LINE
8
0
6
CONTINUOUS
10
0.003571
20
0.020641
30
0.0
11
-0.000000
21
0.020131
31
0.0
0
LINE
8
0
6
CONTINUOUS
10
0.009778
20
0.024168
30
0.0
11
0.006887
21
0.022002
31
0.0
0
LINE
8
0
6
CONTINUOUS
10
0.013816
20
0.033947
30
0.0
11
0.013306
21
0.030376
31
0.0
0
LINE
8
0
6
CONTINUOUS
10
0.006887
20
0.045893
30
0.0
11
0.009778
21
0.043725
31
0.0
0
ENDSEC
0
EOF
