999
unknown String-ID: 20550
0
SECTION
2
HEADER
9
$ACADVER
1
AC1009
9
$DWGCODEPAGE
3
unknown String-ID: 20561
0
ENDSEC
0
SECTION
2
TABLES
0
TABLE
2
LAYER
70
1
0
LAYER
2
0
70
0
62
7
6
CONTINUOUS
0
ENDTAB
0
ENDSEC
0
SECTION
2
ENTITIES
0
LINE
8
0
6
CONTINUOUS
10
0.032293
20
-0.026031
30
0.0
11
0.034662
21
-0.026031
31
0.0
0
LINE
8
0
6
CONTINUOUS
10
0.034662
20
-0.026031
30
0.0
11
0.036263
21
-0.026031
31
0.0
0
LINE
8
0
6
CONTINUOUS
10
0.036263
20
-0.026031
30
0.0
11
0.036938
21
-0.026031
31
0.0
0
LINE
8
0
6
CONTINUOUS
10
0.036938
20
-0.026031
30
0.0
11
0.037384
21
-0.025590
31
0.0
0
LINE
8
0
6
CONTINUOUS
10
0.016692
20
-0.026031
30
0.0
11
0.017007
21
-0.026031
31
0.0
0
LINE
8
0
6
CONTINUOUS
10
0.016247
20
-0.025590
30
0.0
11
0.016692
21
-0.026031
31
0.0
0
LINE
8
0
6
CONTINUOUS
10
0.017007
20
-0.026031
30
0.0
11
0.018283
21
-0.026031
31
0.0
0
LINE
8
0
6
CONTINUOUS
10
0.020393
20
-0.026031
30
0.0
11
0.023132
21
-0.026031
31
0.0
0
LINE
8
0
6
CONTINUOUS
10
0.023132
20
-0.026031
30
0.0
11
0.026236
21
-0.026031
31
0.0
0
LINE
8
0
6
CONTINUOUS
10
0.036679
20
-0.025590
30
0.0
11
0.037384
21
-0.025590
31
0.0
0
LINE
8
0
6
CONTINUOUS
10
0.037384
20
-0.025590
30
0.0
11
0.037384
21
-0.025341
31
0.0
0
LINE
8
0
6
CONTINUOUS
10
0.035008
20
-0.025590
30
0.0
11
0.036679
21
-0.025590
31
0.0
0
LINE
8
0
6
CONTINUOUS
10
0.032535
20
-0.025590
30
0.0
11
0.035008
21
-0.025590
31
0.0
0
LINE
8
0
6
CONTINUOUS
10
0.017907
20
-0.025590
30
0.0
11
0.020110
21
-0.025590
31
0.0
0
LINE
8
0
6
CONTINUOUS
10
0.016576
20
-0.025590
30
0.0
11
0.017907
21
-0.025590
31
0.0
0
LINE
8
0
6
CONTINUOUS
10
0.016247
20
-0.025590
30
0.0
11
0.016576
21
-0.025590
31
0.0
0
LINE
8
0
6
CONTINUOUS
10
0.016246
20
-0.025324
30
0.0
11
0.016247
21
-0.025590
31
0.0
0
LINE
8
0
6
CONTINUOUS
10
0.020110
20
-0.025590
30
0.0
11
0.022970
21
-0.025590
31
0.0
0
LINE
8
0
6
CONTINUOUS
10
0.026236
20
-0.026031
30
0.0
11
0.029389
21
-0.026031
31
0.0
0
LINE
8
0
6
CONTINUOUS
10
0.020393
20
-0.026031
30
0.0
11
0.018283
21
-0.026031
31
0.0
0
LINE
8
0
6
CONTINUOUS
10
0.032293
20
-0.026031
30
0.0
11
0.029389
21
-0.026031
31
0.0
0
LINE
8
0
6
CONTINUOUS
10
0.037384
20
-0.016090
30
0.0
11
0.037384
21
-0.015837
31
0.0
0
LINE
8
0
6
CONTINUOUS
10
0.037384
20
-0.015837
30
0.0
11
0.037384
21
-0.015774
31
0.0
0
LINE
8
0
6
CONTINUOUS
10
0.037384
20
-0.025341
30
0.0
11
0.037384
21
-0.016411
31
0.0
0
LINE
8
0
6
CONTINUOUS
10
0.016247
20
-0.016224
30
0.0
11
0.016246
21
-0.025324
31
0.0
0
LINE
8
0
6
CONTINUOUS
10
0.022970
20
-0.025590
30
0.0
11
0.026236
21
-0.026031
31
0.0
0
LINE
8
0
6
CONTINUOUS
10
0.026236
20
-0.026031
30
0.0
11
0.029502
21
-0.025590
31
0.0
0
LINE
8
0
6
CONTINUOUS
10
0.029502
20
-0.025590
30
0.0
11
0.032535
21
-0.025590
31
0.0
0
LINE
8
0
6
CONTINUOUS
10
0.037384
20
-0.016411
30
0.0
11
0.037384
21
-0.016090
31
0.0
0
LINE
8
0
6
CONTINUOUS
10
0.034693
20
0.026338
30
0.0
11
0.034023
21
0.026338
31
0.0
0
LINE
8
0
6
CONTINUOUS
10
0.034023
20
0.026338
30
0.0
11
0.032193
21
0.026338
31
0.0
0
LINE
8
0
6
CONTINUOUS
10
0.032193
20
0.026338
30
0.0
11
0.029693
21
0.026338
31
0.0
0
LINE
8
0
6
CONTINUOUS
10
0.029693
20
0.026338
30
0.0
11
0.027193
21
0.026338
31
0.0
0
LINE
8
0
6
CONTINUOUS
10
0.025362
20
0.026338
30
0.0
11
0.024693
21
0.026338
31
0.0
0
LINE
8
0
6
CONTINUOUS
10
0.027193
20
0.026338
30
0.0
11
0.025362
21
0.026338
31
0.0
0
LINE
8
0
6
CONTINUOUS
10
0.024754
20
0.003198
30
0.0
11
0.025424
21
0.000698
31
0.0
0
LINE
8
0
6
CONTINUOUS
10
0.025424
20
0.000698
30
0.0
11
0.027254
21
-0.001132
31
0.0
0
LINE
8
0
6
CONTINUOUS
10
0.027254
20
-0.001132
30
0.0
11
0.029754
21
-0.001802
31
0.0
0
LINE
8
0
6
CONTINUOUS
10
0.029754
20
-0.001802
30
0.0
11
0.032254
21
-0.001132
31
0.0
0
LINE
8
0
6
CONTINUOUS
10
0.032254
20
-0.001132
30
0.0
11
0.034084
21
0.000698
31
0.0
0
LINE
8
0
6
CONTINUOUS
10
0.034084
20
0.000698
30
0.0
11
0.034754
21
0.003198
31
0.0
0
LINE
8
0
6
CONTINUOUS
10
0.034754
20
0.003198
30
0.0
11
0.034084
21
0.005698
31
0.0
0
LINE
8
0
6
CONTINUOUS
10
0.034084
20
0.005698
30
0.0
11
0.032254
21
0.007528
31
0.0
0
LINE
8
0
6
CONTINUOUS
10
0.032254
20
0.007528
30
0.0
11
0.029754
21
0.008198
31
0.0
0
LINE
8
0
6
CONTINUOUS
10
0.029754
20
0.008198
30
0.0
11
0.027254
21
0.007528
31
0.0
0
LINE
8
0
6
CONTINUOUS
10
0.027254
20
0.007528
30
0.0
11
0.025424
21
0.005698
31
0.0
0
LINE
8
0
6
CONTINUOUS
10
0.025424
20
0.005698
30
0.0
11
0.024754
21
0.003198
31
0.0
0
LINE
8
0
6
CONTINUOUS
10
0.024693
20
0.026338
30
0.0
11
0.024693
21
0.026038
31
0.0
0
LINE
8
0
6
CONTINUOUS
10
0.025362
20
0.026338
30
0.0
11
0.024693
21
0.026338
31
0.0
0
LINE
8
0
6
CONTINUOUS
10
0.029693
20
0.026338
30
0.0
11
0.027193
21
0.026338
31
0.0
0
LINE
8
0
6
CONTINUOUS
10
0.032193
20
0.026338
30
0.0
11
0.029693
21
0.026338
31
0.0
0
LINE
8
0
6
CONTINUOUS
10
0.034693
20
0.026338
30
0.0
11
0.034023
21
0.026338
31
0.0
0
LINE
8
0
6
CONTINUOUS
10
0.034693
20
0.026038
30
0.0
11
0.034693
21
0.026338
31
0.0
0
LINE
8
0
6
CONTINUOUS
10
0.032021
20
0.026338
30
0.0
11
0.029693
21
0.026338
31
0.0
0
LINE
8
0
6
CONTINUOUS
10
0.033725
20
0.026338
30
0.0
11
0.032021
21
0.026338
31
0.0
0
LINE
8
0
6
CONTINUOUS
10
0.024693
20
0.026038
30
0.0
11
0.024693
21
0.022607
31
0.0
0
LINE
8
0
6
CONTINUOUS
10
0.034693
20
0.022603
30
0.0
11
0.034693
21
0.026038
31
0.0
0
LINE
8
0
6
CONTINUOUS
10
0.025362
20
0.026338
30
0.0
11
0.027193
21
0.026338
31
0.0
0
LINE
8
0
6
CONTINUOUS
10
0.025660
20
0.026338
30
0.0
11
0.025362
21
0.026338
31
0.0
0
LINE
8
0
6
CONTINUOUS
10
0.034023
20
0.026338
30
0.0
11
0.033725
21
0.026338
31
0.0
0
LINE
8
0
6
CONTINUOUS
10
0.032193
20
0.026338
30
0.0
11
0.034023
21
0.026338
31
0.0
0
LINE
8
0
6
CONTINUOUS
10
0.034023
20
0.026338
30
0.0
11
0.033725
21
0.026338
31
0.0
0
LINE
8
0
6
CONTINUOUS
10
0.034693
20
0.026338
30
0.0
11
0.034023
21
0.026338
31
0.0
0
LINE
8
0
6
CONTINUOUS
10
0.034349
20
0.026338
30
0.0
11
0.034693
21
0.026338
31
0.0
0
LINE
8
0
6
CONTINUOUS
10
0.024693
20
0.026338
30
0.0
11
0.025037
21
0.026338
31
0.0
0
LINE
8
0
6
CONTINUOUS
10
0.025362
20
0.026338
30
0.0
11
0.024693
21
0.026338
31
0.0
0
LINE
8
0
6
CONTINUOUS
10
0.025660
20
0.026338
30
0.0
11
0.025362
21
0.026338
31
0.0
0
LINE
8
0
6
CONTINUOUS
10
0.011156
20
-0.005186
30
0.0
11
0.010916
21
0.003348
31
0.0
0
LINE
8
0
6
CONTINUOUS
10
0.010407
20
0.003348
30
0.0
11
0.010659
21
-0.005127
31
0.0
0
LINE
8
0
6
CONTINUOUS
10
0.029654
20
-0.015641
30
0.0
11
0.019212
21
-0.015142
31
0.0
0
LINE
8
0
6
CONTINUOUS
10
0.019277
20
-0.015644
30
0.0
11
0.029654
21
-0.016153
31
0.0
0
LINE
8
0
6
CONTINUOUS
10
0.019212
20
-0.015142
30
0.0
11
0.014876
21
-0.013710
31
0.0
0
LINE
8
0
6
CONTINUOUS
10
0.014768
20
-0.014141
30
0.0
11
0.019277
21
-0.015644
31
0.0
0
LINE
8
0
6
CONTINUOUS
10
0.014876
20
-0.013710
30
0.0
11
0.013144
21
-0.012122
31
0.0
0
LINE
8
0
6
CONTINUOUS
10
0.012824
20
-0.012366
30
0.0
11
0.014768
21
-0.014141
31
0.0
0
LINE
8
0
6
CONTINUOUS
10
0.013144
20
-0.012122
30
0.0
11
0.011991
21
-0.009825
31
0.0
0
LINE
8
0
6
CONTINUOUS
10
0.011544
20
-0.009873
30
0.0
11
0.012824
21
-0.012366
31
0.0
0
LINE
8
0
6
CONTINUOUS
10
0.011991
20
-0.009825
30
0.0
11
0.011156
21
-0.005186
31
0.0
0
LINE
8
0
6
CONTINUOUS
10
0.010659
20
-0.005127
30
0.0
11
0.011544
21
-0.009873
31
0.0
0
LINE
8
0
6
CONTINUOUS
10
0.010659
20
0.011824
30
0.0
11
0.010407
21
0.003348
31
0.0
0
LINE
8
0
6
CONTINUOUS
10
0.011156
20
0.011883
30
0.0
11
0.010916
21
0.003348
31
0.0
0
LINE
8
0
6
CONTINUOUS
10
0.029654
20
0.022850
30
0.0
11
0.019277
21
0.022340
31
0.0
0
LINE
8
0
6
CONTINUOUS
10
0.029654
20
0.022338
30
0.0
11
0.019212
21
0.021839
31
0.0
0
LINE
8
0
6
CONTINUOUS
10
0.019277
20
0.022340
30
0.0
11
0.014768
21
0.020838
31
0.0
0
LINE
8
0
6
CONTINUOUS
10
0.019212
20
0.021839
30
0.0
11
0.014876
21
0.020407
31
0.0
0
LINE
8
0
6
CONTINUOUS
10
0.014768
20
0.020838
30
0.0
11
0.012824
21
0.019063
31
0.0
0
LINE
8
0
6
CONTINUOUS
10
0.014876
20
0.020407
30
0.0
11
0.013144
21
0.018818
31
0.0
0
LINE
8
0
6
CONTINUOUS
10
0.012824
20
0.019063
30
0.0
11
0.011544
21
0.016570
31
0.0
0
LINE
8
0
6
CONTINUOUS
10
0.013144
20
0.018818
30
0.0
11
0.011991
21
0.016522
31
0.0
0
LINE
8
0
6
CONTINUOUS
10
0.011544
20
0.016570
30
0.0
11
0.010659
21
0.011824
31
0.0
0
LINE
8
0
6
CONTINUOUS
10
0.011991
20
0.016522
30
0.0
11
0.011156
21
0.011883
31
0.0
0
LINE
8
0
6
CONTINUOUS
10
0.048649
20
-0.005127
30
0.0
11
0.048902
21
0.003348
31
0.0
0
LINE
8
0
6
CONTINUOUS
10
0.048153
20
-0.005186
30
0.0
11
0.048393
21
0.003348
31
0.0
0
LINE
8
0
6
CONTINUOUS
10
0.029654
20
-0.016153
30
0.0
11
0.040032
21
-0.015644
31
0.0
0
LINE
8
0
6
CONTINUOUS
10
0.029654
20
-0.015641
30
0.0
11
0.040097
21
-0.015142
31
0.0
0
LINE
8
0
6
CONTINUOUS
10
0.040032
20
-0.015644
30
0.0
11
0.044540
21
-0.014141
31
0.0
0
LINE
8
0
6
CONTINUOUS
10
0.040097
20
-0.015142
30
0.0
11
0.044432
21
-0.013710
31
0.0
0
LINE
8
0
6
CONTINUOUS
10
0.044540
20
-0.014141
30
0.0
11
0.046485
21
-0.012366
31
0.0
0
LINE
8
0
6
CONTINUOUS
10
0.044432
20
-0.013710
30
0.0
11
0.046164
21
-0.012122
31
0.0
0
LINE
8
0
6
CONTINUOUS
10
0.046485
20
-0.012366
30
0.0
11
0.047765
21
-0.009873
31
0.0
0
LINE
8
0
6
CONTINUOUS
10
0.046164
20
-0.012122
30
0.0
11
0.047317
21
-0.009825
31
0.0
0
LINE
8
0
6
CONTINUOUS
10
0.047765
20
-0.009873
30
0.0
11
0.048649
21
-0.005127
31
0.0
0
LINE
8
0
6
CONTINUOUS
10
0.047317
20
-0.009825
30
0.0
11
0.048153
21
-0.005186
31
0.0
0
LINE
8
0
6
CONTINUOUS
10
0.048153
20
0.011883
30
0.0
11
0.048393
21
0.003348
31
0.0
0
LINE
8
0
6
CONTINUOUS
10
0.048902
20
0.003348
30
0.0
11
0.048649
21
0.011824
31
0.0
0
LINE
8
0
6
CONTINUOUS
10
0.029654
20
0.022338
30
0.0
11
0.040097
21
0.021839
31
0.0
0
LINE
8
0
6
CONTINUOUS
10
0.040032
20
0.022340
30
0.0
11
0.029654
21
0.022850
31
0.0
0
LINE
8
0
6
CONTINUOUS
10
0.040097
20
0.021839
30
0.0
11
0.044432
21
0.020407
31
0.0
0
LINE
8
0
6
CONTINUOUS
10
0.044540
20
0.020838
30
0.0
11
0.040032
21
0.022340
31
0.0
0
LINE
8
0
6
CONTINUOUS
10
0.044432
20
0.020407
30
0.0
11
0.046164
21
0.018818
31
0.0
0
LINE
8
0
6
CONTINUOUS
10
0.046485
20
0.019063
30
0.0
11
0.044540
21
0.020838
31
0.0
0
LINE
8
0
6
CONTINUOUS
10
0.046164
20
0.018818
30
0.0
11
0.047317
21
0.016522
31
0.0
0
LINE
8
0
6
CONTINUOUS
10
0.047765
20
0.016570
30
0.0
11
0.046485
21
0.019063
31
0.0
0
LINE
8
0
6
CONTINUOUS
10
0.047317
20
0.016522
30
0.0
11
0.048153
21
0.011883
31
0.0
0
LINE
8
0
6
CONTINUOUS
10
0.048649
20
0.011824
30
0.0
11
0.047765
21
0.016570
31
0.0
0
LINE
8
0
6
CONTINUOUS
10
0.048544
20
-0.001714
30
0.0
11
0.049246
21
0.003396
31
0.0
0
LINE
8
0
6
CONTINUOUS
10
0.049246
20
0.003396
30
0.0
11
0.048495
21
0.008452
31
0.0
0
LINE
8
0
6
CONTINUOUS
10
0.007222
20
-0.016056
30
0.0
11
0.013669
21
-0.016081
31
0.0
0
LINE
8
0
6
CONTINUOUS
10
0.006366
20
-0.015734
30
0.0
11
0.007222
21
-0.016056
31
0.0
0
LINE
8
0
6
CONTINUOUS
10
-0.004197
20
-0.015653
30
0.0
11
0.009634
21
-0.015759
31
0.0
0
LINE
8
0
6
CONTINUOUS
10
0.011445
20
0.016038
30
0.0
11
-0.004201
21
0.015860
31
0.0
0
LINE
8
0
6
CONTINUOUS
10
0.006552
20
-0.015781
30
0.0
11
0.007224
21
-0.015810
31
0.0
0
LINE
8
0
6
CONTINUOUS
10
0.010025
20
-0.000296
30
0.0
11
0.010555
21
-0.001612
31
0.0
0
LINE
8
0
6
CONTINUOUS
10
0.010229
20
0.007392
30
0.0
11
0.009793
21
0.003571
31
0.0
0
LINE
8
0
6
CONTINUOUS
10
0.009634
20
-0.015759
30
0.0
11
0.010656
21
-0.015785
31
0.0
0
LINE
8
0
6
CONTINUOUS
10
-0.004734
20
-0.015649
30
0.0
11
-0.004197
21
-0.015653
31
0.0
0
LINE
8
0
6
CONTINUOUS
10
-0.004734
20
-0.007892
30
0.0
11
-0.004734
21
-0.011078
31
0.0
0
LINE
8
0
6
CONTINUOUS
10
-0.004736
20
0.007778
30
0.0
11
-0.004736
21
0.003974
31
0.0
0
LINE
8
0
6
CONTINUOUS
10
-0.004736
20
0.013638
30
0.0
11
-0.004737
21
0.011093
31
0.0
0
LINE
8
0
6
CONTINUOUS
10
-0.004201
20
0.015860
30
0.0
11
-0.004738
21
0.015855
31
0.0
0
LINE
8
0
6
CONTINUOUS
10
-0.004735
20
-0.000105
30
0.0
11
-0.004736
21
0.003974
31
0.0
0
LINE
8
0
6
CONTINUOUS
10
-0.004734
20
-0.007892
30
0.0
11
-0.004735
21
-0.004140
31
0.0
0
LINE
8
0
6
CONTINUOUS
10
-0.004734
20
-0.013558
30
0.0
11
-0.004734
21
-0.011078
31
0.0
0
LINE
8
0
6
CONTINUOUS
10
-0.004734
20
-0.015649
30
0.0
11
-0.004733
21
-0.015065
31
0.0
0
LINE
8
0
6
CONTINUOUS
10
-0.004733
20
-0.015065
30
0.0
11
-0.004734
21
-0.013558
31
0.0
0
LINE
8
0
6
CONTINUOUS
10
-0.004735
20
-0.004140
30
0.0
11
-0.004735
21
-0.000105
31
0.0
0
LINE
8
0
6
CONTINUOUS
10
-0.004736
20
0.007778
30
0.0
11
-0.004737
21
0.011093
31
0.0
0
LINE
8
0
6
CONTINUOUS
10
-0.004736
20
0.013638
30
0.0
11
-0.004737
21
0.015247
31
0.0
0
LINE
8
0
6
CONTINUOUS
10
-0.004737
20
0.015247
30
0.0
11
-0.004738
21
0.015855
31
0.0
0
LINE
8
0
6
CONTINUOUS
10
0.027365
20
0.026338
30
0.0
11
0.025660
21
0.026338
31
0.0
0
LINE
8
0
6
CONTINUOUS
10
0.029693
20
0.026338
30
0.0
11
0.027365
21
0.026338
31
0.0
0
LINE
8
0
6
CONTINUOUS
10
0.025037
20
0.026338
30
0.0
11
0.029693
21
0.026338
31
0.0
0
LINE
8
0
6
CONTINUOUS
10
0.029693
20
0.026338
30
0.0
11
0.034349
21
0.026338
31
0.0
0
LINE
8
0
6
CONTINUOUS
10
0.033725
20
0.026338
30
0.0
11
0.029693
21
0.026338
31
0.0
0
LINE
8
0
6
CONTINUOUS
10
0.029693
20
0.026338
30
0.0
11
0.025660
21
0.026338
31
0.0
0
LINE
8
0
6
CONTINUOUS
10
-0.044225
20
-0.034983
30
0.0
11
-0.043837
21
-0.034983
31
0.0
0
LINE
8
0
6
CONTINUOUS
10
-0.042700
20
-0.034486
30
0.0
11
-0.042377
21
-0.034137
31
0.0
0
LINE
8
0
6
CONTINUOUS
10
-0.048811
20
-0.034983
30
0.0
11
-0.044225
21
-0.034983
31
0.0
0
LINE
8
0
6
CONTINUOUS
10
-0.049246
20
-0.034983
30
0.0
11
-0.048811
21
-0.034983
31
0.0
0
LINE
8
0
6
CONTINUOUS
10
-0.043837
20
-0.034983
30
0.0
11
-0.043224
21
-0.034836
31
0.0
0
LINE
8
0
6
CONTINUOUS
10
-0.043224
20
-0.034836
30
0.0
11
-0.042700
21
-0.034486
31
0.0
0
LINE
8
0
6
CONTINUOUS
10
-0.042377
20
-0.034137
30
0.0
11
-0.024584
21
-0.014950
31
0.0
0
LINE
8
0
6
CONTINUOUS
10
-0.024584
20
-0.014950
30
0.0
11
-0.024359
21
-0.014708
31
0.0
0
LINE
8
0
6
CONTINUOUS
10
-0.044225
20
-0.034981
30
0.0
11
-0.043837
21
-0.034981
31
0.0
0
LINE
8
0
6
CONTINUOUS
10
-0.042377
20
0.034137
30
0.0
11
-0.042699
21
0.034486
31
0.0
0
LINE
8
0
6
CONTINUOUS
10
-0.042699
20
-0.034483
30
0.0
11
-0.042377
21
-0.034135
31
0.0
0
LINE
8
0
6
CONTINUOUS
10
-0.043837
20
0.034983
30
0.0
11
-0.044225
21
0.034983
31
0.0
0
LINE
8
0
6
CONTINUOUS
10
-0.044225
20
0.034983
30
0.0
11
-0.048811
21
0.034983
31
0.0
0
LINE
8
0
6
CONTINUOUS
10
-0.048811
20
-0.034981
30
0.0
11
-0.044225
21
-0.034981
31
0.0
0
LINE
8
0
6
CONTINUOUS
10
-0.048811
20
0.034983
30
0.0
11
-0.049246
21
0.034983
31
0.0
0
LINE
8
0
6
CONTINUOUS
10
-0.049246
20
0.034983
30
0.0
11
-0.049246
21
0.034106
31
0.0
0
LINE
8
0
6
CONTINUOUS
10
-0.049246
20
0.034106
30
0.0
11
-0.049246
21
0.031519
31
0.0
0
LINE
8
0
6
CONTINUOUS
10
-0.049246
20
0.031519
30
0.0
11
-0.049246
21
0.027351
31
0.0
0
LINE
8
0
6
CONTINUOUS
10
-0.049246
20
0.027351
30
0.0
11
-0.049246
21
0.021812
31
0.0
0
LINE
8
0
6
CONTINUOUS
10
-0.049246
20
0.021812
30
0.0
11
-0.049246
21
0.015179
31
0.0
0
LINE
8
0
6
CONTINUOUS
10
-0.049246
20
0.015179
30
0.0
11
-0.049246
21
0.007785
31
0.0
0
LINE
8
0
6
CONTINUOUS
10
-0.049246
20
0.007785
30
0.0
11
-0.049246
21
0.000001
31
0.0
0
LINE
8
0
6
CONTINUOUS
10
-0.049246
20
0.000001
30
0.0
11
-0.049246
21
-0.007783
31
0.0
0
LINE
8
0
6
CONTINUOUS
10
-0.049246
20
-0.007783
30
0.0
11
-0.049246
21
-0.015177
31
0.0
0
LINE
8
0
6
CONTINUOUS
10
-0.049246
20
-0.015177
30
0.0
11
-0.049246
21
-0.021810
31
0.0
0
LINE
8
0
6
CONTINUOUS
10
-0.049246
20
-0.021810
30
0.0
11
-0.049246
21
-0.027349
31
0.0
0
LINE
8
0
6
CONTINUOUS
10
-0.049246
20
-0.027349
30
0.0
11
-0.049246
21
-0.031517
31
0.0
0
LINE
8
0
6
CONTINUOUS
10
-0.049246
20
-0.034981
30
0.0
11
-0.048811
21
-0.034981
31
0.0
0
LINE
8
0
6
CONTINUOUS
10
-0.049246
20
-0.031517
30
0.0
11
-0.049246
21
-0.034104
31
0.0
0
LINE
8
0
6
CONTINUOUS
10
-0.043224
20
0.034836
30
0.0
11
-0.043837
21
0.034983
31
0.0
0
LINE
8
0
6
CONTINUOUS
10
-0.042699
20
0.034486
30
0.0
11
-0.043224
21
0.034836
31
0.0
0
LINE
8
0
6
CONTINUOUS
10
-0.043837
20
-0.034981
30
0.0
11
-0.043224
21
-0.034834
31
0.0
0
LINE
8
0
6
CONTINUOUS
10
-0.043224
20
-0.034834
30
0.0
11
-0.042699
21
-0.034483
31
0.0
0
LINE
8
0
6
CONTINUOUS
10
-0.024584
20
0.014950
30
0.0
11
-0.042377
21
0.034137
31
0.0
0
LINE
8
0
6
CONTINUOUS
10
-0.042377
20
-0.034135
30
0.0
11
-0.024584
21
-0.014948
31
0.0
0
LINE
8
0
6
CONTINUOUS
10
-0.024359
20
0.014339
30
0.0
11
-0.024359
21
0.014708
31
0.0
0
LINE
8
0
6
CONTINUOUS
10
-0.024359
20
0.014708
30
0.0
11
-0.024584
21
0.014950
31
0.0
0
LINE
8
0
6
CONTINUOUS
10
-0.024359
20
0.013251
30
0.0
11
-0.024359
21
0.014339
31
0.0
0
LINE
8
0
6
CONTINUOUS
10
-0.024359
20
0.011499
30
0.0
11
-0.024359
21
0.013251
31
0.0
0
LINE
8
0
6
CONTINUOUS
10
-0.024359
20
0.009170
30
0.0
11
-0.024359
21
0.011499
31
0.0
0
LINE
8
0
6
CONTINUOUS
10
-0.024359
20
0.006382
30
0.0
11
-0.024359
21
0.009170
31
0.0
0
LINE
8
0
6
CONTINUOUS
10
-0.024359
20
0.003274
30
0.0
11
-0.024359
21
0.006382
31
0.0
0
LINE
8
0
6
CONTINUOUS
10
-0.024359
20
0.000001
30
0.0
11
-0.024359
21
0.003274
31
0.0
0
LINE
8
0
6
CONTINUOUS
10
-0.024359
20
-0.003271
30
0.0
11
-0.024359
21
0.000001
31
0.0
0
LINE
8
0
6
CONTINUOUS
10
-0.024359
20
-0.006380
30
0.0
11
-0.024359
21
-0.003271
31
0.0
0
LINE
8
0
6
CONTINUOUS
10
-0.024359
20
-0.009168
30
0.0
11
-0.024359
21
-0.006380
31
0.0
0
LINE
8
0
6
CONTINUOUS
10
-0.024359
20
-0.011497
30
0.0
11
-0.024359
21
-0.009168
31
0.0
0
LINE
8
0
6
CONTINUOUS
10
-0.024359
20
-0.013249
30
0.0
11
-0.024359
21
-0.011497
31
0.0
0
LINE
8
0
6
CONTINUOUS
10
-0.024359
20
-0.014705
30
0.0
11
-0.024359
21
-0.014337
31
0.0
0
LINE
8
0
6
CONTINUOUS
10
-0.024584
20
-0.014948
30
0.0
11
-0.024359
21
-0.014705
31
0.0
0
LINE
8
0
6
CONTINUOUS
10
-0.024359
20
-0.014337
30
0.0
11
-0.024359
21
-0.013249
31
0.0
0
LINE
8
0
6
CONTINUOUS
10
-0.007246
20
0.006440
30
0.0
11
-0.007246
21
0.008837
31
0.0
0
LINE
8
0
6
CONTINUOUS
10
-0.007990
20
0.015204
30
0.0
11
-0.008068
21
0.012536
31
0.0
0
LINE
8
0
6
CONTINUOUS
10
-0.007918
20
0.015204
30
0.0
11
-0.008287
21
0.015204
31
0.0
0
LINE
8
0
6
CONTINUOUS
10
-0.007990
20
0.015204
30
0.0
11
-0.007918
21
0.015204
31
0.0
0
LINE
8
0
6
CONTINUOUS
10
-0.007988
20
0.012178
30
0.0
11
-0.008068
21
0.012536
31
0.0
0
LINE
8
0
6
CONTINUOUS
10
-0.008287
20
0.015204
30
0.0
11
-0.014785
21
0.015204
31
0.0
0
LINE
8
0
6
CONTINUOUS
10
-0.007988
20
0.012178
30
0.0
11
-0.007246
21
0.008837
31
0.0
0
LINE
8
0
6
CONTINUOUS
10
-0.007246
20
0.015204
30
0.0
11
-0.007918
21
0.015204
31
0.0
0
LINE
8
0
6
CONTINUOUS
10
-0.007246
20
0.008837
30
0.0
11
-0.007246
21
0.015204
31
0.0
0
LINE
8
0
6
CONTINUOUS
10
-0.008422
20
-0.015064
30
0.0
11
-0.008068
21
-0.015064
31
0.0
0
LINE
8
0
6
CONTINUOUS
10
-0.008068
20
-0.015064
30
0.0
11
-0.007988
21
-0.015064
31
0.0
0
LINE
8
0
6
CONTINUOUS
10
-0.007990
20
-0.012226
30
0.0
11
-0.008067
21
-0.015061
31
0.0
0
LINE
8
0
6
CONTINUOUS
10
-0.007990
20
-0.012226
30
0.0
11
-0.007918
21
-0.011885
31
0.0
0
LINE
8
0
6
CONTINUOUS
10
-0.007988
20
-0.015064
30
0.0
11
-0.007246
21
-0.015064
31
0.0
0
LINE
8
0
6
CONTINUOUS
10
-0.007246
20
-0.008698
30
0.0
11
-0.007918
21
-0.011885
31
0.0
0
LINE
8
0
6
CONTINUOUS
10
-0.007246
20
-0.015064
30
0.0
11
-0.007246
21
-0.008698
31
0.0
0
LINE
8
0
6
CONTINUOUS
10
-0.014785
20
-0.015064
30
0.0
11
-0.008422
21
-0.015064
31
0.0
0
LINE
8
0
6
CONTINUOUS
10
-0.007990
20
0.002906
30
0.0
11
-0.008068
21
-0.002599
31
0.0
0
LINE
8
0
6
CONTINUOUS
10
-0.007990
20
0.002906
30
0.0
11
-0.007918
21
0.003247
31
0.0
0
LINE
8
0
6
CONTINUOUS
10
-0.007988
20
-0.002957
30
0.0
11
-0.008068
21
-0.002599
31
0.0
0
LINE
8
0
6
CONTINUOUS
10
-0.007246
20
0.015206
30
0.0
11
-0.007681
21
0.015206
31
0.0
0
LINE
8
0
6
CONTINUOUS
10
-0.007681
20
0.015206
30
0.0
11
-0.014785
21
0.015206
31
0.0
0
LINE
8
0
6
CONTINUOUS
10
-0.007246
20
-0.008698
30
0.0
11
-0.007246
21
-0.006298
31
0.0
0
LINE
8
0
6
CONTINUOUS
10
-0.007988
20
-0.002957
30
0.0
11
-0.007246
21
-0.006298
31
0.0
0
LINE
8
0
6
CONTINUOUS
10
-0.007246
20
0.006440
30
0.0
11
-0.007918
21
0.003247
31
0.0
0
LINE
8
0
6
CONTINUOUS
10
-0.007246
20
-0.006298
30
0.0
11
-0.007246
21
0.006440
31
0.0
0
LINE
8
0
6
CONTINUOUS
10
-0.022325
20
0.008837
30
0.0
11
-0.022325
21
0.006440
31
0.0
0
LINE
8
0
6
CONTINUOUS
10
-0.021503
20
0.012536
30
0.0
11
-0.021580
21
0.015204
31
0.0
0
LINE
8
0
6
CONTINUOUS
10
-0.021652
20
0.015204
30
0.0
11
-0.021580
21
0.015204
31
0.0
0
LINE
8
0
6
CONTINUOUS
10
-0.021283
20
0.015204
30
0.0
11
-0.021652
21
0.015204
31
0.0
0
LINE
8
0
6
CONTINUOUS
10
-0.021503
20
0.012536
30
0.0
11
-0.021582
21
0.012178
31
0.0
0
LINE
8
0
6
CONTINUOUS
10
-0.014785
20
0.015204
30
0.0
11
-0.021283
21
0.015204
31
0.0
0
LINE
8
0
6
CONTINUOUS
10
-0.022325
20
0.015204
30
0.0
11
-0.022325
21
0.008837
31
0.0
0
LINE
8
0
6
CONTINUOUS
10
-0.021652
20
0.015204
30
0.0
11
-0.022325
21
0.015204
31
0.0
0
LINE
8
0
6
CONTINUOUS
10
-0.022325
20
0.008837
30
0.0
11
-0.021582
21
0.012178
31
0.0
0
LINE
8
0
6
CONTINUOUS
10
-0.021503
20
-0.015064
30
0.0
11
-0.021149
21
-0.015064
31
0.0
0
LINE
8
0
6
CONTINUOUS
10
-0.021503
20
-0.015064
30
0.0
11
-0.021580
21
-0.012226
31
0.0
0
LINE
8
0
6
CONTINUOUS
10
-0.021582
20
-0.015064
30
0.0
11
-0.021503
21
-0.015064
31
0.0
0
LINE
8
0
6
CONTINUOUS
10
-0.021652
20
-0.011885
30
0.0
11
-0.021580
21
-0.012226
31
0.0
0
LINE
8
0
6
CONTINUOUS
10
-0.022325
20
-0.008698
30
0.0
11
-0.022325
21
-0.015064
31
0.0
0
LINE
8
0
6
CONTINUOUS
10
-0.021652
20
-0.011885
30
0.0
11
-0.022325
21
-0.008698
31
0.0
0
LINE
8
0
6
CONTINUOUS
10
-0.022325
20
-0.015064
30
0.0
11
-0.021582
21
-0.015064
31
0.0
0
LINE
8
0
6
CONTINUOUS
10
-0.021149
20
-0.015064
30
0.0
11
-0.014785
21
-0.015064
31
0.0
0
LINE
8
0
6
CONTINUOUS
10
-0.021503
20
-0.002599
30
0.0
11
-0.021580
21
0.002906
31
0.0
0
LINE
8
0
6
CONTINUOUS
10
-0.021652
20
0.003247
30
0.0
11
-0.021580
21
0.002906
31
0.0
0
LINE
8
0
6
CONTINUOUS
10
-0.021503
20
-0.002599
30
0.0
11
-0.021582
21
-0.002957
31
0.0
0
LINE
8
0
6
CONTINUOUS
10
-0.021889
20
0.015206
30
0.0
11
-0.022325
21
0.015206
31
0.0
0
LINE
8
0
6
CONTINUOUS
10
-0.014785
20
0.015206
30
0.0
11
-0.021889
21
0.015206
31
0.0
0
LINE
8
0
6
CONTINUOUS
10
-0.022325
20
-0.006298
30
0.0
11
-0.022325
21
-0.008698
31
0.0
0
LINE
8
0
6
CONTINUOUS
10
-0.022325
20
0.006440
30
0.0
11
-0.022325
21
-0.006298
31
0.0
0
LINE
8
0
6
CONTINUOUS
10
-0.021652
20
0.003247
30
0.0
11
-0.022325
21
0.006440
31
0.0
0
LINE
8
0
6
CONTINUOUS
10
-0.022325
20
-0.006298
30
0.0
11
-0.021582
21
-0.002957
31
0.0
0
LINE
8
0
6
CONTINUOUS
10
-0.007988
20
0.015207
30
0.0
11
-0.008350
21
0.015207
31
0.0
0
LINE
8
0
6
CONTINUOUS
10
-0.008068
20
0.015207
30
0.0
11
-0.007988
21
0.015207
31
0.0
0
LINE
8
0
6
CONTINUOUS
10
-0.008350
20
0.015207
30
0.0
11
-0.014785
21
0.015207
31
0.0
0
LINE
8
0
6
CONTINUOUS
10
-0.007246
20
0.015207
30
0.0
11
-0.007988
21
0.015207
31
0.0
0
LINE
8
0
6
CONTINUOUS
10
-0.021582
20
0.015207
30
0.0
11
-0.021503
21
0.015207
31
0.0
0
LINE
8
0
6
CONTINUOUS
10
-0.021220
20
0.015207
30
0.0
11
-0.021582
21
0.015207
31
0.0
0
LINE
8
0
6
CONTINUOUS
10
-0.014785
20
0.015207
30
0.0
11
-0.021220
21
0.015207
31
0.0
0
LINE
8
0
6
CONTINUOUS
10
-0.021582
20
0.015207
30
0.0
11
-0.022325
21
0.015207
31
0.0
0
LINE
8
0
6
CONTINUOUS
10
-0.004746
20
-0.000105
30
0.0
11
-0.004746
21
0.004900
31
0.0
0
LINE
8
0
6
CONTINUOUS
10
-0.004746
20
-0.009352
30
0.0
11
-0.004746
21
-0.005109
31
0.0
0
LINE
8
0
6
CONTINUOUS
10
-0.004746
20
-0.013182
30
0.0
11
-0.004746
21
-0.012187
31
0.0
0
LINE
8
0
6
CONTINUOUS
10
-0.024359
20
-0.013452
30
0.0
11
-0.022325
21
-0.013424
31
0.0
0
LINE
8
0
6
CONTINUOUS
10
-0.007246
20
-0.013217
30
0.0
11
-0.004746
21
-0.013182
31
0.0
0
LINE
8
0
6
CONTINUOUS
10
-0.004746
20
0.012972
30
0.0
11
-0.007246
21
0.013054
31
0.0
0
LINE
8
0
6
CONTINUOUS
10
-0.022325
20
0.013548
30
0.0
11
-0.024359
21
0.013614
31
0.0
0
LINE
8
0
6
CONTINUOUS
10
-0.004746
20
-0.005109
30
0.0
11
-0.004746
21
-0.000105
31
0.0
0
LINE
8
0
6
CONTINUOUS
10
-0.004746
20
-0.012187
30
0.0
11
-0.004746
21
-0.009352
31
0.0
0
LINE
8
0
6
CONTINUOUS
10
-0.049246
20
-0.034981
30
0.0
11
-0.049246
21
-0.034104
31
0.0
0
ENDSEC
0
EOF
