999
Erzeugt mit innoplus bad 
0
SECTION
2
HEADER
9
$ACADVER
1
AC1009
9
$DWGCODEPAGE
3
ISO8859-1
0
ENDSEC
0
SECTION
2
TABLES
0
TABLE
2
LAYER
70
1
0
LAYER
2
0
70
0
62
7
6
CONTINUOUS
0
ENDTAB
0
ENDSEC
0
SECTION
2
ENTITIES
0
LINE
8
0
6
CONTINUOUS
10
-232.944139
20
639.567090
30
0.0
11
-234.826754
21
628.933514
31
0.0
0
LINE
8
0
6
CONTINUOUS
10
0.582626
20
587.591442
30
0.0
11
2.465241
21
598.225098
31
0.0
0
LINE
8
0
6
CONTINUOUS
10
0.409349
20
586.612727
30
0.0
11
0.582626
21
587.591442
31
0.0
0
LINE
8
0
6
CONTINUOUS
10
-1.852320
20
587.009958
30
0.0
11
0.409349
21
586.612727
31
0.0
0
LINE
8
0
6
CONTINUOUS
10
2.465241
20
598.225098
30
0.0
11
2.638507
21
599.203813
31
0.0
0
LINE
8
0
6
CONTINUOUS
10
0.376838
20
599.600964
30
0.0
11
2.638507
21
599.203813
31
0.0
0
LINE
8
0
6
CONTINUOUS
10
-8.550413
20
588.186260
30
0.0
11
-1.852320
21
587.009958
31
0.0
0
LINE
8
0
6
CONTINUOUS
10
-6.321256
20
600.777265
30
0.0
11
0.376838
21
599.600964
31
0.0
0
LINE
8
0
6
CONTINUOUS
10
-19.427508
20
590.096448
30
0.0
11
-8.550413
21
588.186260
31
0.0
0
LINE
8
0
6
CONTINUOUS
10
-6.321256
20
600.777265
30
0.0
11
-17.198351
21
602.687523
31
0.0
0
LINE
8
0
6
CONTINUOUS
10
-34.065612
20
592.667132
30
0.0
11
-19.427508
21
590.096448
31
0.0
0
LINE
8
0
6
CONTINUOUS
10
-17.198351
20
602.687523
30
0.0
11
-31.836454
21
605.258217
31
0.0
0
LINE
8
0
6
CONTINUOUS
10
-51.902194
20
595.799565
30
0.0
11
-34.065612
21
592.667132
31
0.0
0
LINE
8
0
6
CONTINUOUS
10
-31.836454
20
605.258217
30
0.0
11
-49.673036
21
608.390650
31
0.0
0
LINE
8
0
6
CONTINUOUS
10
-72.251791
20
599.373354
30
0.0
11
-51.902194
21
595.799565
31
0.0
0
LINE
8
0
6
CONTINUOUS
10
-49.673036
20
608.390650
30
0.0
11
-70.022653
21
611.964360
31
0.0
0
LINE
8
0
6
CONTINUOUS
10
-72.251791
20
599.373354
30
0.0
11
-94.332397
21
603.251099
31
0.0
0
LINE
8
0
6
CONTINUOUS
10
-70.022653
20
611.964360
30
0.0
11
-92.103239
21
615.842104
31
0.0
0
LINE
8
0
6
CONTINUOUS
10
-94.332397
20
603.251099
30
0.0
11
-117.295461
21
607.283763
31
0.0
0
LINE
8
0
6
CONTINUOUS
10
-92.103239
20
615.842104
30
0.0
11
-115.066303
21
619.874839
31
0.0
0
LINE
8
0
6
CONTINUOUS
10
-140.258524
20
611.316507
30
0.0
11
-117.295461
21
607.283763
31
0.0
0
LINE
8
0
6
CONTINUOUS
10
-138.029367
20
623.907503
30
0.0
11
-115.066303
21
619.874839
31
0.0
0
LINE
8
0
6
CONTINUOUS
10
-162.339091
20
615.194252
30
0.0
11
-140.258524
21
611.316507
31
0.0
0
LINE
8
0
6
CONTINUOUS
10
-160.109933
20
627.785248
30
0.0
11
-138.029367
21
623.907503
31
0.0
0
LINE
8
0
6
CONTINUOUS
10
-182.688698
20
618.767962
30
0.0
11
-162.339091
21
615.194252
31
0.0
0
LINE
8
0
6
CONTINUOUS
10
-160.109933
20
627.785248
30
0.0
11
-180.459530
21
631.359037
31
0.0
0
LINE
8
0
6
CONTINUOUS
10
-200.525250
20
621.900394
30
0.0
11
-182.688698
21
618.767962
31
0.0
0
LINE
8
0
6
CONTINUOUS
10
-180.459530
20
631.359037
30
0.0
11
-198.296092
21
634.491470
31
0.0
0
LINE
8
0
6
CONTINUOUS
10
-215.163323
20
624.471079
30
0.0
11
-200.525250
21
621.900394
31
0.0
0
LINE
8
0
6
CONTINUOUS
10
-198.296092
20
634.491470
30
0.0
11
-212.934165
21
637.062164
31
0.0
0
LINE
8
0
6
CONTINUOUS
10
-226.040378
20
626.381267
30
0.0
11
-215.181816
21
624.474327
31
0.0
0
LINE
8
0
6
CONTINUOUS
10
-212.934165
20
637.062164
30
0.0
11
-223.811220
21
638.972342
31
0.0
0
LINE
8
0
6
CONTINUOUS
10
-232.738411
20
627.557568
30
0.0
11
-226.040378
21
626.381267
31
0.0
0
LINE
8
0
6
CONTINUOUS
10
-230.509243
20
640.148644
30
0.0
11
-223.811220
21
638.972342
31
0.0
0
LINE
8
0
6
CONTINUOUS
10
-235.000000
20
627.954799
30
0.0
11
-232.738411
21
627.557568
31
0.0
0
LINE
8
0
6
CONTINUOUS
10
-234.826754
20
628.933514
30
0.0
11
-235.000000
21
627.954799
31
0.0
0
LINE
8
0
6
CONTINUOUS
10
-232.770842
20
640.545805
30
0.0
11
-232.944139
21
639.567090
31
0.0
0
LINE
8
0
6
CONTINUOUS
10
-230.509243
20
640.148644
30
0.0
11
-232.770842
21
640.545805
31
0.0
0
LINE
8
0
6
CONTINUOUS
10
-126.487144
20
647.682476
30
0.0
11
-126.660431
21
646.703762
31
0.0
0
LINE
8
0
6
CONTINUOUS
10
-125.280557
20
647.470557
30
0.0
11
-126.487144
21
647.682476
31
0.0
0
LINE
8
0
6
CONTINUOUS
10
-125.280557
20
647.470557
30
0.0
11
-125.453814
21
646.491843
31
0.0
0
LINE
8
0
6
CONTINUOUS
10
-121.844401
20
646.867130
30
0.0
11
-125.280557
21
647.470557
31
0.0
0
LINE
8
0
6
CONTINUOUS
10
-116.701905
20
645.964013
30
0.0
11
-121.844401
21
646.867130
31
0.0
0
LINE
8
0
6
CONTINUOUS
10
-110.635876
20
644.898734
30
0.0
11
-116.701905
21
645.964013
31
0.0
0
LINE
8
0
6
CONTINUOUS
10
-104.569877
20
643.833376
30
0.0
11
-110.635876
21
644.898734
31
0.0
0
LINE
8
0
6
CONTINUOUS
10
-99.427340
20
642.930328
30
0.0
11
-104.569877
21
643.833376
31
0.0
0
LINE
8
0
6
CONTINUOUS
10
-95.991224
20
642.326821
30
0.0
11
-99.427340
21
642.930328
31
0.0
0
LINE
8
0
6
CONTINUOUS
10
-95.991224
20
642.326821
30
0.0
11
-96.164480
21
641.348107
31
0.0
0
LINE
8
0
6
CONTINUOUS
10
-94.784607
20
642.114992
30
0.0
11
-95.991224
21
642.326821
31
0.0
0
LINE
8
0
6
CONTINUOUS
10
-94.957893
20
641.136277
30
0.0
11
-94.784607
21
642.114992
31
0.0
0
LINE
8
0
6
CONTINUOUS
10
-94.726153
20
623.709686
30
0.0
11
-94.957893
21
641.136277
31
0.0
0
LINE
8
0
6
CONTINUOUS
10
-126.660431
20
646.703762
30
0.0
11
-132.862612
21
630.407069
31
0.0
0
LINE
8
0
6
CONTINUOUS
10
-101.453027
20
650.482678
30
0.0
11
-99.016717
21
650.054815
31
0.0
0
LINE
8
0
6
CONTINUOUS
10
-96.821615
20
662.453488
30
0.0
11
-99.016717
21
650.054815
31
0.0
0
LINE
8
0
6
CONTINUOUS
10
-98.161206
20
649.904620
30
0.0
11
-95.966093
21
662.303223
31
0.0
0
LINE
8
0
6
CONTINUOUS
10
-99.016717
20
650.054815
30
0.0
11
-98.161206
21
649.904620
31
0.0
0
LINE
8
0
6
CONTINUOUS
10
-113.701161
20
652.633650
30
0.0
11
-109.400177
21
651.878360
31
0.0
0
LINE
8
0
6
CONTINUOUS
10
-109.400177
20
651.878360
30
0.0
11
-105.099203
21
651.123060
31
0.0
0
LINE
8
0
6
CONTINUOUS
10
-118.444045
20
666.250762
30
0.0
11
-120.639157
21
653.852089
31
0.0
0
LINE
8
0
6
CONTINUOUS
10
-120.639157
20
653.852089
30
0.0
11
-119.783636
21
653.701904
31
0.0
0
LINE
8
0
6
CONTINUOUS
10
-117.588564
20
666.100577
30
0.0
11
-119.783636
21
653.701904
31
0.0
0
LINE
8
0
6
CONTINUOUS
10
-119.783636
20
653.701904
30
0.0
11
-117.347336
21
653.274041
31
0.0
0
LINE
8
0
6
CONTINUOUS
10
-105.099203
20
651.123060
30
0.0
11
-101.453027
21
650.482678
31
0.0
0
LINE
8
0
6
CONTINUOUS
10
-117.347336
20
653.274041
30
0.0
11
-113.701161
21
652.633650
31
0.0
0
LINE
8
0
6
CONTINUOUS
10
-95.966093
20
662.303223
30
0.0
11
-95.879480
21
662.792580
31
0.0
0
LINE
8
0
6
CONTINUOUS
10
-96.735002
20
662.942845
30
0.0
11
-95.879480
21
662.792580
31
0.0
0
LINE
8
0
6
CONTINUOUS
10
-96.821615
20
662.453488
30
0.0
11
-96.735002
21
662.942845
31
0.0
0
LINE
8
0
6
CONTINUOUS
10
-99.171311
20
663.370708
30
0.0
11
-96.735002
21
662.942845
31
0.0
0
LINE
8
0
6
CONTINUOUS
10
-118.357442
20
666.740119
30
0.0
11
-118.444045
21
666.250762
31
0.0
0
LINE
8
0
6
CONTINUOUS
10
-117.501920
20
666.589854
30
0.0
11
-118.357442
21
666.740119
31
0.0
0
LINE
8
0
6
CONTINUOUS
10
-102.817487
20
664.011020
30
0.0
11
-107.118461
21
664.766389
31
0.0
0
LINE
8
0
6
CONTINUOUS
10
-111.419435
20
665.521679
30
0.0
11
-107.118461
21
664.766389
31
0.0
0
LINE
8
0
6
CONTINUOUS
10
-117.501920
20
666.589854
30
0.0
11
-117.588564
21
666.100577
31
0.0
0
LINE
8
0
6
CONTINUOUS
10
-115.065611
20
666.162071
30
0.0
11
-117.501920
21
666.589854
31
0.0
0
LINE
8
0
6
CONTINUOUS
10
-102.817487
20
664.011020
30
0.0
11
-99.171311
21
663.370708
31
0.0
0
LINE
8
0
6
CONTINUOUS
10
-115.065611
20
666.162071
30
0.0
11
-115.152264
21
665.672713
31
0.0
0
LINE
8
0
6
CONTINUOUS
10
-111.419435
20
665.521679
30
0.0
11
-115.065611
21
666.162071
31
0.0
0
LINE
8
0
6
CONTINUOUS
10
-113.701161
20
652.633650
30
0.0
11
-117.347336
21
653.274041
31
0.0
0
LINE
8
0
6
CONTINUOUS
10
-116.048861
20
651.403554
30
0.0
11
-113.127801
21
650.890576
31
0.0
0
LINE
8
0
6
CONTINUOUS
10
-101.453027
20
650.482678
30
0.0
11
-105.099203
21
651.123060
31
0.0
0
LINE
8
0
6
CONTINUOUS
10
-106.236585
20
649.680286
30
0.0
11
-103.315515
21
649.167308
31
0.0
0
LINE
8
0
6
CONTINUOUS
10
-117.347336
20
653.274041
30
0.0
11
-119.783636
21
653.701904
31
0.0
0
LINE
8
0
6
CONTINUOUS
10
-118.000681
20
651.746302
30
0.0
11
-116.048861
21
651.403554
31
0.0
0
LINE
8
0
6
CONTINUOUS
10
-120.639157
20
653.852089
30
0.0
11
-118.686045
21
651.866694
31
0.0
0
LINE
8
0
6
CONTINUOUS
10
-119.783636
20
653.701904
30
0.0
11
-120.639157
21
653.852089
31
0.0
0
LINE
8
0
6
CONTINUOUS
10
-118.686045
20
651.866694
30
0.0
11
-118.000681
21
651.746302
31
0.0
0
LINE
8
0
6
CONTINUOUS
10
-105.099203
20
651.123060
30
0.0
11
-109.400177
21
651.878360
31
0.0
0
LINE
8
0
6
CONTINUOUS
10
-109.682188
20
650.285391
30
0.0
11
-106.236585
21
649.680286
31
0.0
0
LINE
8
0
6
CONTINUOUS
10
-109.400177
20
651.878360
30
0.0
11
-113.701161
21
652.633650
31
0.0
0
LINE
8
0
6
CONTINUOUS
10
-113.127801
20
650.890576
30
0.0
11
-109.682188
21
650.285391
31
0.0
0
LINE
8
0
6
CONTINUOUS
10
-98.161206
20
649.904620
30
0.0
11
-99.016717
21
650.054815
31
0.0
0
LINE
8
0
6
CONTINUOUS
10
-100.678342
20
648.704168
30
0.0
11
-98.161206
21
649.904620
31
0.0
0
LINE
8
0
6
CONTINUOUS
10
-101.363746
20
648.824560
30
0.0
11
-100.678342
21
648.704168
31
0.0
0
LINE
8
0
6
CONTINUOUS
10
-99.016717
20
650.054815
30
0.0
11
-101.453027
21
650.482678
31
0.0
0
LINE
8
0
6
CONTINUOUS
10
-103.315515
20
649.167308
30
0.0
11
-101.363746
21
648.824560
31
0.0
0
LINE
8
0
6
CONTINUOUS
10
-101.982583
20
645.329034
30
0.0
11
-103.860415
21
646.089668
31
0.0
0
LINE
8
0
6
CONTINUOUS
10
-101.297219
20
645.208633
30
0.0
11
-101.982583
21
645.329034
31
0.0
0
LINE
8
0
6
CONTINUOUS
10
-99.396895
20
642.924915
30
0.0
11
-101.297219
21
645.208633
31
0.0
0
LINE
8
0
6
CONTINUOUS
10
-110.301076
20
646.789866
30
0.0
11
-113.746678
21
647.394971
31
0.0
0
LINE
8
0
6
CONTINUOUS
10
-106.855423
20
646.184761
30
0.0
11
-110.301076
21
646.789866
31
0.0
0
LINE
8
0
6
CONTINUOUS
10
-119.304882
20
648.371099
30
0.0
11
-121.874856
21
646.872464
31
0.0
0
LINE
8
0
6
CONTINUOUS
10
-118.619518
20
648.250777
30
0.0
11
-119.304882
21
648.371099
31
0.0
0
LINE
8
0
6
CONTINUOUS
10
-116.667749
20
647.907949
30
0.0
11
-118.619518
21
648.250777
31
0.0
0
LINE
8
0
6
CONTINUOUS
10
-103.860415
20
646.089668
30
0.0
11
-106.855423
21
646.184761
31
0.0
0
LINE
8
0
6
CONTINUOUS
10
-113.746678
20
647.394971
30
0.0
11
-116.667749
21
647.907949
31
0.0
0
LINE
8
0
6
CONTINUOUS
10
-101.363746
20
648.824560
30
0.0
11
-103.315515
21
649.167308
31
0.0
0
LINE
8
0
6
CONTINUOUS
10
-101.982583
20
645.329034
30
0.0
11
-101.297219
21
645.208633
31
0.0
0
LINE
8
0
6
CONTINUOUS
10
-101.363746
20
648.824560
30
0.0
11
-101.982583
21
645.329034
31
0.0
0
LINE
8
0
6
CONTINUOUS
10
-100.678342
20
648.704168
30
0.0
11
-101.363746
21
648.824560
31
0.0
0
LINE
8
0
6
CONTINUOUS
10
-101.297219
20
645.208633
30
0.0
11
-100.678342
21
648.704168
31
0.0
0
LINE
8
0
6
CONTINUOUS
10
-113.746678
20
647.394971
30
0.0
11
-110.301076
21
646.789866
31
0.0
0
LINE
8
0
6
CONTINUOUS
10
-109.682188
20
650.285391
30
0.0
11
-113.127801
21
650.890576
31
0.0
0
LINE
8
0
6
CONTINUOUS
10
-110.301076
20
646.789866
30
0.0
11
-106.855423
21
646.184761
31
0.0
0
LINE
8
0
6
CONTINUOUS
10
-106.236585
20
649.680286
30
0.0
11
-109.682188
21
650.285391
31
0.0
0
LINE
8
0
6
CONTINUOUS
10
-119.304882
20
648.371099
30
0.0
11
-118.619518
21
648.250777
31
0.0
0
LINE
8
0
6
CONTINUOUS
10
-118.686045
20
651.866694
30
0.0
11
-119.304882
21
648.371099
31
0.0
0
LINE
8
0
6
CONTINUOUS
10
-118.000681
20
651.746302
30
0.0
11
-118.686045
21
651.866694
31
0.0
0
LINE
8
0
6
CONTINUOUS
10
-118.619518
20
648.250777
30
0.0
11
-116.667749
21
647.907949
31
0.0
0
LINE
8
0
6
CONTINUOUS
10
-118.000681
20
651.746302
30
0.0
11
-118.619518
21
648.250777
31
0.0
0
LINE
8
0
6
CONTINUOUS
10
-116.048861
20
651.403554
30
0.0
11
-118.000681
21
651.746302
31
0.0
0
LINE
8
0
6
CONTINUOUS
10
-103.315515
20
649.167308
30
0.0
11
-106.236585
21
649.680286
31
0.0
0
LINE
8
0
6
CONTINUOUS
10
-116.667749
20
647.907949
30
0.0
11
-113.746678
21
647.394971
31
0.0
0
LINE
8
0
6
CONTINUOUS
10
-113.127801
20
650.890576
30
0.0
11
-116.048861
21
651.403554
31
0.0
0
LINE
8
0
6
CONTINUOUS
10
-132.862612
20
630.407069
30
0.0
11
-133.950035
21
628.513801
31
0.0
0
LINE
8
0
6
CONTINUOUS
10
-94.354469
20
621.560083
30
0.0
11
-94.726153
21
623.709686
31
0.0
0
LINE
8
0
6
CONTINUOUS
10
-100.153107
20
622.578419
30
0.0
11
-106.575978
21
623.706410
31
0.0
0
LINE
8
0
6
CONTINUOUS
10
-133.950035
20
628.513801
30
0.0
11
-136.554155
21
627.286522
31
0.0
0
LINE
8
0
6
CONTINUOUS
10
-132.443044
20
628.249157
30
0.0
11
-133.950035
21
628.513801
31
0.0
0
LINE
8
0
6
CONTINUOUS
10
-114.152257
20
625.036942
30
0.0
11
-121.728526
21
626.367474
31
0.0
0
LINE
8
0
6
CONTINUOUS
10
-95.861500
20
621.824807
30
0.0
11
-100.153107
21
622.578419
31
0.0
0
LINE
8
0
6
CONTINUOUS
10
-106.575978
20
623.706410
30
0.0
11
-114.152257
21
625.036942
31
0.0
0
LINE
8
0
6
CONTINUOUS
10
-121.728526
20
626.367474
30
0.0
11
-128.151396
21
627.495465
31
0.0
0
LINE
8
0
6
CONTINUOUS
10
-92.328863
20
619.519826
30
0.0
11
-94.354469
21
621.560083
31
0.0
0
LINE
8
0
6
CONTINUOUS
10
-94.354469
20
621.560083
30
0.0
11
-95.861500
21
621.824807
31
0.0
0
LINE
8
0
6
CONTINUOUS
10
-128.151396
20
627.495465
30
0.0
11
-132.443044
21
628.249157
31
0.0
0
LINE
8
0
6
CONTINUOUS
10
-82.832535
20
614.214037
30
0.0
11
-92.328863
21
619.519826
31
0.0
0
LINE
8
0
6
CONTINUOUS
10
-136.554155
20
627.286522
30
0.0
11
-147.299910
21
625.535645
31
0.0
0
LINE
8
0
6
CONTINUOUS
10
-74.539443
20
598.698835
30
0.0
11
-74.354647
21
599.742628
31
0.0
0
LINE
8
0
6
CONTINUOUS
10
-76.153394
20
598.982216
30
0.0
11
-74.539443
21
598.698835
31
0.0
0
LINE
8
0
6
CONTINUOUS
10
-63.527158
20
596.764876
30
0.0
11
-63.342361
21
597.808678
31
0.0
0
LINE
8
0
6
CONTINUOUS
10
-63.527158
20
596.764876
30
0.0
11
-65.141129
21
597.048337
31
0.0
0
LINE
8
0
6
CONTINUOUS
10
-53.614451
20
595.024010
30
0.0
11
-53.429660
21
596.067818
31
0.0
0
LINE
8
0
6
CONTINUOUS
10
-55.228421
20
595.307471
30
0.0
11
-53.614451
21
595.024010
31
0.0
0
LINE
8
0
6
CONTINUOUS
10
-53.559276
20
595.014332
30
0.0
11
-53.374484
21
596.058128
31
0.0
0
LINE
8
0
6
CONTINUOUS
10
-48.600072
20
595.219702
30
0.0
11
-48.828204
21
593.931145
31
0.0
0
LINE
8
0
6
CONTINUOUS
10
-48.828204
20
593.931145
30
0.0
11
-47.214233
21
593.647754
31
0.0
0
LINE
8
0
6
CONTINUOUS
10
-42.947666
20
592.898477
30
0.0
11
-42.719556
21
594.186924
31
0.0
0
LINE
8
0
6
CONTINUOUS
10
-44.561637
20
593.181868
30
0.0
11
-42.947666
21
592.898477
31
0.0
0
LINE
8
0
6
CONTINUOUS
10
-42.606288
20
592.838511
30
0.0
11
-42.378176
21
594.126972
31
0.0
0
LINE
8
0
6
CONTINUOUS
10
-35.256966
20
591.295531
30
0.0
11
-34.985544
21
592.828689
31
0.0
0
LINE
8
0
6
CONTINUOUS
10
-36.870917
20
591.579002
30
0.0
11
-35.256966
21
591.295531
31
0.0
0
LINE
8
0
6
CONTINUOUS
10
-38.213434
20
593.395638
30
0.0
11
-38.484878
21
591.862383
31
0.0
0
LINE
8
0
6
CONTINUOUS
10
-36.870917
20
591.579002
30
0.0
11
-36.599494
21
593.112128
31
0.0
0
LINE
8
0
6
CONTINUOUS
10
-38.484878
20
591.862383
30
0.0
11
-36.870917
21
591.579002
31
0.0
0
LINE
8
0
6
CONTINUOUS
10
-32.996119
20
590.898530
30
0.0
11
-32.724693
21
592.431645
31
0.0
0
LINE
8
0
6
CONTINUOUS
10
-34.610070
20
591.181921
30
0.0
11
-32.996119
21
590.898530
31
0.0
0
LINE
8
0
6
CONTINUOUS
10
-34.610070
20
591.181921
30
0.0
11
-34.338642
21
592.715081
31
0.0
0
LINE
8
0
6
CONTINUOUS
10
-131.833874
20
608.760754
30
0.0
11
-130.219923
21
608.477283
31
0.0
0
LINE
8
0
6
CONTINUOUS
10
-119.803000
20
606.647876
30
0.0
11
-119.618200
21
607.691680
31
0.0
0
LINE
8
0
6
CONTINUOUS
10
-108.787426
20
604.713378
30
0.0
11
-107.173466
21
604.429917
31
0.0
0
LINE
8
0
6
CONTINUOUS
10
-139.627593
20
610.129459
30
0.0
11
-138.013642
21
609.845998
31
0.0
0
LINE
8
0
6
CONTINUOUS
10
-123.709266
20
607.333901
30
0.0
11
-123.524477
21
608.377695
31
0.0
0
LINE
8
0
6
CONTINUOUS
10
-111.066215
20
606.189832
30
0.0
11
-111.251002
21
605.146046
31
0.0
0
LINE
8
0
6
CONTINUOUS
10
-95.332715
20
602.350498
30
0.0
11
-96.946666
21
602.633959
31
0.0
0
LINE
8
0
6
CONTINUOUS
10
-153.643956
20
613.667211
30
0.0
11
-153.828760
21
612.623408
31
0.0
0
LINE
8
0
6
CONTINUOUS
10
-142.921711
20
610.707967
30
0.0
11
-142.736915
21
611.751741
31
0.0
0
LINE
8
0
6
CONTINUOUS
10
-127.615572
20
608.019937
30
0.0
11
-127.430773
21
609.063714
31
0.0
0
LINE
8
0
6
CONTINUOUS
10
-165.663363
20
614.701769
30
0.0
11
-165.478578
21
615.745567
31
0.0
0
LINE
8
0
6
CONTINUOUS
10
-167.277314
20
614.985230
30
0.0
11
-165.663363
21
614.701769
31
0.0
0
LINE
8
0
6
CONTINUOUS
10
-158.467251
20
613.437995
30
0.0
11
-156.853260
21
613.154604
31
0.0
0
LINE
8
0
6
CONTINUOUS
10
-131.521878
20
608.705962
30
0.0
11
-131.337080
21
609.749734
31
0.0
0
LINE
8
0
6
CONTINUOUS
10
-103.253634
20
604.817821
30
0.0
11
-103.438430
21
603.773985
31
0.0
0
LINE
8
0
6
CONTINUOUS
10
-89.315223
20
601.293669
30
0.0
11
-87.701272
21
601.010288
31
0.0
0
LINE
8
0
6
CONTINUOUS
10
-182.213168
20
618.684502
30
0.0
11
-182.397962
21
617.640660
31
0.0
0
LINE
8
0
6
CONTINUOUS
10
-180.784011
20
617.357269
30
0.0
11
-180.599217
21
618.401011
31
0.0
0
LINE
8
0
6
CONTINUOUS
10
-180.784011
20
617.357269
30
0.0
11
-182.397962
21
617.640660
31
0.0
0
LINE
8
0
6
CONTINUOUS
10
-174.382911
20
617.309345
30
0.0
11
-174.567710
21
616.265553
31
0.0
0
LINE
8
0
6
CONTINUOUS
10
-165.055843
20
615.671367
30
0.0
11
-165.240646
21
614.627550
31
0.0
0
LINE
8
0
6
CONTINUOUS
10
-151.400062
20
612.196923
30
0.0
11
-149.786081
21
611.913452
31
0.0
0
LINE
8
0
6
CONTINUOUS
10
-152.829216
20
613.524151
30
0.0
11
-153.014023
21
612.480304
31
0.0
0
LINE
8
0
6
CONTINUOUS
10
-151.400062
20
612.196923
30
0.0
11
-151.215269
21
613.240685
31
0.0
0
LINE
8
0
6
CONTINUOUS
10
-153.014023
20
612.480304
30
0.0
11
-151.400062
21
612.196923
31
0.0
0
LINE
8
0
6
CONTINUOUS
10
-135.428144
20
609.391917
30
0.0
11
-135.243355
21
610.435743
31
0.0
0
LINE
8
0
6
CONTINUOUS
10
-137.042135
20
609.675378
30
0.0
11
-135.428144
21
609.391917
31
0.0
0
LINE
8
0
6
CONTINUOUS
10
-138.471279
20
611.002666
30
0.0
11
-138.656086
21
609.958849
31
0.0
0
LINE
8
0
6
CONTINUOUS
10
-137.042135
20
609.675378
30
0.0
11
-136.857335
21
610.719185
31
0.0
0
LINE
8
0
6
CONTINUOUS
10
-138.656086
20
609.958849
30
0.0
11
-137.042135
21
609.675378
31
0.0
0
LINE
8
0
6
CONTINUOUS
10
-119.841057
20
606.654578
30
0.0
11
-119.656269
21
607.698365
31
0.0
0
LINE
8
0
6
CONTINUOUS
10
-121.455048
20
606.938049
30
0.0
11
-119.841057
21
606.654578
31
0.0
0
LINE
8
0
6
CONTINUOUS
10
-122.884196
20
608.265274
30
0.0
11
-123.068999
21
607.221430
31
0.0
0
LINE
8
0
6
CONTINUOUS
10
-121.455048
20
606.938049
30
0.0
11
-121.270254
21
607.981811
31
0.0
0
LINE
8
0
6
CONTINUOUS
10
-123.068999
20
607.221430
30
0.0
11
-121.455048
21
606.938049
31
0.0
0
LINE
8
0
6
CONTINUOUS
10
-104.004249
20
603.873353
30
0.0
11
-103.819449
21
604.917149
31
0.0
0
LINE
8
0
6
CONTINUOUS
10
-105.618199
20
604.156814
30
0.0
11
-104.004249
21
603.873353
31
0.0
0
LINE
8
0
6
CONTINUOUS
10
-107.047346
20
605.484056
30
0.0
11
-107.232150
21
604.440205
31
0.0
0
LINE
8
0
6
CONTINUOUS
10
-105.618199
20
604.156814
30
0.0
11
-105.433404
21
605.200589
31
0.0
0
LINE
8
0
6
CONTINUOUS
10
-107.232150
20
604.440205
30
0.0
11
-105.618199
21
604.156814
31
0.0
0
LINE
8
0
6
CONTINUOUS
10
-88.912713
20
601.223036
30
0.0
11
-88.727925
21
602.266821
31
0.0
0
LINE
8
0
6
CONTINUOUS
10
-90.526703
20
601.506427
30
0.0
11
-88.912713
21
601.223036
31
0.0
0
LINE
8
0
6
CONTINUOUS
10
-91.955845
20
602.833747
30
0.0
11
-92.140654
21
601.789888
31
0.0
0
LINE
8
0
6
CONTINUOUS
10
-90.526703
20
601.506427
30
0.0
11
-90.341899
21
602.550259
31
0.0
0
LINE
8
0
6
CONTINUOUS
10
-92.140654
20
601.789888
30
0.0
11
-90.526703
21
601.506427
31
0.0
0
LINE
8
0
6
CONTINUOUS
10
-75.514791
20
598.870134
30
0.0
11
-75.329997
21
599.913917
31
0.0
0
LINE
8
0
6
CONTINUOUS
10
-77.128762
20
599.153515
30
0.0
11
-75.514791
21
598.870134
31
0.0
0
LINE
8
0
6
CONTINUOUS
10
-77.128762
20
599.153515
30
0.0
11
-76.943962
21
600.197357
31
0.0
0
LINE
8
0
6
CONTINUOUS
10
-78.742713
20
599.436986
30
0.0
11
-77.128762
21
599.153515
31
0.0
0
LINE
8
0
6
CONTINUOUS
10
-191.765459
20
619.285744
30
0.0
11
-190.151468
21
619.002353
31
0.0
0
LINE
8
0
6
CONTINUOUS
10
-191.765459
20
619.285744
30
0.0
11
-191.580659
21
620.329547
31
0.0
0
LINE
8
0
6
CONTINUOUS
10
-186.859256
20
618.424145
30
0.0
11
-185.245275
21
618.140684
31
0.0
0
LINE
8
0
6
CONTINUOUS
10
-186.859256
20
618.424145
30
0.0
11
-186.674462
21
619.467934
31
0.0
0
LINE
8
0
6
CONTINUOUS
10
-180.350014
20
618.357299
30
0.0
11
-180.534821
21
617.313453
31
0.0
0
LINE
8
0
6
CONTINUOUS
10
-178.920830
20
617.030062
30
0.0
11
-178.736050
21
618.073807
31
0.0
0
LINE
8
0
6
CONTINUOUS
10
-178.920830
20
617.030062
30
0.0
11
-180.534821
21
617.313453
31
0.0
0
LINE
8
0
6
CONTINUOUS
10
-166.683216
20
614.880918
30
0.0
11
-166.498424
21
615.924670
31
0.0
0
LINE
8
0
6
CONTINUOUS
10
-168.297177
20
615.164309
30
0.0
11
-166.683216
21
614.880918
31
0.0
0
LINE
8
0
6
CONTINUOUS
10
-169.726334
20
616.491590
30
0.0
11
-169.911128
21
615.447770
31
0.0
0
LINE
8
0
6
CONTINUOUS
10
-168.297177
20
615.164309
30
0.0
11
-168.112391
21
616.208110
31
0.0
0
LINE
8
0
6
CONTINUOUS
10
-169.911128
20
615.447770
30
0.0
11
-168.297177
21
615.164309
31
0.0
0
LINE
8
0
6
CONTINUOUS
10
-153.838628
20
612.625166
30
0.0
11
-153.653832
21
613.668939
31
0.0
0
LINE
8
0
6
CONTINUOUS
10
-155.452578
20
612.908557
30
0.0
11
-153.838628
21
612.625166
31
0.0
0
LINE
8
0
6
CONTINUOUS
10
-156.881742
20
614.235848
30
0.0
11
-157.066529
21
613.192018
31
0.0
0
LINE
8
0
6
CONTINUOUS
10
-155.452578
20
612.908557
30
0.0
11
-155.267779
21
613.952376
31
0.0
0
LINE
8
0
6
CONTINUOUS
10
-157.066529
20
613.192018
30
0.0
11
-155.452578
21
612.908557
31
0.0
0
LINE
8
0
6
CONTINUOUS
10
-139.334450
20
610.077942
30
0.0
11
-139.149649
21
611.121755
31
0.0
0
LINE
8
0
6
CONTINUOUS
10
-140.948401
20
610.361413
30
0.0
11
-139.334450
21
610.077942
31
0.0
0
LINE
8
0
6
CONTINUOUS
10
-142.377557
20
611.688652
30
0.0
11
-142.562352
21
610.644794
31
0.0
0
LINE
8
0
6
CONTINUOUS
10
-140.948401
20
610.361413
30
0.0
11
-140.763601
21
611.405193
31
0.0
0
LINE
8
0
6
CONTINUOUS
10
-142.562352
20
610.644794
30
0.0
11
-140.948401
21
610.361413
31
0.0
0
LINE
8
0
6
CONTINUOUS
10
-123.804594
20
607.350671
30
0.0
11
-123.619797
21
608.394435
31
0.0
0
LINE
8
0
6
CONTINUOUS
10
-125.418545
20
607.634052
30
0.0
11
-123.804594
21
607.350671
31
0.0
0
LINE
8
0
6
CONTINUOUS
10
-126.847702
20
608.961342
30
0.0
11
-127.032495
21
607.917523
31
0.0
0
LINE
8
0
6
CONTINUOUS
10
-125.418545
20
607.634052
30
0.0
11
-125.233742
21
608.677874
31
0.0
0
LINE
8
0
6
CONTINUOUS
10
-127.032495
20
607.917523
30
0.0
11
-125.418545
21
607.634052
31
0.0
0
LINE
8
0
6
CONTINUOUS
10
-107.927773
20
604.562434
30
0.0
11
-107.742990
21
605.606195
31
0.0
0
LINE
8
0
6
CONTINUOUS
10
-110.970910
20
606.173095
30
0.0
11
-111.155715
21
605.129286
31
0.0
0
LINE
8
0
6
CONTINUOUS
10
-109.541764
20
604.845815
30
0.0
11
-109.356961
21
605.889638
31
0.0
0
LINE
8
0
6
CONTINUOUS
10
-111.155715
20
605.129286
30
0.0
11
-109.541764
21
604.845815
31
0.0
0
LINE
8
0
6
CONTINUOUS
10
-107.927773
20
604.562434
30
0.0
11
-109.541764
21
604.845815
31
0.0
0
LINE
8
0
6
CONTINUOUS
10
-92.397957
20
601.835073
30
0.0
11
-92.213157
21
602.878879
31
0.0
0
LINE
8
0
6
CONTINUOUS
10
-94.011907
20
602.118544
30
0.0
11
-92.397957
21
601.835073
31
0.0
0
LINE
8
0
6
CONTINUOUS
10
-95.441058
20
603.445812
30
0.0
11
-95.625858
21
602.401925
31
0.0
0
LINE
8
0
6
CONTINUOUS
10
-94.011907
20
602.118544
30
0.0
11
-93.827109
21
603.162313
31
0.0
0
LINE
8
0
6
CONTINUOUS
10
-95.625858
20
602.401925
30
0.0
11
-94.011907
21
602.118544
31
0.0
0
LINE
8
0
6
CONTINUOUS
10
-77.893749
20
599.287859
30
0.0
11
-77.708953
21
600.331703
31
0.0
0
LINE
8
0
6
CONTINUOUS
10
-79.507720
20
599.571320
30
0.0
11
-77.893749
21
599.287859
31
0.0
0
LINE
8
0
6
CONTINUOUS
10
-79.507720
20
599.571320
30
0.0
11
-79.322927
21
600.615145
31
0.0
0
LINE
8
0
6
CONTINUOUS
10
-81.121671
20
599.854791
30
0.0
11
-79.507720
21
599.571320
31
0.0
0
LINE
8
0
6
CONTINUOUS
10
-65.049141
20
597.032187
30
0.0
11
-64.864351
21
598.075966
31
0.0
0
LINE
8
0
6
CONTINUOUS
10
-66.663112
20
597.315568
30
0.0
11
-65.049141
21
597.032187
31
0.0
0
LINE
8
0
6
CONTINUOUS
10
-66.663112
20
597.315568
30
0.0
11
-66.478316
21
598.359407
31
0.0
0
LINE
8
0
6
CONTINUOUS
10
-203.071799
20
621.019060
30
0.0
11
-202.843687
21
622.307529
31
0.0
0
LINE
8
0
6
CONTINUOUS
10
-204.685760
20
621.302531
30
0.0
11
-203.071799
21
621.019060
31
0.0
0
LINE
8
0
6
CONTINUOUS
10
-204.685760
20
621.302531
30
0.0
11
-204.457643
21
622.590968
31
0.0
0
LINE
8
0
6
CONTINUOUS
10
-206.299710
20
621.585912
30
0.0
11
-204.685760
21
621.302531
31
0.0
0
LINE
8
0
6
CONTINUOUS
10
-201.846501
20
622.132460
30
0.0
11
-202.074629
21
620.843955
31
0.0
0
LINE
8
0
6
CONTINUOUS
10
-202.074629
20
620.843955
30
0.0
11
-200.460679
21
620.560494
31
0.0
0
LINE
8
0
6
CONTINUOUS
10
-191.955963
20
619.066973
30
0.0
11
-191.727866
21
620.355399
31
0.0
0
LINE
8
0
6
CONTINUOUS
10
-193.569914
20
619.350354
30
0.0
11
-191.955963
21
619.066973
31
0.0
0
LINE
8
0
6
CONTINUOUS
10
-194.955784
20
620.922313
30
0.0
11
-195.183905
21
619.633825
31
0.0
0
LINE
8
0
6
CONTINUOUS
10
-193.569914
20
619.350354
30
0.0
11
-193.341817
21
620.638837
31
0.0
0
LINE
8
0
6
CONTINUOUS
10
-195.183905
20
619.633825
30
0.0
11
-193.569914
21
619.350354
31
0.0
0
LINE
8
0
6
CONTINUOUS
10
-182.621018
20
617.427522
30
0.0
11
-182.392902
21
618.716014
31
0.0
0
LINE
8
0
6
CONTINUOUS
10
-184.234969
20
617.710993
30
0.0
11
-182.621018
21
617.427522
31
0.0
0
LINE
8
0
6
CONTINUOUS
10
-185.620798
20
619.282944
30
0.0
11
-185.848919
21
617.994454
31
0.0
0
LINE
8
0
6
CONTINUOUS
10
-184.234969
20
617.710993
30
0.0
11
-184.006857
21
618.999455
31
0.0
0
LINE
8
0
6
CONTINUOUS
10
-185.848919
20
617.994454
30
0.0
11
-184.234969
21
617.710993
31
0.0
0
LINE
8
0
6
CONTINUOUS
10
-171.141923
20
615.411655
30
0.0
11
-170.913807
21
616.700087
31
0.0
0
LINE
8
0
6
CONTINUOUS
10
-172.755874
20
615.695036
30
0.0
11
-171.141923
21
615.411655
31
0.0
0
LINE
8
0
6
CONTINUOUS
10
-174.141713
20
617.267010
30
0.0
11
-174.369824
21
615.978507
31
0.0
0
LINE
8
0
6
CONTINUOUS
10
-172.755874
20
615.695036
30
0.0
11
-172.527754
21
616.983524
31
0.0
0
LINE
8
0
6
CONTINUOUS
10
-174.369824
20
615.978507
30
0.0
11
-172.755874
21
615.695036
31
0.0
0
LINE
8
0
6
CONTINUOUS
10
-157.887584
20
613.083961
30
0.0
11
-157.659472
21
614.372398
31
0.0
0
LINE
8
0
6
CONTINUOUS
10
-160.887364
20
614.939307
30
0.0
11
-161.115486
21
613.650813
31
0.0
0
LINE
8
0
6
CONTINUOUS
10
-159.501535
20
613.367352
30
0.0
11
-159.273421
21
614.655835
31
0.0
0
LINE
8
0
6
CONTINUOUS
10
-161.115486
20
613.650813
30
0.0
11
-159.501535
21
613.367352
31
0.0
0
LINE
8
0
6
CONTINUOUS
10
-157.887584
20
613.083961
30
0.0
11
-159.501535
21
613.367352
31
0.0
0
LINE
8
0
6
CONTINUOUS
10
-143.284058
20
610.519299
30
0.0
11
-143.055941
21
611.807767
31
0.0
0
LINE
8
0
6
CONTINUOUS
10
-146.283856
20
612.374668
30
0.0
11
-146.511960
21
611.086151
31
0.0
0
LINE
8
0
6
CONTINUOUS
10
-144.898009
20
610.802760
30
0.0
11
-144.669895
21
612.091205
31
0.0
0
LINE
8
0
6
CONTINUOUS
10
-143.284058
20
610.519299
30
0.0
11
-144.898009
21
610.802760
31
0.0
0
LINE
8
0
6
CONTINUOUS
10
-144.898009
20
610.802760
30
0.0
11
-146.511960
21
611.086151
31
0.0
0
LINE
8
0
6
CONTINUOUS
10
-127.800682
20
607.800177
30
0.0
11
-127.572582
21
609.088618
31
0.0
0
LINE
8
0
6
CONTINUOUS
10
-129.414673
20
608.083558
30
0.0
11
-127.800682
21
607.800177
31
0.0
0
LINE
8
0
6
CONTINUOUS
10
-130.800496
20
609.655529
30
0.0
11
-131.028624
21
608.367029
31
0.0
0
LINE
8
0
6
CONTINUOUS
10
-129.414673
20
608.083558
30
0.0
11
-129.186551
21
609.372061
31
0.0
0
LINE
8
0
6
CONTINUOUS
10
-131.028624
20
608.367029
30
0.0
11
-129.414673
21
608.083558
31
0.0
0
LINE
8
0
6
CONTINUOUS
10
-111.935103
20
605.013838
30
0.0
11
-111.707002
21
606.302343
31
0.0
0
LINE
8
0
6
CONTINUOUS
10
-113.549094
20
605.297299
30
0.0
11
-111.935103
21
605.013838
31
0.0
0
LINE
8
0
6
CONTINUOUS
10
-114.934927
20
606.869238
30
0.0
11
-115.163045
21
605.580770
31
0.0
0
LINE
8
0
6
CONTINUOUS
10
-113.549094
20
605.297299
30
0.0
11
-113.320974
21
606.585782
31
0.0
0
LINE
8
0
6
CONTINUOUS
10
-115.163045
20
605.580770
30
0.0
11
-113.549094
21
605.297299
31
0.0
0
LINE
8
0
6
CONTINUOUS
10
-96.197302
20
602.250062
30
0.0
11
-95.969186
21
603.538499
31
0.0
0
LINE
8
0
6
CONTINUOUS
10
-97.811253
20
602.533453
30
0.0
11
-96.197302
21
602.250062
31
0.0
0
LINE
8
0
6
CONTINUOUS
10
-99.197091
20
604.105429
30
0.0
11
-99.425204
21
602.816914
31
0.0
0
LINE
8
0
6
CONTINUOUS
10
-97.811253
20
602.533453
30
0.0
11
-97.583150
21
603.821940
31
0.0
0
LINE
8
0
6
CONTINUOUS
10
-99.425204
20
602.816914
30
0.0
11
-97.811253
21
602.533453
31
0.0
0
LINE
8
0
6
CONTINUOUS
10
-81.093041
20
599.597458
30
0.0
11
-80.864928
21
600.885947
31
0.0
0
LINE
8
0
6
CONTINUOUS
10
-82.707011
20
599.880919
30
0.0
11
-81.093041
21
599.597458
31
0.0
0
LINE
8
0
6
CONTINUOUS
10
-84.092845
20
601.452858
30
0.0
11
-84.320962
21
600.164310
31
0.0
0
LINE
8
0
6
CONTINUOUS
10
-82.707011
20
599.880919
30
0.0
11
-82.478898
21
601.169388
31
0.0
0
LINE
8
0
6
CONTINUOUS
10
-84.320962
20
600.164310
30
0.0
11
-82.707011
21
599.880919
31
0.0
0
LINE
8
0
6
CONTINUOUS
10
-67.107820
20
597.141372
30
0.0
11
-66.879703
21
598.429897
31
0.0
0
LINE
8
0
6
CONTINUOUS
10
-68.721791
20
597.424843
30
0.0
11
-67.107820
21
597.141372
31
0.0
0
LINE
8
0
6
CONTINUOUS
10
-68.721791
20
597.424843
30
0.0
11
-68.493665
21
598.713337
31
0.0
0
LINE
8
0
6
CONTINUOUS
10
-70.335742
20
597.708304
30
0.0
11
-68.721791
21
597.424843
31
0.0
0
LINE
8
0
6
CONTINUOUS
10
-54.691103
20
594.960838
30
0.0
11
-54.462996
21
596.249292
31
0.0
0
LINE
8
0
6
CONTINUOUS
10
-56.305074
20
595.244219
30
0.0
11
-54.691103
21
594.960838
31
0.0
0
LINE
8
0
6
CONTINUOUS
10
-56.305074
20
595.244219
30
0.0
11
-56.076954
21
596.532735
31
0.0
0
LINE
8
0
6
CONTINUOUS
10
-220.136183
20
625.344442
30
0.0
11
-220.407605
21
623.811261
31
0.0
0
LINE
8
0
6
CONTINUOUS
10
-220.407605
20
623.811261
30
0.0
11
-218.793654
21
623.527800
31
0.0
0
LINE
8
0
6
CONTINUOUS
10
-215.933455
20
623.025489
30
0.0
11
-215.662023
21
624.558650
31
0.0
0
LINE
8
0
6
CONTINUOUS
10
-217.547406
20
623.308950
30
0.0
11
-215.933455
21
623.025489
31
0.0
0
LINE
8
0
6
CONTINUOUS
10
-218.889938
20
625.125579
30
0.0
11
-219.161357
21
623.592421
31
0.0
0
LINE
8
0
6
CONTINUOUS
10
-217.547406
20
623.308950
30
0.0
11
-217.275992
21
624.842091
31
0.0
0
LINE
8
0
6
CONTINUOUS
10
-219.161357
20
623.592421
30
0.0
11
-217.547406
21
623.308950
31
0.0
0
LINE
8
0
6
CONTINUOUS
10
-212.225345
20
622.374281
30
0.0
11
-211.953913
21
623.907442
31
0.0
0
LINE
8
0
6
CONTINUOUS
10
-213.839296
20
622.657752
30
0.0
11
-212.225345
21
622.374281
31
0.0
0
LINE
8
0
6
CONTINUOUS
10
-215.181808
20
624.474373
30
0.0
11
-215.453247
21
622.941213
31
0.0
0
LINE
8
0
6
CONTINUOUS
10
-213.839296
20
622.657752
30
0.0
11
-213.567863
21
624.190880
31
0.0
0
LINE
8
0
6
CONTINUOUS
10
-215.453247
20
622.941213
30
0.0
11
-213.839296
21
622.657752
31
0.0
0
LINE
8
0
6
CONTINUOUS
10
-206.146651
20
621.306795
30
0.0
11
-205.875233
21
622.839921
31
0.0
0
LINE
8
0
6
CONTINUOUS
10
-209.103153
20
623.406822
30
0.0
11
-209.374592
21
621.873647
31
0.0
0
LINE
8
0
6
CONTINUOUS
10
-207.760642
20
621.590256
30
0.0
11
-207.489207
21
623.123363
31
0.0
0
LINE
8
0
6
CONTINUOUS
10
-206.146651
20
621.306795
30
0.0
11
-207.760642
21
621.590256
31
0.0
0
LINE
8
0
6
CONTINUOUS
10
-207.760642
20
621.590256
30
0.0
11
-209.374592
21
621.873647
31
0.0
0
LINE
8
0
6
CONTINUOUS
10
-197.847142
20
619.849240
30
0.0
11
-197.575708
21
621.382381
31
0.0
0
LINE
8
0
6
CONTINUOUS
10
-199.461092
20
620.132701
30
0.0
11
-197.847142
21
619.849240
31
0.0
0
LINE
8
0
6
CONTINUOUS
10
-200.803616
20
621.949311
30
0.0
11
-201.075043
21
620.416092
31
0.0
0
LINE
8
0
6
CONTINUOUS
10
-199.461092
20
620.132701
30
0.0
11
-199.189675
21
621.665822
31
0.0
0
LINE
8
0
6
CONTINUOUS
10
-201.075043
20
620.416092
30
0.0
11
-199.461092
21
620.132701
31
0.0
0
LINE
8
0
6
CONTINUOUS
10
-187.531082
20
618.037581
30
0.0
11
-187.259649
21
619.570703
31
0.0
0
LINE
8
0
6
CONTINUOUS
10
-189.145032
20
618.320972
30
0.0
11
-187.531082
21
618.037581
31
0.0
0
LINE
8
0
6
CONTINUOUS
10
-190.487557
20
620.137634
30
0.0
11
-190.758983
21
618.604433
31
0.0
0
LINE
8
0
6
CONTINUOUS
10
-189.145032
20
618.320972
30
0.0
11
-188.873618
21
619.854144
31
0.0
0
LINE
8
0
6
CONTINUOUS
10
-190.758983
20
618.604433
30
0.0
11
-189.145032
21
618.320972
31
0.0
0
LINE
8
0
6
CONTINUOUS
10
-175.452534
20
615.916323
30
0.0
11
-175.181114
21
617.449499
31
0.0
0
LINE
8
0
6
CONTINUOUS
10
-177.066525
20
616.199784
30
0.0
11
-175.452534
21
615.916323
31
0.0
0
LINE
8
0
6
CONTINUOUS
10
-178.409034
20
618.016428
30
0.0
11
-178.680476
21
616.483255
31
0.0
0
LINE
8
0
6
CONTINUOUS
10
-177.066525
20
616.199784
30
0.0
11
-176.795093
21
617.732942
31
0.0
0
LINE
8
0
6
CONTINUOUS
10
-178.680476
20
616.483255
30
0.0
11
-177.066525
21
616.199784
31
0.0
0
LINE
8
0
6
CONTINUOUS
10
-161.908883
20
613.537892
30
0.0
11
-161.637468
21
615.071002
31
0.0
0
LINE
8
0
6
CONTINUOUS
10
-163.522874
20
613.821273
30
0.0
11
-161.908883
21
613.537892
31
0.0
0
LINE
8
0
6
CONTINUOUS
10
-164.865383
20
615.637919
30
0.0
11
-165.136825
21
614.104744
31
0.0
0
LINE
8
0
6
CONTINUOUS
10
-163.522874
20
613.821273
30
0.0
11
-163.251440
21
615.354444
31
0.0
0
LINE
8
0
6
CONTINUOUS
10
-165.136825
20
614.104744
30
0.0
11
-163.522874
21
613.821273
31
0.0
0
LINE
8
0
6
CONTINUOUS
10
-147.233636
20
610.960645
30
0.0
11
-146.962217
21
612.493776
31
0.0
0
LINE
8
0
6
CONTINUOUS
10
-148.847616
20
611.244037
30
0.0
11
-147.233636
21
610.960645
31
0.0
0
LINE
8
0
6
CONTINUOUS
10
-150.190129
20
613.060680
30
0.0
11
-150.461577
21
611.527497
31
0.0
0
LINE
8
0
6
CONTINUOUS
10
-148.847616
20
611.244037
30
0.0
11
-148.576181
21
612.777216
31
0.0
0
LINE
8
0
6
CONTINUOUS
10
-150.461577
20
611.527497
30
0.0
11
-148.847616
21
611.244037
31
0.0
0
LINE
8
0
6
CONTINUOUS
10
-131.788206
20
608.248156
30
0.0
11
-131.516766
21
609.781290
31
0.0
0
LINE
8
0
6
CONTINUOUS
10
-133.402157
20
608.531537
30
0.0
11
-131.788206
21
608.248156
31
0.0
0
LINE
8
0
6
CONTINUOUS
10
-134.744677
20
610.348203
30
0.0
11
-135.016108
21
608.815008
31
0.0
0
LINE
8
0
6
CONTINUOUS
10
-133.402157
20
608.531537
30
0.0
11
-133.130734
21
610.064730
31
0.0
0
LINE
8
0
6
CONTINUOUS
10
-135.016108
20
608.815008
30
0.0
11
-133.402157
21
608.531537
31
0.0
0
LINE
8
0
6
CONTINUOUS
10
-115.952812
20
605.467150
30
0.0
11
-115.681395
21
607.000308
31
0.0
0
LINE
8
0
6
CONTINUOUS
10
-117.566803
20
605.750621
30
0.0
11
-115.952812
21
605.467150
31
0.0
0
LINE
8
0
6
CONTINUOUS
10
-118.909308
20
607.567207
30
0.0
11
-119.180753
21
606.034002
31
0.0
0
LINE
8
0
6
CONTINUOUS
10
-117.566803
20
605.750621
30
0.0
11
-117.295365
21
607.283746
31
0.0
0
LINE
8
0
6
CONTINUOUS
10
-119.180753
20
606.034002
30
0.0
11
-117.566803
21
605.750621
31
0.0
0
LINE
8
0
6
CONTINUOUS
10
-100.117457
20
602.686155
30
0.0
11
-99.846035
21
604.219345
31
0.0
0
LINE
8
0
6
CONTINUOUS
10
-101.731438
20
602.969616
30
0.0
11
-100.117457
21
602.686155
31
0.0
0
LINE
8
0
6
CONTINUOUS
10
-103.073952
20
604.786266
30
0.0
11
-103.345399
21
603.253087
31
0.0
0
LINE
8
0
6
CONTINUOUS
10
-101.731438
20
602.969616
30
0.0
11
-101.460004
21
604.502787
31
0.0
0
LINE
8
0
6
CONTINUOUS
10
-103.345399
20
603.253087
30
0.0
11
-101.731438
21
602.969616
31
0.0
0
LINE
8
0
6
CONTINUOUS
10
-84.671988
20
599.973655
30
0.0
11
-84.400552
21
601.506864
31
0.0
0
LINE
8
0
6
CONTINUOUS
10
-86.285938
20
600.257126
30
0.0
11
-84.671988
21
599.973655
31
0.0
0
LINE
8
0
6
CONTINUOUS
10
-87.628460
20
602.073778
30
0.0
11
-87.899889
21
600.540587
31
0.0
0
LINE
8
0
6
CONTINUOUS
10
-86.285938
20
600.257126
30
0.0
11
-86.014508
21
601.790303
31
0.0
0
LINE
8
0
6
CONTINUOUS
10
-87.899889
20
600.540587
30
0.0
11
-86.285938
21
600.257126
31
0.0
0
LINE
8
0
6
CONTINUOUS
10
-69.996750
20
597.396498
30
0.0
11
-69.725325
21
598.929638
31
0.0
0
LINE
8
0
6
CONTINUOUS
10
-71.610721
20
597.679879
30
0.0
11
-69.996750
21
597.396498
31
0.0
0
LINE
8
0
6
CONTINUOUS
10
-72.953235
20
599.496555
30
0.0
11
-73.224672
21
597.963350
31
0.0
0
LINE
8
0
6
CONTINUOUS
10
-71.610721
20
597.679879
30
0.0
11
-71.339292
21
599.213079
31
0.0
0
LINE
8
0
6
CONTINUOUS
10
-73.224672
20
597.963350
30
0.0
11
-71.610721
21
597.679879
31
0.0
0
LINE
8
0
6
CONTINUOUS
10
-56.453120
20
595.017987
30
0.0
11
-56.181689
21
596.551128
31
0.0
0
LINE
8
0
6
CONTINUOUS
10
-58.067090
20
595.301368
30
0.0
11
-56.453120
21
595.017987
31
0.0
0
LINE
8
0
6
CONTINUOUS
10
-59.409600
20
597.118039
30
0.0
11
-59.681041
21
595.584839
31
0.0
0
LINE
8
0
6
CONTINUOUS
10
-58.067090
20
595.301368
30
0.0
11
-57.795656
21
596.834572
31
0.0
0
LINE
8
0
6
CONTINUOUS
10
-59.681041
20
595.584839
30
0.0
11
-58.067090
21
595.301368
31
0.0
0
LINE
8
0
6
CONTINUOUS
10
-44.374572
20
592.896729
30
0.0
11
-44.103141
21
594.429907
31
0.0
0
LINE
8
0
6
CONTINUOUS
10
-45.988543
20
593.180190
30
0.0
11
-44.374572
21
592.896729
31
0.0
0
LINE
8
0
6
CONTINUOUS
10
-47.331064
20
594.996844
30
0.0
11
-47.602513
21
593.463651
31
0.0
0
LINE
8
0
6
CONTINUOUS
10
-45.988543
20
593.180190
30
0.0
11
-45.717116
21
594.713351
31
0.0
0
LINE
8
0
6
CONTINUOUS
10
-47.602513
20
593.463651
30
0.0
11
-45.988543
21
593.180190
31
0.0
0
LINE
8
0
6
CONTINUOUS
10
127.529180
20
229.374578
30
0.0
11
126.920320
21
228.652907
31
0.0
0
LINE
8
0
6
CONTINUOUS
10
123.487133
20
224.399245
30
0.0
11
123.692459
21
223.273840
31
0.0
0
LINE
8
0
6
CONTINUOUS
10
123.662746
20
225.474830
30
0.0
11
123.487133
21
224.399245
31
0.0
0
LINE
8
0
6
CONTINUOUS
10
127.630465
20
230.397537
30
0.0
11
127.520937
21
229.341459
31
0.0
0
LINE
8
0
6
CONTINUOUS
10
128.184697
20
229.911051
30
0.0
11
128.123147
21
228.998631
31
0.0
0
LINE
8
0
6
CONTINUOUS
10
127.412673
20
228.128073
30
0.0
11
128.123147
21
228.998631
31
0.0
0
LINE
8
0
6
CONTINUOUS
10
130.999191
20
209.427581
30
0.0
11
130.006304
21
208.872884
31
0.0
0
LINE
8
0
6
CONTINUOUS
10
127.873516
20
208.618976
30
0.0
11
128.939790
21
208.050426
31
0.0
0
LINE
8
0
6
CONTINUOUS
10
134.063694
20
213.046754
30
0.0
11
132.738764
21
211.080255
31
0.0
0
LINE
8
0
6
CONTINUOUS
10
124.269389
20
226.424840
30
0.0
11
123.662746
21
225.474830
31
0.0
0
LINE
8
0
6
CONTINUOUS
10
125.106107
20
227.227462
30
0.0
11
124.269389
21
226.424840
31
0.0
0
LINE
8
0
6
CONTINUOUS
10
127.088432
20
210.170745
30
0.0
11
127.196135
21
209.755197
31
0.0
0
LINE
8
0
6
CONTINUOUS
10
135.421375
20
217.585805
30
0.0
11
135.285865
21
219.967312
31
0.0
0
LINE
8
0
6
CONTINUOUS
10
127.196135
20
209.755197
30
0.0
11
127.873516
21
208.618976
31
0.0
0
LINE
8
0
6
CONTINUOUS
10
126.919809
20
228.653016
30
0.0
11
125.106107
21
227.227462
31
0.0
0
LINE
8
0
6
CONTINUOUS
10
127.412673
20
228.128073
30
0.0
11
125.602250
21
226.654507
31
0.0
0
LINE
8
0
6
CONTINUOUS
10
130.999191
20
209.427581
30
0.0
11
132.738764
21
211.080255
31
0.0
0
LINE
8
0
6
CONTINUOUS
10
134.063694
20
213.046754
30
0.0
11
135.053813
21
215.256663
31
0.0
0
LINE
8
0
6
CONTINUOUS
10
129.516218
20
210.043093
30
0.0
11
129.857496
21
210.208789
31
0.0
0
LINE
8
0
6
CONTINUOUS
10
135.421375
20
217.585805
30
0.0
11
135.053813
21
215.256663
31
0.0
0
LINE
8
0
6
CONTINUOUS
10
135.368236
20
220.803003
30
0.0
11
135.285865
21
219.967312
31
0.0
0
LINE
8
0
6
CONTINUOUS
10
126.578531
20
212.138163
30
0.0
11
127.088432
21
210.170745
31
0.0
0
LINE
8
0
6
CONTINUOUS
10
123.692459
20
223.273840
30
0.0
11
126.578531
21
212.138163
31
0.0
0
LINE
8
0
6
CONTINUOUS
10
98.696248
20
263.989264
30
0.0
11
102.409903
21
259.402442
31
0.0
0
LINE
8
0
6
CONTINUOUS
10
118.245688
20
239.851796
30
0.0
11
120.007635
21
237.678533
31
0.0
0
LINE
8
0
6
CONTINUOUS
10
119.468903
20
239.105797
30
0.0
11
118.872859
21
239.840990
31
0.0
0
LINE
8
0
6
CONTINUOUS
10
86.588157
20
278.950151
30
0.0
11
88.953266
21
276.026671
31
0.0
0
LINE
8
0
6
CONTINUOUS
10
89.113125
20
276.592954
30
0.0
11
88.335442
21
277.554233
31
0.0
0
LINE
8
0
6
CONTINUOUS
10
115.875785
20
242.776275
30
0.0
11
118.245688
21
239.851796
31
0.0
0
LINE
8
0
6
CONTINUOUS
10
118.872859
20
239.840990
30
0.0
11
116.465150
21
242.812101
31
0.0
0
LINE
8
0
6
CONTINUOUS
10
106.124150
20
254.815500
30
0.0
11
109.696278
21
250.404692
31
0.0
0
LINE
8
0
6
CONTINUOUS
10
102.409903
20
259.402442
30
0.0
11
106.124150
21
254.815500
31
0.0
0
LINE
8
0
6
CONTINUOUS
10
91.836119
20
272.464228
30
0.0
11
95.125915
21
268.399693
31
0.0
0
LINE
8
0
6
CONTINUOUS
10
120.007635
20
237.678533
30
0.0
11
121.093914
21
236.339971
31
0.0
0
LINE
8
0
6
CONTINUOUS
10
88.953266
20
276.026671
30
0.0
11
91.836119
21
272.464228
31
0.0
0
LINE
8
0
6
CONTINUOUS
10
83.751313
20
282.459599
30
0.0
11
84.831666
21
281.122276
31
0.0
0
LINE
8
0
6
CONTINUOUS
10
109.696278
20
250.404692
30
0.0
11
112.989001
21
246.339547
31
0.0
0
LINE
8
0
6
CONTINUOUS
10
83.388605
20
282.910724
30
0.0
11
83.751313
21
282.459599
31
0.0
0
LINE
8
0
6
CONTINUOUS
10
83.427246
20
283.278177
30
0.0
11
83.388605
21
282.910724
31
0.0
0
LINE
8
0
6
CONTINUOUS
10
95.125915
20
268.399693
30
0.0
11
98.696248
21
263.989264
31
0.0
0
LINE
8
0
6
CONTINUOUS
10
121.462800
20
235.887548
30
0.0
11
122.048354
21
235.823642
31
0.0
0
LINE
8
0
6
CONTINUOUS
10
121.093914
20
236.339971
30
0.0
11
121.462800
21
235.887548
31
0.0
0
LINE
8
0
6
CONTINUOUS
10
84.831666
20
281.122276
30
0.0
11
86.588157
21
278.950151
31
0.0
0
LINE
8
0
6
CONTINUOUS
10
112.989001
20
246.339547
30
0.0
11
115.875785
21
242.776275
31
0.0
0
LINE
8
0
6
CONTINUOUS
10
99.846166
20
260.609795
30
0.0
11
101.453157
21
258.624949
31
0.0
0
LINE
8
0
6
CONTINUOUS
10
101.615232
20
258.755239
30
0.0
11
99.982609
21
260.771736
31
0.0
0
LINE
8
0
6
CONTINUOUS
10
108.305714
20
250.164887
30
0.0
11
109.068144
21
249.224465
31
0.0
0
LINE
8
0
6
CONTINUOUS
10
103.060419
20
256.640073
30
0.0
11
104.606168
21
254.731394
31
0.0
0
LINE
8
0
6
CONTINUOUS
10
104.818535
20
254.799570
30
0.0
11
103.248126
21
256.738672
31
0.0
0
LINE
8
0
6
CONTINUOUS
10
101.453157
20
258.624949
30
0.0
11
103.060419
21
256.640073
31
0.0
0
LINE
8
0
6
CONTINUOUS
10
103.248126
20
256.738672
30
0.0
11
101.615232
21
258.755239
31
0.0
0
LINE
8
0
6
CONTINUOUS
10
96.877622
20
264.277109
30
0.0
11
98.301199
21
262.518285
31
0.0
0
LINE
8
0
6
CONTINUOUS
10
98.412992
20
262.710688
30
0.0
11
96.966682
21
264.497578
31
0.0
0
LINE
8
0
6
CONTINUOUS
10
109.068144
20
249.224465
30
0.0
11
109.538214
21
248.645228
31
0.0
0
LINE
8
0
6
CONTINUOUS
10
93.379121
20
268.602383
30
0.0
11
93.846613
21
268.023686
31
0.0
0
LINE
8
0
6
CONTINUOUS
10
104.606168
20
254.731394
30
0.0
11
106.031008
21
252.972300
31
0.0
0
LINE
8
0
6
CONTINUOUS
10
106.266108
20
253.012410
30
0.0
11
104.818535
21
254.799570
31
0.0
0
LINE
8
0
6
CONTINUOUS
10
98.301199
20
262.518285
30
0.0
11
99.846166
21
260.609795
31
0.0
0
LINE
8
0
6
CONTINUOUS
10
99.982609
20
260.771736
30
0.0
11
98.412992
21
262.710688
31
0.0
0
LINE
8
0
6
CONTINUOUS
10
93.846613
20
268.023686
30
0.0
11
94.606687
21
267.083753
31
0.0
0
LINE
8
0
6
CONTINUOUS
10
99.622678
20
258.758515
30
0.0
11
100.413158
21
257.781877
31
0.0
0
LINE
8
0
6
CONTINUOUS
10
100.413158
20
257.781877
30
0.0
11
101.203576
21
256.806059
31
0.0
0
LINE
8
0
6
CONTINUOUS
10
105.543159
20
251.642457
30
0.0
11
106.333638
21
250.665810
31
0.0
0
LINE
8
0
6
CONTINUOUS
10
106.333638
20
250.665810
30
0.0
11
107.124067
21
249.689992
31
0.0
0
LINE
8
0
6
CONTINUOUS
10
107.133853
20
251.308516
30
0.0
11
106.333638
21
250.665810
31
0.0
0
LINE
8
0
6
CONTINUOUS
10
107.124067
20
249.689992
30
0.0
11
107.944372
21
250.348838
31
0.0
0
LINE
8
0
6
CONTINUOUS
10
105.543159
20
251.642457
30
0.0
11
106.322895
21
252.268715
31
0.0
0
LINE
8
0
6
CONTINUOUS
10
103.833840
20
253.750022
30
0.0
11
104.624329
21
252.773365
31
0.0
0
LINE
8
0
6
CONTINUOUS
10
104.624329
20
252.773365
30
0.0
11
105.414738
21
251.797566
31
0.0
0
LINE
8
0
6
CONTINUOUS
10
105.382429
20
253.382254
30
0.0
11
104.624329
21
252.773365
31
0.0
0
LINE
8
0
6
CONTINUOUS
10
105.414738
20
251.797566
30
0.0
11
106.192937
21
252.422589
31
0.0
0
LINE
8
0
6
CONTINUOUS
10
103.833840
20
253.750022
30
0.0
11
104.817059
21
254.539717
31
0.0
0
LINE
8
0
6
CONTINUOUS
10
99.714025
20
258.836708
30
0.0
11
100.504504
21
257.860071
31
0.0
0
LINE
8
0
6
CONTINUOUS
10
100.504504
20
257.860071
30
0.0
11
101.294933
21
256.884253
31
0.0
0
LINE
8
0
6
CONTINUOUS
10
101.164139
20
258.389862
30
0.0
11
100.504504
21
257.860071
31
0.0
0
LINE
8
0
6
CONTINUOUS
10
101.294933
20
256.884253
30
0.0
11
101.968097
21
257.424923
31
0.0
0
LINE
8
0
6
CONTINUOUS
10
99.714025
20
258.836708
30
0.0
11
100.392192
21
259.381389
31
0.0
0
LINE
8
0
6
CONTINUOUS
10
95.597027
20
263.922835
30
0.0
11
96.387496
21
262.946188
31
0.0
0
LINE
8
0
6
CONTINUOUS
10
96.387496
20
262.946188
30
0.0
11
97.177915
21
261.970370
31
0.0
0
LINE
8
0
6
CONTINUOUS
10
97.143874
20
263.553685
30
0.0
11
96.387496
21
262.946188
31
0.0
0
LINE
8
0
6
CONTINUOUS
10
97.177915
20
261.970370
30
0.0
11
98.165369
21
262.763473
31
0.0
0
LINE
8
0
6
CONTINUOUS
10
95.597027
20
263.922835
30
0.0
11
96.371924
21
264.545216
31
0.0
0
LINE
8
0
6
CONTINUOUS
10
93.894548
20
266.028972
30
0.0
11
94.685027
21
265.052335
31
0.0
0
LINE
8
0
6
CONTINUOUS
10
94.685027
20
265.052335
30
0.0
11
95.475446
21
264.076516
31
0.0
0
LINE
8
0
6
CONTINUOUS
10
95.480003
20
265.690841
30
0.0
11
94.685027
21
265.052335
31
0.0
0
LINE
8
0
6
CONTINUOUS
10
95.475446
20
264.076516
30
0.0
11
96.251535
21
264.699849
31
0.0
0
LINE
8
0
6
CONTINUOUS
10
93.894548
20
266.028972
30
0.0
11
94.708061
21
266.682362
31
0.0
0
LINE
8
0
6
CONTINUOUS
10
111.442039
20
245.216840
30
0.0
11
112.232518
21
244.240183
31
0.0
0
LINE
8
0
6
CONTINUOUS
10
112.232518
20
244.240183
30
0.0
11
113.022947
21
243.264384
31
0.0
0
LINE
8
0
6
CONTINUOUS
10
113.037581
20
244.886787
30
0.0
11
112.232518
21
244.240183
31
0.0
0
LINE
8
0
6
CONTINUOUS
10
113.022947
20
243.264384
30
0.0
11
113.918697
21
243.983819
31
0.0
0
LINE
8
0
6
CONTINUOUS
10
109.923255
20
247.087776
30
0.0
11
110.713734
21
246.111129
31
0.0
0
LINE
8
0
6
CONTINUOUS
10
110.713734
20
246.111129
30
0.0
11
111.504163
21
245.135320
31
0.0
0
LINE
8
0
6
CONTINUOUS
10
111.346751
20
246.619550
30
0.0
11
110.713734
21
246.111129
31
0.0
0
LINE
8
0
6
CONTINUOUS
10
111.504163
20
245.135320
30
0.0
11
112.553956
21
245.978490
31
0.0
0
LINE
8
0
6
CONTINUOUS
10
109.923255
20
247.087776
30
0.0
11
110.825094
21
247.812103
31
0.0
0
LINE
8
0
6
CONTINUOUS
10
105.783233
20
252.197344
30
0.0
11
106.573712
21
251.220697
31
0.0
0
LINE
8
0
6
CONTINUOUS
10
106.573712
20
251.220697
30
0.0
11
107.364141
21
250.244888
31
0.0
0
LINE
8
0
6
CONTINUOUS
10
106.951651
20
251.524249
30
0.0
11
106.573712
21
251.220697
31
0.0
0
LINE
8
0
6
CONTINUOUS
10
107.364141
20
250.244888
30
0.0
11
107.762168
21
250.564572
31
0.0
0
LINE
8
0
6
CONTINUOUS
10
105.783233
20
252.197344
30
0.0
11
106.754382
21
252.977345
31
0.0
0
LINE
8
0
6
CONTINUOUS
10
100.131286
20
259.176450
30
0.0
11
100.921755
21
258.199793
31
0.0
0
LINE
8
0
6
CONTINUOUS
10
100.921755
20
258.199793
30
0.0
11
101.712184
21
257.223994
31
0.0
0
LINE
8
0
6
CONTINUOUS
10
101.161933
20
258.392696
30
0.0
11
100.921755
21
258.199793
31
0.0
0
LINE
8
0
6
CONTINUOUS
10
101.712184
20
257.223994
30
0.0
11
101.965776
21
257.427672
31
0.0
0
LINE
8
0
6
CONTINUOUS
10
100.131286
20
259.176450
30
0.0
11
100.389982
21
259.384227
31
0.0
0
LINE
8
0
6
CONTINUOUS
10
94.481847
20
266.155027
30
0.0
11
95.272326
21
265.178369
31
0.0
0
LINE
8
0
6
CONTINUOUS
10
95.272326
20
265.178369
30
0.0
11
96.062745
21
264.202571
31
0.0
0
LINE
8
0
6
CONTINUOUS
10
95.645584
20
265.478162
30
0.0
11
95.272326
21
265.178369
31
0.0
0
LINE
8
0
6
CONTINUOUS
10
96.062745
20
264.202571
30
0.0
11
97.012147
21
264.965099
31
0.0
0
LINE
8
0
6
CONTINUOUS
10
94.481847
20
266.155027
30
0.0
11
94.873630
21
266.469696
31
0.0
0
LINE
8
0
6
CONTINUOUS
10
90.348684
20
271.263177
30
0.0
11
91.139153
21
270.286539
31
0.0
0
LINE
8
0
6
CONTINUOUS
10
91.139153
20
270.286539
30
0.0
11
91.929582
21
269.310721
31
0.0
0
LINE
8
0
6
CONTINUOUS
10
91.730603
20
270.761575
30
0.0
11
91.139153
21
270.286539
31
0.0
0
LINE
8
0
6
CONTINUOUS
10
91.929582
20
269.310721
30
0.0
11
92.775497
21
269.990136
31
0.0
0
LINE
8
0
6
CONTINUOUS
10
90.348684
20
271.263177
30
0.0
11
91.313736
21
272.038284
31
0.0
0
LINE
8
0
6
CONTINUOUS
10
88.839276
20
273.132175
30
0.0
11
89.629745
21
272.155518
31
0.0
0
LINE
8
0
6
CONTINUOUS
10
89.629745
20
272.155518
30
0.0
11
90.420184
21
271.179719
31
0.0
0
LINE
8
0
6
CONTINUOUS
10
90.352965
20
272.736383
30
0.0
11
89.629745
21
272.155518
31
0.0
0
LINE
8
0
6
CONTINUOUS
10
88.839276
20
273.132175
30
0.0
11
89.632446
21
273.769227
31
0.0
0
LINE
8
0
6
CONTINUOUS
10
91.938968
20
269.308763
30
0.0
11
92.454976
21
269.723206
31
0.0
0
LINE
8
0
6
CONTINUOUS
10
113.947903
20
243.201561
30
0.0
11
114.359468
21
243.532117
31
0.0
0
LINE
8
0
6
CONTINUOUS
10
117.200233
20
239.174820
30
0.0
11
117.990713
21
238.198173
31
0.0
0
LINE
8
0
6
CONTINUOUS
10
117.990713
20
238.198173
30
0.0
11
118.781131
21
237.222354
31
0.0
0
LINE
8
0
6
CONTINUOUS
10
118.889236
20
238.919852
30
0.0
11
117.990713
21
238.198173
31
0.0
0
LINE
8
0
6
CONTINUOUS
10
118.781131
20
237.222354
30
0.0
11
119.792555
21
238.034708
31
0.0
0
LINE
8
0
6
CONTINUOUS
10
115.936345
20
240.730374
30
0.0
11
116.726824
21
239.753737
31
0.0
0
LINE
8
0
6
CONTINUOUS
10
116.726824
20
239.753737
30
0.0
11
117.517243
21
238.777919
31
0.0
0
LINE
8
0
6
CONTINUOUS
10
117.466616
20
240.347911
30
0.0
11
116.726824
21
239.753737
31
0.0
0
LINE
8
0
6
CONTINUOUS
10
117.517243
20
238.777919
30
0.0
11
118.514529
21
239.578910
31
0.0
0
LINE
8
0
6
CONTINUOUS
10
115.936345
20
240.730374
30
0.0
11
116.782144
21
241.409696
31
0.0
0
LINE
8
0
6
CONTINUOUS
10
112.347601
20
245.158052
30
0.0
11
113.138080
21
244.181405
31
0.0
0
LINE
8
0
6
CONTINUOUS
10
113.138080
20
244.181405
30
0.0
11
113.928499
21
243.205597
31
0.0
0
LINE
8
0
6
CONTINUOUS
10
114.611566
20
245.364868
30
0.0
11
113.138080
21
244.181405
31
0.0
0
LINE
8
0
6
CONTINUOUS
10
113.928499
20
243.205597
30
0.0
11
115.006368
21
244.071305
31
0.0
0
LINE
8
0
6
CONTINUOUS
10
112.347601
20
245.158052
30
0.0
11
113.255130
21
245.886954
31
0.0
0
LINE
8
0
6
CONTINUOUS
10
106.980353
20
251.783763
30
0.0
11
107.770833
21
250.807116
31
0.0
0
LINE
8
0
6
CONTINUOUS
10
107.770833
20
250.807116
30
0.0
11
108.561251
21
249.831308
31
0.0
0
LINE
8
0
6
CONTINUOUS
10
108.739983
20
251.585510
30
0.0
11
107.770833
21
250.807116
31
0.0
0
LINE
8
0
6
CONTINUOUS
10
108.561251
20
249.831308
30
0.0
11
109.440127
21
250.537196
31
0.0
0
LINE
8
0
6
CONTINUOUS
10
106.980353
20
251.783763
30
0.0
11
107.824654
21
252.461882
31
0.0
0
LINE
8
0
6
CONTINUOUS
10
100.651707
20
259.598830
30
0.0
11
101.442186
21
258.622173
31
0.0
0
LINE
8
0
6
CONTINUOUS
10
101.442186
20
258.622173
30
0.0
11
102.232615
21
257.646374
31
0.0
0
LINE
8
0
6
CONTINUOUS
10
102.411388
20
259.400608
30
0.0
11
101.442186
21
258.622173
31
0.0
0
LINE
8
0
6
CONTINUOUS
10
102.232615
20
257.646374
30
0.0
11
103.152404
21
258.385128
31
0.0
0
LINE
8
0
6
CONTINUOUS
10
100.651707
20
259.598830
30
0.0
11
101.567927
21
260.334707
31
0.0
0
LINE
8
0
6
CONTINUOUS
10
94.325147
20
267.413457
30
0.0
11
95.115636
21
266.436800
31
0.0
0
LINE
8
0
6
CONTINUOUS
10
95.115636
20
266.436800
30
0.0
11
95.906045
21
265.461001
31
0.0
0
LINE
8
0
6
CONTINUOUS
10
96.084780
20
267.215207
30
0.0
11
95.115636
21
266.436800
31
0.0
0
LINE
8
0
6
CONTINUOUS
10
95.906045
20
265.461001
30
0.0
11
96.753303
21
266.141491
31
0.0
0
LINE
8
0
6
CONTINUOUS
10
94.325147
20
267.413457
30
0.0
11
95.205766
21
268.120746
31
0.0
0
LINE
8
0
6
CONTINUOUS
10
88.963846
20
274.037950
30
0.0
11
89.754325
21
273.061292
31
0.0
0
LINE
8
0
6
CONTINUOUS
10
89.754325
20
273.061292
30
0.0
11
90.544744
21
272.085474
31
0.0
0
LINE
8
0
6
CONTINUOUS
10
91.227802
20
274.244755
30
0.0
11
89.754325
21
273.061292
31
0.0
0
LINE
8
0
6
CONTINUOUS
10
90.544744
20
272.085474
30
0.0
11
91.522527
21
272.870801
31
0.0
0
LINE
8
0
6
CONTINUOUS
10
88.963846
20
274.037950
30
0.0
11
90.092045
21
274.944087
31
0.0
0
LINE
8
0
6
CONTINUOUS
10
85.384017
20
278.463770
30
0.0
11
86.174486
21
277.487112
31
0.0
0
LINE
8
0
6
CONTINUOUS
10
86.174486
20
277.487112
30
0.0
11
86.964915
21
276.511294
31
0.0
0
LINE
8
0
6
CONTINUOUS
10
86.728443
20
277.932036
30
0.0
11
86.174486
21
277.487112
31
0.0
0
LINE
8
0
6
CONTINUOUS
10
86.964915
20
276.511294
30
0.0
11
87.737600
21
277.131912
31
0.0
0
LINE
8
0
6
CONTINUOUS
10
85.384017
20
278.463770
30
0.0
11
86.314553
21
279.211155
31
0.0
0
LINE
8
0
6
CONTINUOUS
10
84.130628
20
280.017127
30
0.0
11
84.921107
21
279.040490
31
0.0
0
LINE
8
0
6
CONTINUOUS
10
84.921107
20
279.040490
30
0.0
11
85.711526
21
278.064671
31
0.0
0
LINE
8
0
6
CONTINUOUS
10
85.637505
20
279.615881
30
0.0
11
84.921107
21
279.040490
31
0.0
0
LINE
8
0
6
CONTINUOUS
10
84.130628
20
280.017127
30
0.0
11
84.982446
21
280.701283
31
0.0
0
LINE
8
0
6
CONTINUOUS
10
86.975424
20
276.509097
30
0.0
11
87.453326
21
276.892936
31
0.0
0
LINE
8
0
6
CONTINUOUS
10
124.282786
20
232.470356
30
0.0
11
125.073215
21
231.494537
31
0.0
0
LINE
8
0
6
CONTINUOUS
10
124.935858
20
232.994881
30
0.0
11
124.282786
21
232.470356
31
0.0
0
LINE
8
0
6
CONTINUOUS
10
125.073215
20
231.494537
30
0.0
11
125.839177
21
232.109736
31
0.0
0
LINE
8
0
6
CONTINUOUS
10
122.418563
20
234.767377
30
0.0
11
123.209042
21
233.790730
31
0.0
0
LINE
8
0
6
CONTINUOUS
10
123.209042
20
233.790730
30
0.0
11
123.999461
21
232.814922
31
0.0
0
LINE
8
0
6
CONTINUOUS
10
123.711674
20
234.194436
30
0.0
11
123.209042
21
233.790730
31
0.0
0
LINE
8
0
6
CONTINUOUS
10
123.999461
20
232.814922
30
0.0
11
124.814786
21
233.469773
31
0.0
0
LINE
8
0
6
CONTINUOUS
10
122.418563
20
234.767377
30
0.0
11
122.995395
21
235.230683
31
0.0
0
LINE
8
0
6
CONTINUOUS
10
119.313576
20
238.596982
30
0.0
11
120.104045
21
237.620334
31
0.0
0
LINE
8
0
6
CONTINUOUS
10
120.104045
20
237.620334
30
0.0
11
120.894464
21
236.644516
31
0.0
0
LINE
8
0
6
CONTINUOUS
10
121.577532
20
238.803797
30
0.0
11
120.104045
21
237.620334
31
0.0
0
LINE
8
0
6
CONTINUOUS
10
120.894464
20
236.644516
30
0.0
11
121.771691
21
237.349081
31
0.0
0
LINE
8
0
6
CONTINUOUS
10
119.313576
20
238.596982
30
0.0
11
120.028651
21
239.171313
31
0.0
0
LINE
8
0
6
CONTINUOUS
10
114.481311
20
244.560908
30
0.0
11
115.271780
21
243.584260
31
0.0
0
LINE
8
0
6
CONTINUOUS
10
115.271780
20
243.584260
30
0.0
11
116.062209
21
242.608442
31
0.0
0
LINE
8
0
6
CONTINUOUS
10
116.745276
20
244.767723
30
0.0
11
115.271780
21
243.584260
31
0.0
0
LINE
8
0
6
CONTINUOUS
10
116.062209
20
242.608442
30
0.0
11
116.922631
21
243.299509
31
0.0
0
LINE
8
0
6
CONTINUOUS
10
114.481311
20
244.560908
30
0.0
11
115.254853
21
245.182190
31
0.0
0
LINE
8
0
6
CONTINUOUS
10
108.394774
20
252.075384
30
0.0
11
109.185253
21
251.098737
31
0.0
0
LINE
8
0
6
CONTINUOUS
10
109.185253
20
251.098737
30
0.0
11
109.975672
21
250.122919
31
0.0
0
LINE
8
0
6
CONTINUOUS
10
109.528975
20
251.374804
30
0.0
11
109.185253
21
251.098737
31
0.0
0
LINE
8
0
6
CONTINUOUS
10
109.975672
20
250.122919
30
0.0
11
110.764831
21
250.756748
31
0.0
0
LINE
8
0
6
CONTINUOUS
10
108.394774
20
252.075384
30
0.0
11
109.090437
21
252.634118
31
0.0
0
LINE
8
0
6
CONTINUOUS
10
101.649769
20
260.404837
30
0.0
11
102.440238
21
259.428180
31
0.0
0
LINE
8
0
6
CONTINUOUS
10
102.440238
20
259.428180
30
0.0
11
103.230657
21
258.452382
31
0.0
0
LINE
8
0
6
CONTINUOUS
10
102.783889
20
259.704195
30
0.0
11
102.440238
21
259.428180
31
0.0
0
LINE
8
0
6
CONTINUOUS
10
103.230657
20
258.452382
30
0.0
11
103.977151
21
259.051944
31
0.0
0
LINE
8
0
6
CONTINUOUS
10
101.649769
20
260.404837
30
0.0
11
102.393514
21
261.002197
31
0.0
0
LINE
8
0
6
CONTINUOUS
10
94.906509
20
268.733941
30
0.0
11
95.696988
21
267.757284
31
0.0
0
LINE
8
0
6
CONTINUOUS
10
95.696988
20
267.757284
30
0.0
11
96.487407
21
266.781465
31
0.0
0
LINE
8
0
6
CONTINUOUS
10
96.040714
20
268.033355
30
0.0
11
95.696988
21
267.757284
31
0.0
0
LINE
8
0
6
CONTINUOUS
10
96.487407
20
266.781465
30
0.0
11
97.182528
21
267.339773
31
0.0
0
LINE
8
0
6
CONTINUOUS
10
94.906509
20
268.733941
30
0.0
11
95.680048
21
269.355226
31
0.0
0
LINE
8
0
6
CONTINUOUS
10
88.825107
20
276.247349
30
0.0
11
89.615586
21
275.270712
31
0.0
0
LINE
8
0
6
CONTINUOUS
10
89.615586
20
275.270712
30
0.0
11
90.406005
21
274.294893
31
0.0
0
LINE
8
0
6
CONTINUOUS
10
91.089072
20
276.454174
30
0.0
11
89.615586
21
275.270712
31
0.0
0
LINE
8
0
6
CONTINUOUS
10
90.406005
20
274.294893
30
0.0
11
91.092480
21
274.846247
31
0.0
0
LINE
8
0
6
CONTINUOUS
10
88.825107
20
276.247349
30
0.0
11
89.678102
21
276.932451
31
0.0
0
LINE
8
0
6
CONTINUOUS
10
84.000854
20
282.209627
30
0.0
11
84.791323
21
281.232990
31
0.0
0
LINE
8
0
6
CONTINUOUS
10
84.791323
20
281.232990
30
0.0
11
85.581752
21
280.257171
31
0.0
0
LINE
8
0
6
CONTINUOUS
10
86.264819
20
282.416453
30
0.0
11
84.791323
21
281.232990
31
0.0
0
LINE
8
0
6
CONTINUOUS
10
85.581752
20
280.257171
30
0.0
11
86.242165
21
280.787597
31
0.0
0
LINE
8
0
6
CONTINUOUS
10
84.000854
20
282.209627
30
0.0
11
84.842310
21
282.885461
31
0.0
0
LINE
8
0
6
CONTINUOUS
10
80.905965
20
286.037124
30
0.0
11
81.696445
21
285.060487
31
0.0
0
LINE
8
0
6
CONTINUOUS
10
81.696445
20
285.060487
30
0.0
11
82.486863
21
284.084668
31
0.0
0
LINE
8
0
6
CONTINUOUS
10
82.137699
20
285.414892
30
0.0
11
81.696445
21
285.060487
31
0.0
0
LINE
8
0
6
CONTINUOUS
10
82.486863
20
284.084668
30
0.0
11
83.027841
21
284.519166
31
0.0
0
LINE
8
0
6
CONTINUOUS
10
80.905965
20
286.037124
30
0.0
11
81.689972
21
286.666811
31
0.0
0
LINE
8
0
6
CONTINUOUS
10
79.843392
20
287.355191
30
0.0
11
80.633872
21
286.378534
31
0.0
0
LINE
8
0
6
CONTINUOUS
10
81.255031
20
286.877432
30
0.0
11
80.633872
21
286.378534
31
0.0
0
LINE
8
0
6
CONTINUOUS
10
79.843392
20
287.355191
30
0.0
11
80.599965
21
287.962845
31
0.0
0
LINE
8
0
6
CONTINUOUS
10
82.498055
20
284.082341
30
0.0
11
82.797007
21
284.322451
31
0.0
0
LINE
8
0
6
CONTINUOUS
10
128.733902
20
228.622784
30
0.0
11
129.524391
21
227.646136
31
0.0
0
LINE
8
0
6
CONTINUOUS
10
129.524391
20
227.646136
30
0.0
11
130.314800
21
226.670328
31
0.0
0
LINE
8
0
6
CONTINUOUS
10
130.434930
20
228.377462
30
0.0
11
129.524391
21
227.646136
31
0.0
0
LINE
8
0
6
CONTINUOUS
10
130.314800
20
226.670328
30
0.0
11
131.168311
21
227.355839
31
0.0
0
LINE
8
0
6
CONTINUOUS
10
128.733902
20
228.622784
30
0.0
11
129.340750
21
229.110184
31
0.0
0
LINE
8
0
6
CONTINUOUS
10
126.012572
20
231.978162
30
0.0
11
126.803051
21
231.001515
31
0.0
0
LINE
8
0
6
CONTINUOUS
10
126.803051
20
231.001515
30
0.0
11
127.593470
21
230.025696
31
0.0
0
LINE
8
0
6
CONTINUOUS
10
128.276548
20
232.184977
30
0.0
11
126.803051
21
231.001515
31
0.0
0
LINE
8
0
6
CONTINUOUS
10
127.593470
20
230.025696
30
0.0
11
128.474680
21
230.733454
31
0.0
0
LINE
8
0
6
CONTINUOUS
10
126.012572
20
231.978162
30
0.0
11
126.659001
21
232.497360
31
0.0
0
LINE
8
0
6
CONTINUOUS
10
121.687531
20
237.314960
30
0.0
11
122.478010
21
236.338313
31
0.0
0
LINE
8
0
6
CONTINUOUS
10
122.478010
20
236.338313
30
0.0
11
123.268429
21
235.362504
31
0.0
0
LINE
8
0
6
CONTINUOUS
10
123.951496
20
237.521786
30
0.0
11
122.478010
21
236.338313
31
0.0
0
LINE
8
0
6
CONTINUOUS
10
123.268429
20
235.362504
30
0.0
11
124.131788
21
236.055930
31
0.0
0
LINE
8
0
6
CONTINUOUS
10
121.687531
20
237.314960
30
0.0
11
122.383182
21
237.873688
31
0.0
0
LINE
8
0
6
CONTINUOUS
10
116.053524
20
244.269506
30
0.0
11
116.844003
21
243.292849
31
0.0
0
LINE
8
0
6
CONTINUOUS
10
116.844003
20
243.292849
30
0.0
11
117.634422
21
242.317051
31
0.0
0
LINE
8
0
6
CONTINUOUS
10
118.317490
20
244.476322
30
0.0
11
116.844003
21
243.292849
31
0.0
0
LINE
8
0
6
CONTINUOUS
10
117.634422
20
242.317051
30
0.0
11
118.504941
21
243.016227
31
0.0
0
LINE
8
0
6
CONTINUOUS
10
116.053524
20
244.269506
30
0.0
11
116.749368
21
244.828388
31
0.0
0
LINE
8
0
6
CONTINUOUS
10
109.494511
20
252.367834
30
0.0
11
110.284990
21
251.391187
31
0.0
0
LINE
8
0
6
CONTINUOUS
10
110.284990
20
251.391187
30
0.0
11
111.075409
21
250.415368
31
0.0
0
LINE
8
0
6
CONTINUOUS
10
111.758487
20
252.574650
30
0.0
11
110.284990
21
251.391187
31
0.0
0
LINE
8
0
6
CONTINUOUS
10
111.075409
20
250.415368
30
0.0
11
111.898214
21
251.076223
31
0.0
0
LINE
8
0
6
CONTINUOUS
10
109.494511
20
252.367834
30
0.0
11
110.224222
21
252.953914
31
0.0
0
LINE
8
0
6
CONTINUOUS
10
102.457476
20
261.058073
30
0.0
11
103.247956
21
260.081426
31
0.0
0
LINE
8
0
6
CONTINUOUS
10
103.247956
20
260.081426
30
0.0
11
104.038374
21
259.105617
31
0.0
0
LINE
8
0
6
CONTINUOUS
10
104.721442
20
261.264888
30
0.0
11
103.247956
21
260.081426
31
0.0
0
LINE
8
0
6
CONTINUOUS
10
104.038374
20
259.105617
30
0.0
11
104.810824
21
259.726033
31
0.0
0
LINE
8
0
6
CONTINUOUS
10
102.457476
20
261.058073
30
0.0
11
103.224829
21
261.674390
31
0.0
0
LINE
8
0
6
CONTINUOUS
10
95.421966
20
269.747992
30
0.0
11
96.212445
21
268.771355
31
0.0
0
LINE
8
0
6
CONTINUOUS
10
96.212445
20
268.771355
30
0.0
11
97.002864
21
267.795537
31
0.0
0
LINE
8
0
6
CONTINUOUS
10
97.685931
20
269.954818
30
0.0
11
96.212445
21
268.771355
31
0.0
0
LINE
8
0
6
CONTINUOUS
10
97.002864
20
267.795537
30
0.0
11
97.736341
21
268.384640
31
0.0
0
LINE
8
0
6
CONTINUOUS
10
95.421966
20
269.747992
30
0.0
11
96.228057
21
270.395418
31
0.0
0
LINE
8
0
6
CONTINUOUS
10
88.867456
20
277.845401
30
0.0
11
89.657935
21
276.868764
31
0.0
0
LINE
8
0
6
CONTINUOUS
10
89.657935
20
276.868764
30
0.0
11
90.448344
21
275.892966
31
0.0
0
LINE
8
0
6
CONTINUOUS
10
91.131421
20
278.052227
30
0.0
11
89.657935
21
276.868764
31
0.0
0
LINE
8
0
6
CONTINUOUS
10
90.448344
20
275.892966
30
0.0
11
91.141557
21
276.449731
31
0.0
0
LINE
8
0
6
CONTINUOUS
10
88.867456
20
277.845401
30
0.0
11
89.680921
21
278.498769
31
0.0
0
LINE
8
0
6
CONTINUOUS
10
83.240609
20
284.798469
30
0.0
11
84.031089
21
283.821832
31
0.0
0
LINE
8
0
6
CONTINUOUS
10
84.031089
20
283.821832
30
0.0
11
84.821507
21
282.846014
31
0.0
0
LINE
8
0
6
CONTINUOUS
10
85.504585
20
285.005295
30
0.0
11
84.031089
21
283.821832
31
0.0
0
LINE
8
0
6
CONTINUOUS
10
84.821507
20
282.846014
30
0.0
11
85.480197
21
283.375051
31
0.0
0
LINE
8
0
6
CONTINUOUS
10
83.240609
20
284.798469
30
0.0
11
84.085365
21
285.476949
31
0.0
0
LINE
8
0
6
CONTINUOUS
10
78.924904
20
290.133340
30
0.0
11
79.715393
21
289.156703
31
0.0
0
LINE
8
0
6
CONTINUOUS
10
79.715393
20
289.156703
30
0.0
11
80.505802
21
288.180884
31
0.0
0
LINE
8
0
6
CONTINUOUS
10
79.825889
20
289.245452
30
0.0
11
79.715393
21
289.156703
31
0.0
0
LINE
8
0
6
CONTINUOUS
10
80.505802
20
288.180884
30
0.0
11
81.111740
21
288.667553
31
0.0
0
LINE
8
0
6
CONTINUOUS
10
78.924904
20
290.133340
30
0.0
11
79.757923
21
290.802393
31
0.0
0
LINE
8
0
6
CONTINUOUS
10
76.214465
20
293.486441
30
0.0
11
77.004934
21
292.509794
31
0.0
0
LINE
8
0
6
CONTINUOUS
10
77.004934
20
292.509794
30
0.0
11
77.795353
21
291.534005
31
0.0
0
LINE
8
0
6
CONTINUOUS
10
77.544429
20
292.943108
30
0.0
11
77.004934
21
292.509794
31
0.0
0
LINE
8
0
6
CONTINUOUS
10
77.795353
20
291.534005
30
0.0
11
78.383100
21
292.006067
31
0.0
0
LINE
8
0
6
CONTINUOUS
10
76.214465
20
293.486441
30
0.0
11
77.047313
21
294.155366
31
0.0
0
LINE
8
0
6
CONTINUOUS
10
75.293961
20
294.629294
30
0.0
11
76.084430
21
293.652656
31
0.0
0
LINE
8
0
6
CONTINUOUS
10
76.767429
20
294.201218
30
0.0
11
76.084430
21
293.652656
31
0.0
0
LINE
8
0
6
CONTINUOUS
10
75.293961
20
294.629294
30
0.0
11
76.102154
21
295.278423
31
0.0
0
LINE
8
0
6
CONTINUOUS
10
77.807056
20
291.531548
30
0.0
11
78.214225
21
291.858583
31
0.0
0
LINE
8
0
6
CONTINUOUS
10
140.268051
20
223.848143
30
0.0
11
139.764380
21
225.235040
31
0.0
0
LINE
8
0
6
CONTINUOUS
10
140.855280
20
221.129651
30
0.0
11
140.268051
21
223.848143
31
0.0
0
LINE
8
0
6
CONTINUOUS
10
140.857917
20
216.281660
30
0.0
11
140.981334
21
218.625265
31
0.0
0
LINE
8
0
6
CONTINUOUS
10
138.003153
20
207.163598
30
0.0
11
138.044439
21
207.235700
31
0.0
0
LINE
8
0
6
CONTINUOUS
10
139.574795
20
210.674735
30
0.0
11
140.606491
21
214.035127
31
0.0
0
LINE
8
0
6
CONTINUOUS
10
140.606742
20
214.035087
30
0.0
11
140.857917
21
216.281660
31
0.0
0
LINE
8
0
6
CONTINUOUS
10
138.044439
20
207.235700
30
0.0
11
139.574795
21
210.674735
31
0.0
0
LINE
8
0
6
CONTINUOUS
10
133.650163
20
200.949620
30
0.0
11
134.295334
21
201.922352
31
0.0
0
LINE
8
0
6
CONTINUOUS
10
132.316539
20
205.991352
30
0.0
11
132.369097
21
205.714043
31
0.0
0
LINE
8
0
6
CONTINUOUS
10
133.689313
20
225.351592
30
0.0
11
133.891972
21
225.031616
31
0.0
0
LINE
8
0
6
CONTINUOUS
10
133.948480
20
225.551306
30
0.0
11
133.689313
21
225.351592
31
0.0
0
LINE
8
0
6
CONTINUOUS
10
132.757236
20
203.666315
30
0.0
11
133.347563
21
201.379531
31
0.0
0
LINE
8
0
6
CONTINUOUS
10
137.977481
20
228.783096
30
0.0
11
135.862133
21
227.025920
31
0.0
0
LINE
8
0
6
CONTINUOUS
10
135.389205
20
221.063832
30
0.0
11
135.648593
21
219.419347
31
0.0
0
LINE
8
0
6
CONTINUOUS
10
134.959940
20
222.723079
30
0.0
11
135.389205
21
221.063832
31
0.0
0
LINE
8
0
6
CONTINUOUS
10
132.505259
20
207.321844
30
0.0
11
132.342783
21
206.176454
31
0.0
0
LINE
8
0
6
CONTINUOUS
10
135.648593
20
219.419347
30
0.0
11
135.768199
21
217.823762
31
0.0
0
LINE
8
0
6
CONTINUOUS
10
135.746017
20
216.303134
30
0.0
11
135.619983
21
214.848905
31
0.0
0
LINE
8
0
6
CONTINUOUS
10
132.787531
20
207.896686
30
0.0
11
132.505259
21
207.321844
31
0.0
0
LINE
8
0
6
CONTINUOUS
10
140.249680
20
223.851948
30
0.0
11
139.258417
21
226.578171
31
0.0
0
LINE
8
0
6
CONTINUOUS
10
133.347563
20
201.379531
30
0.0
11
133.508114
21
200.757567
31
0.0
0
LINE
8
0
6
CONTINUOUS
10
140.963855
20
218.628880
30
0.0
11
140.837510
21
221.133336
31
0.0
0
LINE
8
0
6
CONTINUOUS
10
140.837510
20
221.133336
30
0.0
11
140.249680
21
223.851948
31
0.0
0
LINE
8
0
6
CONTINUOUS
10
134.179810
20
201.775244
30
0.0
11
136.080024
21
204.312240
31
0.0
0
LINE
8
0
6
CONTINUOUS
10
136.080024
20
204.312240
30
0.0
11
137.989013
21
207.166525
31
0.0
0
LINE
8
0
6
CONTINUOUS
10
138.315089
20
229.063551
30
0.0
11
137.977481
21
228.783096
31
0.0
0
LINE
8
0
6
CONTINUOUS
10
138.492226
20
228.596856
30
0.0
11
138.315089
21
229.063551
31
0.0
0
LINE
8
0
6
CONTINUOUS
10
140.963855
20
218.628880
30
0.0
11
140.840669
21
216.285236
31
0.0
0
LINE
8
0
6
CONTINUOUS
10
134.179810
20
201.775244
30
0.0
11
133.508114
21
200.757567
31
0.0
0
LINE
8
0
6
CONTINUOUS
10
133.650163
20
200.949620
30
0.0
11
134.289658
21
201.923531
31
0.0
0
LINE
8
0
6
CONTINUOUS
10
139.542153
20
210.634684
30
0.0
11
137.989013
21
207.166525
31
0.0
0
LINE
8
0
6
CONTINUOUS
10
140.359237
20
223.503927
30
0.0
11
140.331840
21
223.590221
31
0.0
0
LINE
8
0
6
CONTINUOUS
10
140.331840
20
223.590221
30
0.0
11
140.304453
21
223.676524
31
0.0
0
LINE
8
0
6
CONTINUOUS
10
135.862133
20
227.025920
30
0.0
11
133.948480
21
225.551306
31
0.0
0
LINE
8
0
6
CONTINUOUS
10
132.369097
20
205.714043
30
0.0
11
132.757236
21
203.666315
31
0.0
0
LINE
8
0
6
CONTINUOUS
10
139.258417
20
226.578171
30
0.0
11
138.492226
21
228.596856
31
0.0
0
LINE
8
0
6
CONTINUOUS
10
133.976028
20
224.894744
30
0.0
11
134.959940
21
222.723079
31
0.0
0
LINE
8
0
6
CONTINUOUS
10
135.768199
20
217.823762
30
0.0
11
135.746017
21
216.303134
31
0.0
0
LINE
8
0
6
CONTINUOUS
10
135.377873
20
213.852552
30
0.0
11
134.811513
21
211.983883
31
0.0
0
LINE
8
0
6
CONTINUOUS
10
134.339839
20
210.828575
30
0.0
11
133.354112
21
208.928585
31
0.0
0
LINE
8
0
6
CONTINUOUS
10
133.017597
20
208.365239
30
0.0
11
132.787531
21
207.896686
31
0.0
0
LINE
8
0
6
CONTINUOUS
10
133.354112
20
208.928585
30
0.0
11
133.017597
21
208.365239
31
0.0
0
LINE
8
0
6
CONTINUOUS
10
135.702936
20
215.265272
30
0.0
11
135.377873
21
213.852552
31
0.0
0
LINE
8
0
6
CONTINUOUS
10
134.918714
20
212.309482
30
0.0
11
134.339839
21
210.828575
31
0.0
0
LINE
8
0
6
CONTINUOUS
10
140.304453
20
223.676524
30
0.0
11
140.277568
21
223.761280
31
0.0
0
LINE
8
0
6
CONTINUOUS
10
136.356932
20
215.999907
30
0.0
11
136.380759
21
217.803916
31
0.0
0
LINE
8
0
6
CONTINUOUS
10
133.891972
20
225.031616
30
0.0
11
134.795197
21
223.518959
31
0.0
0
LINE
8
0
6
CONTINUOUS
10
134.768573
20
223.647580
30
0.0
11
133.891972
21
225.031616
31
0.0
0
LINE
8
0
6
CONTINUOUS
10
136.380759
20
217.803916
30
0.0
11
136.167751
21
219.727647
31
0.0
0
LINE
8
0
6
CONTINUOUS
10
132.342783
20
206.176454
30
0.0
11
132.316539
21
205.991352
31
0.0
0
LINE
8
0
6
CONTINUOUS
10
135.671608
20
221.731849
30
0.0
11
134.768573
21
223.647580
31
0.0
0
LINE
8
0
6
CONTINUOUS
10
136.167751
20
219.727647
30
0.0
11
135.671608
21
221.731849
31
0.0
0
LINE
8
0
6
CONTINUOUS
10
140.589835
20
214.038593
30
0.0
11
139.542153
21
210.634684
31
0.0
0
LINE
8
0
6
CONTINUOUS
10
140.840669
20
216.285236
30
0.0
11
140.589835
21
214.038593
31
0.0
0
LINE
8
0
6
CONTINUOUS
10
87.448565
20
276.899760
30
0.0
11
89.271831
21
274.286158
31
0.0
0
LINE
8
0
6
CONTINUOUS
10
92.450730
20
269.729293
30
0.0
11
93.440543
21
268.310423
31
0.0
0
LINE
8
0
6
CONTINUOUS
10
82.792407
20
284.330072
30
0.0
11
84.982098
21
280.701859
31
0.0
0
LINE
8
0
6
CONTINUOUS
10
73.380479
20
299.685328
30
0.0
11
76.101804
21
295.278990
31
0.0
0
LINE
8
0
6
CONTINUOUS
10
78.209334
20
291.866503
30
0.0
11
79.161731
21
290.324392
31
0.0
0
LINE
8
0
6
CONTINUOUS
10
93.440543
20
268.310423
30
0.0
11
94.707649
21
266.682891
31
0.0
0
LINE
8
0
6
CONTINUOUS
10
97.915399
20
262.562702
30
0.0
11
100.389578
21
259.384746
31
0.0
0
LINE
8
0
6
CONTINUOUS
10
139.764380
20
225.235040
30
0.0
11
140.363778
21
225.716459
31
0.0
0
LINE
8
0
6
CONTINUOUS
10
77.744049
20
303.728869
30
0.0
11
73.329667
21
300.183354
31
0.0
0
LINE
8
0
6
CONTINUOUS
10
109.467516
20
248.545391
30
0.0
11
110.464693
21
247.523484
31
0.0
0
LINE
8
0
6
CONTINUOUS
10
114.348735
20
243.543116
30
0.0
11
116.584555
21
241.251847
31
0.0
0
LINE
8
0
6
CONTINUOUS
10
101.965776
20
257.427672
30
0.0
11
104.571036
21
254.342966
31
0.0
0
LINE
8
0
6
CONTINUOUS
10
126.899823
20
243.392377
30
0.0
11
121.460553
21
250.112561
31
0.0
0
LINE
8
0
6
CONTINUOUS
10
135.576651
20
232.668732
30
0.0
11
131.666244
21
237.502310
31
0.0
0
LINE
8
0
6
CONTINUOUS
10
80.321936
20
300.905915
30
0.0
11
78.525924
21
303.119040
31
0.0
0
LINE
8
0
6
CONTINUOUS
10
78.525924
20
303.119040
30
0.0
11
77.916052
21
303.866998
31
0.0
0
LINE
8
0
6
CONTINUOUS
10
115.557482
20
257.404622
30
0.0
11
109.417445
21
264.988323
31
0.0
0
LINE
8
0
6
CONTINUOUS
10
83.235084
20
297.312699
30
0.0
11
80.321936
21
300.905915
31
0.0
0
LINE
8
0
6
CONTINUOUS
10
87.153394
20
292.477503
30
0.0
11
83.235084
21
297.312699
31
0.0
0
LINE
8
0
6
CONTINUOUS
10
91.926303
20
286.586088
30
0.0
11
87.153394
21
292.477503
31
0.0
0
LINE
8
0
6
CONTINUOUS
10
97.370376
20
279.864914
30
0.0
11
91.926303
21
286.586088
31
0.0
0
LINE
8
0
6
CONTINUOUS
10
103.276415
20
272.572235
30
0.0
11
97.370376
21
279.864914
31
0.0
0
LINE
8
0
6
CONTINUOUS
10
109.417445
20
264.988323
30
0.0
11
103.276415
21
272.572235
31
0.0
0
LINE
8
0
6
CONTINUOUS
10
121.460553
20
250.112561
30
0.0
11
115.557482
21
257.404622
31
0.0
0
LINE
8
0
6
CONTINUOUS
10
131.666244
20
237.502310
30
0.0
11
126.899823
21
243.392377
31
0.0
0
LINE
8
0
6
CONTINUOUS
10
138.480774
20
229.077374
30
0.0
11
135.576651
21
232.668732
31
0.0
0
LINE
8
0
6
CONTINUOUS
10
140.266998
20
226.866277
30
0.0
11
138.480774
21
229.077374
31
0.0
0
LINE
8
0
6
CONTINUOUS
10
73.157674
20
300.045195
30
0.0
11
73.380479
21
299.685328
31
0.0
0
LINE
8
0
6
CONTINUOUS
10
82.358082
20
288.663340
30
0.0
11
87.124503
21
282.773283
31
0.0
0
LINE
8
0
6
CONTINUOUS
10
73.757357
20
299.299333
30
0.0
11
75.543562
21
297.088256
31
0.0
0
LINE
8
0
6
CONTINUOUS
10
73.157674
20
300.045195
30
0.0
11
73.757357
21
299.299333
31
0.0
0
LINE
8
0
6
CONTINUOUS
10
73.329667
20
300.183354
30
0.0
11
73.157674
21
300.045195
31
0.0
0
LINE
8
0
6
CONTINUOUS
10
121.412318
20
250.122559
30
0.0
11
115.506268
21
257.415239
31
0.0
0
LINE
8
0
6
CONTINUOUS
10
110.747890
20
253.593425
30
0.0
11
116.653920
21
246.300765
31
0.0
0
LINE
8
0
6
CONTINUOUS
10
103.225202
20
272.582852
30
0.0
11
97.322140
21
279.874912
31
0.0
0
LINE
8
0
6
CONTINUOUS
10
109.365228
20
264.999150
30
0.0
11
103.225202
21
272.582852
31
0.0
0
LINE
8
0
6
CONTINUOUS
10
135.547640
20
232.674744
30
0.0
11
131.629320
21
237.509960
31
0.0
0
LINE
8
0
6
CONTINUOUS
10
77.916052
20
303.866998
30
0.0
11
77.744049
21
303.728869
31
0.0
0
LINE
8
0
6
CONTINUOUS
10
78.515735
20
303.121127
30
0.0
11
77.916052
21
303.866998
31
0.0
0
LINE
8
0
6
CONTINUOUS
10
130.789252
20
228.852940
30
0.0
11
133.702400
21
225.259725
31
0.0
0
LINE
8
0
6
CONTINUOUS
10
126.870922
20
233.688156
30
0.0
11
130.789252
21
228.852940
31
0.0
0
LINE
8
0
6
CONTINUOUS
10
122.098013
20
239.579572
30
0.0
11
126.870922
21
233.688156
31
0.0
0
LINE
8
0
6
CONTINUOUS
10
116.653920
20
246.300765
30
0.0
11
122.098013
21
239.579572
31
0.0
0
LINE
8
0
6
CONTINUOUS
10
104.606850
20
261.177346
30
0.0
11
110.747890
21
253.593425
31
0.0
0
LINE
8
0
6
CONTINUOUS
10
98.466814
20
268.761048
30
0.0
11
104.606850
21
261.177346
31
0.0
0
LINE
8
0
6
CONTINUOUS
10
92.563742
20
276.053118
30
0.0
11
98.466814
21
268.761048
31
0.0
0
LINE
8
0
6
CONTINUOUS
10
87.124503
20
282.773283
30
0.0
11
92.563742
21
276.053118
31
0.0
0
LINE
8
0
6
CONTINUOUS
10
78.447684
20
293.496908
30
0.0
11
82.358082
21
288.663340
31
0.0
0
LINE
8
0
6
CONTINUOUS
10
75.543562
20
297.088256
30
0.0
11
78.447684
21
293.496908
31
0.0
0
LINE
8
0
6
CONTINUOUS
10
80.301960
20
300.910050
30
0.0
11
78.515735
21
303.121127
31
0.0
0
LINE
8
0
6
CONTINUOUS
10
83.206062
20
297.318702
30
0.0
11
80.301960
21
300.910050
31
0.0
0
LINE
8
0
6
CONTINUOUS
10
87.116470
20
292.485134
30
0.0
11
83.206062
21
297.318702
31
0.0
0
LINE
8
0
6
CONTINUOUS
10
91.882881
20
286.595097
30
0.0
11
87.116470
21
292.485134
31
0.0
0
LINE
8
0
6
CONTINUOUS
10
97.322140
20
279.874912
30
0.0
11
91.882881
21
286.595097
31
0.0
0
LINE
8
0
6
CONTINUOUS
10
115.506268
20
257.415239
30
0.0
11
109.365228
21
264.999150
31
0.0
0
LINE
8
0
6
CONTINUOUS
10
126.856401
20
243.401365
30
0.0
11
121.412318
21
250.122559
31
0.0
0
LINE
8
0
6
CONTINUOUS
10
131.629320
20
237.509960
30
0.0
11
126.856401
21
243.401365
31
0.0
0
LINE
8
0
6
CONTINUOUS
10
138.460788
20
229.081519
30
0.0
11
135.547640
21
232.674744
31
0.0
0
LINE
8
0
6
CONTINUOUS
10
140.256810
20
226.868394
30
0.0
11
138.460788
21
229.081519
31
0.0
0
LINE
8
0
6
CONTINUOUS
10
136.338470
20
231.722467
30
0.0
11
137.993145
21
229.674199
31
0.0
0
LINE
8
0
6
CONTINUOUS
10
133.648218
20
235.049320
30
0.0
11
136.338470
21
231.722467
31
0.0
0
LINE
8
0
6
CONTINUOUS
10
125.610393
20
244.983218
30
0.0
11
130.025788
21
239.526936
31
0.0
0
LINE
8
0
6
CONTINUOUS
10
115.103377
20
257.963534
30
0.0
11
120.571718
21
251.208492
31
0.0
0
LINE
8
0
6
CONTINUOUS
10
103.726760
20
272.014112
30
0.0
11
109.415530
21
264.988723
31
0.0
0
LINE
8
0
6
CONTINUOUS
10
98.255671
20
278.769723
30
0.0
11
103.726760
21
272.014112
31
0.0
0
LINE
8
0
6
CONTINUOUS
10
93.212523
20
284.995906
30
0.0
11
98.255671
21
278.769723
31
0.0
0
LINE
8
0
6
CONTINUOUS
10
88.791131
20
290.453436
30
0.0
11
93.212523
21
284.995906
31
0.0
0
LINE
8
0
6
CONTINUOUS
10
85.161382
20
294.932530
30
0.0
11
88.791131
21
290.453436
31
0.0
0
LINE
8
0
6
CONTINUOUS
10
82.462786
20
298.261122
30
0.0
11
85.161382
21
294.932530
31
0.0
0
LINE
8
0
6
CONTINUOUS
10
137.993145
20
229.674199
30
0.0
11
138.548684
21
228.983240
31
0.0
0
LINE
8
0
6
CONTINUOUS
10
138.548684
20
228.983240
30
0.0
11
137.983708
21
229.676157
31
0.0
0
LINE
8
0
6
CONTINUOUS
10
109.415530
20
264.988723
30
0.0
11
115.103377
21
257.963534
31
0.0
0
LINE
8
0
6
CONTINUOUS
10
80.234069
20
301.004154
30
0.0
11
80.799025
21
300.311267
31
0.0
0
LINE
8
0
6
CONTINUOUS
10
80.799025
20
300.311267
30
0.0
11
82.462786
21
298.261122
31
0.0
0
LINE
8
0
6
CONTINUOUS
10
80.789589
20
300.313215
30
0.0
11
80.234069
21
301.004154
31
0.0
0
LINE
8
0
6
CONTINUOUS
10
130.025788
20
239.526936
30
0.0
11
133.648218
21
235.049320
31
0.0
0
LINE
8
0
6
CONTINUOUS
10
120.571718
20
251.208492
30
0.0
11
125.610393
21
244.983218
31
0.0
0
LINE
8
0
6
CONTINUOUS
10
162.883278
20
117.587572
30
0.0
11
167.543571
21
118.729525
31
0.0
0
LINE
8
0
6
CONTINUOUS
10
156.291283
20
115.986453
30
0.0
11
158.921527
21
116.623709
31
0.0
0
LINE
8
0
6
CONTINUOUS
10
167.543571
20
118.729525
30
0.0
11
171.284543
21
119.655206
31
0.0
0
LINE
8
0
6
CONTINUOUS
10
174.898268
20
120.553040
30
0.0
11
178.159282
21
121.371282
31
0.0
0
LINE
8
0
6
CONTINUOUS
10
171.284543
20
119.655206
30
0.0
11
174.898268
21
120.553040
31
0.0
0
LINE
8
0
6
CONTINUOUS
10
158.733800
20
117.334024
30
0.0
11
158.921527
21
116.623709
31
0.0
0
LINE
8
0
6
CONTINUOUS
10
158.921527
20
116.623709
30
0.0
11
162.883278
21
117.587572
31
0.0
0
LINE
8
0
6
CONTINUOUS
10
155.375011
20
115.763907
30
0.0
11
156.291283
21
115.986453
31
0.0
0
LINE
8
0
6
CONTINUOUS
10
155.192097
20
116.475571
30
0.0
11
155.375011
21
115.763907
31
0.0
0
LINE
8
0
6
CONTINUOUS
10
179.726332
20
121.737052
30
0.0
11
179.555692
21
122.451642
31
0.0
0
LINE
8
0
6
CONTINUOUS
10
178.159282
20
121.371282
30
0.0
11
179.726332
21
121.737052
31
0.0
0
LINE
8
0
6
CONTINUOUS
10
177.990288
20
122.086252
30
0.0
11
178.159282
21
121.371282
31
0.0
0
LINE
8
0
6
CONTINUOUS
10
173.079793
20
142.861899
30
0.0
11
177.990288
21
122.086252
31
0.0
0
LINE
8
0
6
CONTINUOUS
10
179.555692
20
122.451642
30
0.0
11
174.596832
21
143.219039
31
0.0
0
LINE
8
0
6
CONTINUOUS
10
139.548451
20
227.751427
30
0.0
11
140.363778
21
225.716459
31
0.0
0
LINE
8
0
6
CONTINUOUS
10
137.140100
20
231.485049
30
0.0
11
138.644303
21
229.398778
31
0.0
0
LINE
8
0
6
CONTINUOUS
10
138.292144
20
229.959647
30
0.0
11
139.740881
21
227.356733
31
0.0
0
LINE
8
0
6
CONTINUOUS
10
133.898761
20
200.797338
30
0.0
11
133.594587
21
200.408776
31
0.0
0
LINE
8
0
6
CONTINUOUS
10
141.152474
20
214.178790
30
0.0
11
140.254232
21
210.902065
31
0.0
0
LINE
8
0
6
CONTINUOUS
10
136.388560
20
203.929371
30
0.0
11
133.898761
21
200.797338
31
0.0
0
LINE
8
0
6
CONTINUOUS
10
138.810951
20
207.710615
30
0.0
11
136.233936
21
203.733932
31
0.0
0
LINE
8
0
6
CONTINUOUS
10
78.293822
20
304.170425
30
0.0
11
78.893506
21
303.424543
31
0.0
0
LINE
8
0
6
CONTINUOUS
10
78.621863
20
304.433890
30
0.0
11
78.293822
21
304.170425
31
0.0
0
LINE
8
0
6
CONTINUOUS
10
139.740881
20
227.356733
30
0.0
11
140.657494
21
224.983375
31
0.0
0
LINE
8
0
6
CONTINUOUS
10
97.699901
20
280.178329
30
0.0
11
103.602972
21
272.886278
31
0.0
0
LINE
8
0
6
CONTINUOUS
10
153.334813
20
237.361962
30
0.0
11
151.548589
21
239.573070
31
0.0
0
LINE
8
0
6
CONTINUOUS
10
134.528368
20
260.608247
30
0.0
11
128.625297
21
267.900318
31
0.0
0
LINE
8
0
6
CONTINUOUS
10
153.934517
20
236.616071
30
0.0
11
153.334813
21
237.361962
31
0.0
0
LINE
8
0
6
CONTINUOUS
10
116.344220
20
283.067930
30
0.0
11
110.438191
21
290.360600
31
0.0
0
LINE
8
0
6
CONTINUOUS
10
148.644466
20
243.164417
30
0.0
11
144.734059
21
247.997995
31
0.0
0
LINE
8
0
6
CONTINUOUS
10
122.485260
20
275.484019
30
0.0
11
116.344220
21
283.067930
31
0.0
0
LINE
8
0
6
CONTINUOUS
10
104.994108
20
297.081774
30
0.0
11
100.221209
21
302.973189
31
0.0
0
LINE
8
0
6
CONTINUOUS
10
93.389751
20
311.401610
30
0.0
11
91.593739
21
313.614725
31
0.0
0
LINE
8
0
6
CONTINUOUS
10
151.548589
20
239.573070
30
0.0
11
148.644466
21
243.164417
31
0.0
0
LINE
8
0
6
CONTINUOUS
10
139.967628
20
253.888062
30
0.0
11
134.528368
21
260.608247
31
0.0
0
LINE
8
0
6
CONTINUOUS
10
110.438191
20
290.360600
30
0.0
11
104.994108
21
297.081774
31
0.0
0
LINE
8
0
6
CONTINUOUS
10
144.734059
20
247.997995
30
0.0
11
139.967628
21
253.888062
31
0.0
0
LINE
8
0
6
CONTINUOUS
10
96.302899
20
307.808395
30
0.0
11
93.389751
21
311.401610
31
0.0
0
LINE
8
0
6
CONTINUOUS
10
100.221209
20
302.973189
30
0.0
11
96.302899
21
307.808395
31
0.0
0
LINE
8
0
6
CONTINUOUS
10
91.593739
20
313.614725
30
0.0
11
90.983867
21
314.362684
31
0.0
0
LINE
8
0
6
CONTINUOUS
10
153.279999
20
137.969853
30
0.0
11
158.733800
21
117.334024
31
0.0
0
LINE
8
0
6
CONTINUOUS
10
162.694388
20
118.297318
30
0.0
11
157.208357
21
138.910075
31
0.0
0
LINE
8
0
6
CONTINUOUS
10
103.602972
20
272.886278
30
0.0
11
109.742999
21
265.302556
31
0.0
0
LINE
8
0
6
CONTINUOUS
10
140.254232
20
210.902065
30
0.0
11
138.810951
21
207.710615
31
0.0
0
LINE
8
0
6
CONTINUOUS
10
141.277866
20
216.620553
30
0.0
11
141.152474
21
214.178790
31
0.0
0
LINE
8
0
6
CONTINUOUS
10
87.494241
20
292.788550
30
0.0
11
92.260651
21
286.898503
31
0.0
0
LINE
8
0
6
CONTINUOUS
10
133.757023
20
199.779471
30
0.0
11
133.981272
21
198.910701
31
0.0
0
LINE
8
0
6
CONTINUOUS
10
83.583843
20
297.622128
30
0.0
11
87.494241
21
292.788550
31
0.0
0
LINE
8
0
6
CONTINUOUS
10
141.523275
20
219.679227
30
0.0
11
141.277866
21
216.620553
31
0.0
0
LINE
8
0
6
CONTINUOUS
10
80.679720
20
301.213466
30
0.0
11
83.583843
21
297.622128
31
0.0
0
LINE
8
0
6
CONTINUOUS
10
140.657494
20
224.983375
30
0.0
11
141.367387
21
222.387811
31
0.0
0
LINE
8
0
6
CONTINUOUS
10
153.302081
20
236.108136
30
0.0
11
153.934517
21
236.616071
31
0.0
0
LINE
8
0
6
CONTINUOUS
10
84.992618
20
309.550710
30
0.0
11
79.630886
21
305.244312
31
0.0
0
LINE
8
0
6
CONTINUOUS
10
90.983867
20
314.362684
30
0.0
11
90.354350
21
313.857077
31
0.0
0
LINE
8
0
6
CONTINUOUS
10
152.987328
20
235.855328
30
0.0
11
153.302081
21
236.108136
31
0.0
0
LINE
8
0
6
CONTINUOUS
10
137.583866
20
230.894327
30
0.0
11
138.644303
21
229.398778
31
0.0
0
LINE
8
0
6
CONTINUOUS
10
135.925400
20
232.978151
30
0.0
11
137.583866
21
230.894327
31
0.0
0
LINE
8
0
6
CONTINUOUS
10
132.007080
20
237.813376
30
0.0
11
135.925400
21
232.978151
31
0.0
0
LINE
8
0
6
CONTINUOUS
10
127.234172
20
243.704782
30
0.0
11
132.007080
21
237.813376
31
0.0
0
LINE
8
0
6
CONTINUOUS
10
121.790078
20
250.425975
30
0.0
11
127.234172
21
243.704782
31
0.0
0
LINE
8
0
6
CONTINUOUS
10
115.884049
20
257.718645
30
0.0
11
121.790078
21
250.425975
31
0.0
0
LINE
8
0
6
CONTINUOUS
10
109.742999
20
265.302556
30
0.0
11
115.884049
21
257.718645
31
0.0
0
LINE
8
0
6
CONTINUOUS
10
138.644303
20
229.398778
30
0.0
11
139.740881
21
227.356733
31
0.0
0
LINE
8
0
6
CONTINUOUS
10
151.528613
20
239.577204
30
0.0
11
153.324635
21
237.364070
31
0.0
0
LINE
8
0
6
CONTINUOUS
10
128.574083
20
267.910925
30
0.0
11
134.480123
21
260.618255
31
0.0
0
LINE
8
0
6
CONTINUOUS
10
153.324635
20
237.364070
30
0.0
11
153.934517
21
236.616071
31
0.0
0
LINE
8
0
6
CONTINUOUS
10
110.389945
20
290.370608
30
0.0
11
116.293007
21
283.078537
31
0.0
0
LINE
8
0
6
CONTINUOUS
10
144.697135
20
248.005646
30
0.0
11
148.615455
21
243.170430
31
0.0
0
LINE
8
0
6
CONTINUOUS
10
116.293007
20
283.078537
30
0.0
11
122.433043
21
275.494836
31
0.0
0
LINE
8
0
6
CONTINUOUS
10
100.184285
20
302.980830
30
0.0
11
104.950696
21
297.090783
31
0.0
0
LINE
8
0
6
CONTINUOUS
10
91.583550
20
313.616823
30
0.0
11
93.369765
21
311.405745
31
0.0
0
LINE
8
0
6
CONTINUOUS
10
148.615455
20
243.170430
30
0.0
11
151.528613
21
239.577204
31
0.0
0
LINE
8
0
6
CONTINUOUS
10
134.480123
20
260.618255
30
0.0
11
139.924216
21
253.897061
31
0.0
0
LINE
8
0
6
CONTINUOUS
10
104.950696
20
297.090783
30
0.0
11
110.389945
21
290.370608
31
0.0
0
LINE
8
0
6
CONTINUOUS
10
139.924216
20
253.897061
30
0.0
11
144.697135
21
248.005646
31
0.0
0
LINE
8
0
6
CONTINUOUS
10
122.433043
20
275.494836
30
0.0
11
128.574083
21
267.910925
31
0.0
0
LINE
8
0
6
CONTINUOUS
10
93.369765
20
311.405745
30
0.0
11
96.273877
21
307.814388
31
0.0
0
LINE
8
0
6
CONTINUOUS
10
96.273877
20
307.814388
30
0.0
11
100.184285
21
302.980830
31
0.0
0
LINE
8
0
6
CONTINUOUS
10
90.983867
20
314.362684
30
0.0
11
91.583550
21
313.616823
31
0.0
0
LINE
8
0
6
CONTINUOUS
10
141.367387
20
222.387811
30
0.0
11
141.523275
21
219.679227
31
0.0
0
LINE
8
0
6
CONTINUOUS
10
156.744716
20
217.965837
30
0.0
11
156.102563
21
220.651380
31
0.0
0
LINE
8
0
6
CONTINUOUS
10
90.354350
20
313.857077
30
0.0
11
84.992618
21
309.550710
31
0.0
0
LINE
8
0
6
CONTINUOUS
10
136.233936
20
203.733932
30
0.0
11
134.215370
21
201.138028
31
0.0
0
LINE
8
0
6
CONTINUOUS
10
152.174366
20
216.768591
30
0.0
11
151.453682
21
219.584144
31
0.0
0
LINE
8
0
6
CONTINUOUS
10
152.987328
20
235.855328
30
0.0
11
152.387634
21
236.602657
31
0.0
0
LINE
8
0
6
CONTINUOUS
10
153.598002
20
231.408314
30
0.0
11
152.987328
21
235.855328
31
0.0
0
LINE
8
0
6
CONTINUOUS
10
152.387634
20
236.602657
30
0.0
11
149.271406
21
236.610977
31
0.0
0
LINE
8
0
6
CONTINUOUS
10
92.260651
20
286.898503
30
0.0
11
97.699901
21
280.178329
31
0.0
0
LINE
8
0
6
CONTINUOUS
10
154.814557
20
226.021597
30
0.0
11
154.197565
21
228.713003
31
0.0
0
LINE
8
0
6
CONTINUOUS
10
155.463940
20
223.337772
30
0.0
11
154.814557
21
226.021597
31
0.0
0
LINE
8
0
6
CONTINUOUS
10
150.736138
20
222.401445
30
0.0
11
151.453682
21
219.584144
31
0.0
0
LINE
8
0
6
CONTINUOUS
10
156.102563
20
220.651380
30
0.0
11
155.463940
21
223.337772
31
0.0
0
LINE
8
0
6
CONTINUOUS
10
78.893506
20
303.424543
30
0.0
11
80.679720
21
301.213466
31
0.0
0
LINE
8
0
6
CONTINUOUS
10
134.215370
20
201.138028
30
0.0
11
133.594587
21
200.408776
31
0.0
0
LINE
8
0
6
CONTINUOUS
10
133.594587
20
200.408776
30
0.0
11
133.757023
21
199.779471
31
0.0
0
LINE
8
0
6
CONTINUOUS
10
146.287891
20
179.952596
30
0.0
11
140.766049
21
200.459214
31
0.0
0
LINE
8
0
6
CONTINUOUS
10
133.981272
20
198.910701
30
0.0
11
139.279937
21
178.325559
31
0.0
0
LINE
8
0
6
CONTINUOUS
10
147.167851
20
201.983267
30
0.0
11
152.212282
21
181.371399
31
0.0
0
LINE
8
0
6
CONTINUOUS
10
139.279937
20
178.325559
30
0.0
11
144.578612
21
157.740398
31
0.0
0
LINE
8
0
6
CONTINUOUS
10
157.256382
20
160.759520
30
0.0
11
152.212282
21
181.371399
31
0.0
0
LINE
8
0
6
CONTINUOUS
10
163.290431
20
184.223646
30
0.0
11
168.191320
21
163.544231
31
0.0
0
LINE
8
0
6
CONTINUOUS
10
169.659150
20
163.893141
30
0.0
11
164.721469
21
184.567243
31
0.0
0
LINE
8
0
6
CONTINUOUS
10
168.191320
20
163.544231
30
0.0
11
173.079793
21
142.861899
31
0.0
0
LINE
8
0
6
CONTINUOUS
10
174.596832
20
143.219039
30
0.0
11
169.659150
21
163.893141
31
0.0
0
LINE
8
0
6
CONTINUOUS
10
153.279999
20
137.969853
30
0.0
11
147.861679
21
158.515853
31
0.0
0
LINE
8
0
6
CONTINUOUS
10
151.747638
20
159.431146
30
0.0
11
157.208357
21
138.910075
31
0.0
0
LINE
8
0
6
CONTINUOUS
10
162.300462
20
140.147581
30
0.0
11
157.256382
21
160.759520
31
0.0
0
LINE
8
0
6
CONTINUOUS
10
142.476280
20
179.070522
30
0.0
11
147.861679
21
158.515853
31
0.0
0
LINE
8
0
6
CONTINUOUS
10
151.747638
20
159.431146
30
0.0
11
146.287891
21
179.952596
31
0.0
0
LINE
8
0
6
CONTINUOUS
10
149.877287
20
137.155256
30
0.0
11
155.192097
21
116.475571
31
0.0
0
LINE
8
0
6
CONTINUOUS
10
156.107306
20
116.697827
30
0.0
11
150.761509
21
137.368294
31
0.0
0
LINE
8
0
6
CONTINUOUS
10
79.630886
20
305.244312
30
0.0
11
78.621863
21
304.433890
31
0.0
0
LINE
8
0
6
CONTINUOUS
10
144.578612
20
157.740398
30
0.0
11
149.877287
21
137.155256
31
0.0
0
LINE
8
0
6
CONTINUOUS
10
159.783777
20
205.241335
30
0.0
11
156.744716
21
217.965837
31
0.0
0
LINE
8
0
6
CONTINUOUS
10
164.721469
20
184.567243
30
0.0
11
159.783777
21
205.241335
31
0.0
0
LINE
8
0
6
CONTINUOUS
10
128.625297
20
267.900318
30
0.0
11
122.485260
21
275.484019
31
0.0
0
LINE
8
0
6
CONTINUOUS
10
154.197565
20
228.713003
30
0.0
11
153.598002
21
231.408314
31
0.0
0
LINE
8
0
6
CONTINUOUS
10
182.978060
20
87.801593
30
0.0
11
182.145308
21
91.006102
31
0.0
0
LINE
8
0
6
CONTINUOUS
10
180.835060
20
87.332243
30
0.0
11
180.027240
21
90.440863
31
0.0
0
LINE
8
0
6
CONTINUOUS
10
175.987390
20
86.123183
30
0.0
11
175.200155
21
89.152661
31
0.0
0
LINE
8
0
6
CONTINUOUS
10
171.274750
20
84.882672
30
0.0
11
170.491706
21
87.896114
31
0.0
0
LINE
8
0
6
CONTINUOUS
10
184.378470
20
82.256032
30
0.0
11
182.978060
21
87.801593
31
0.0
0
LINE
8
0
6
CONTINUOUS
10
182.232850
20
81.797014
30
0.0
11
180.835060
21
87.332243
31
0.0
0
LINE
8
0
6
CONTINUOUS
10
177.378550
20
80.614209
30
0.0
11
175.987390
21
86.123183
31
0.0
0
LINE
8
0
6
CONTINUOUS
10
172.659150
20
79.400413
30
0.0
11
171.274750
21
84.882672
31
0.0
0
LINE
8
0
6
CONTINUOUS
10
169.975100
20
82.288594
30
0.0
11
170.839210
21
78.866663
31
0.0
0
LINE
8
0
6
CONTINUOUS
10
185.828370
20
76.411716
30
0.0
11
184.378470
21
82.256032
31
0.0
0
LINE
8
0
6
CONTINUOUS
10
183.683900
20
75.948122
30
0.0
11
182.232850
21
81.797014
31
0.0
0
LINE
8
0
6
CONTINUOUS
10
178.827000
20
74.775718
30
0.0
11
177.378550
21
80.614209
31
0.0
0
LINE
8
0
6
CONTINUOUS
10
174.102770
20
73.581284
30
0.0
11
172.659150
21
79.400413
31
0.0
0
LINE
8
0
6
CONTINUOUS
10
170.839210
20
78.866663
30
0.0
11
172.278600
21
73.064598
31
0.0
0
LINE
8
0
6
CONTINUOUS
10
187.334790
20
70.289095
30
0.0
11
185.828370
21
76.411716
31
0.0
0
LINE
8
0
6
CONTINUOUS
10
185.194630
20
69.807967
30
0.0
11
183.683900
21
75.948122
31
0.0
0
LINE
8
0
6
CONTINUOUS
10
180.338450
20
68.632636
30
0.0
11
178.827000
21
74.775718
31
0.0
0
LINE
8
0
6
CONTINUOUS
10
175.610930
20
67.451619
30
0.0
11
174.102770
21
73.581284
31
0.0
0
LINE
8
0
6
CONTINUOUS
10
172.278600
20
73.064598
30
0.0
11
173.781390
21
66.956664
31
0.0
0
LINE
8
0
6
CONTINUOUS
10
188.904460
20
63.909340
30
0.0
11
187.334790
21
70.289095
31
0.0
0
LINE
8
0
6
CONTINUOUS
10
186.771420
20
63.399359
30
0.0
11
185.194630
21
69.807967
31
0.0
0
LINE
8
0
6
CONTINUOUS
10
181.918850
20
62.209351
30
0.0
11
180.338450
21
68.632636
31
0.0
0
LINE
8
0
6
CONTINUOUS
10
177.189310
20
61.036537
30
0.0
11
175.610930
21
67.451619
31
0.0
0
LINE
8
0
6
CONTINUOUS
10
173.781390
20
66.956664
30
0.0
11
175.353310
21
60.567827
31
0.0
0
LINE
8
0
6
CONTINUOUS
10
190.543960
20
57.294092
30
0.0
11
188.904460
21
63.909340
31
0.0
0
LINE
8
0
6
CONTINUOUS
10
188.420660
20
56.744936
30
0.0
11
186.771420
21
63.399359
31
0.0
0
LINE
8
0
6
CONTINUOUS
10
183.574310
20
55.529841
30
0.0
11
181.918850
21
62.209351
31
0.0
0
LINE
8
0
6
CONTINUOUS
10
178.843850
20
54.360724
30
0.0
11
177.189310
21
61.036537
31
0.0
0
LINE
8
0
6
CONTINUOUS
10
175.353310
20
60.567827
30
0.0
11
177.000320
21
53.922286
31
0.0
0
LINE
8
0
6
CONTINUOUS
10
192.259710
20
50.465369
30
0.0
11
190.543960
21
57.294092
31
0.0
0
LINE
8
0
6
CONTINUOUS
10
190.148660
20
49.867468
30
0.0
11
188.420660
21
56.744936
31
0.0
0
LINE
8
0
6
CONTINUOUS
10
185.311030
20
48.617775
30
0.0
11
183.574310
21
55.529841
31
0.0
0
LINE
8
0
6
CONTINUOUS
10
180.580650
20
47.448308
30
0.0
11
178.843850
21
54.360724
31
0.0
0
LINE
8
0
6
CONTINUOUS
10
177.000320
20
53.922286
30
0.0
11
178.728500
21
47.044129
31
0.0
0
LINE
8
0
6
CONTINUOUS
10
194.093420
20
43.302303
30
0.0
11
192.259710
21
50.465369
31
0.0
0
LINE
8
0
6
CONTINUOUS
10
191.946830
20
42.849609
30
0.0
11
190.148660
21
49.867468
31
0.0
0
LINE
8
0
6
CONTINUOUS
10
187.078790
20
41.724162
30
0.0
11
185.311030
21
48.617775
31
0.0
0
LINE
8
0
6
CONTINUOUS
10
182.340930
20
40.585257
30
0.0
11
180.580650
21
47.448308
31
0.0
0
LINE
8
0
6
CONTINUOUS
10
178.728500
20
47.044129
30
0.0
11
180.508620
21
40.100012
31
0.0
0
LINE
8
0
6
CONTINUOUS
10
201.591020
20
8.516908
30
0.0
11
194.093420
21
43.302303
31
0.0
0
LINE
8
0
6
CONTINUOUS
10
199.338900
20
8.577583
30
0.0
11
191.946830
21
42.849609
31
0.0
0
LINE
8
0
6
CONTINUOUS
10
194.381890
20
7.884978
30
0.0
11
187.078790
21
41.724162
31
0.0
0
LINE
8
0
6
CONTINUOUS
10
189.623740
20
6.844783
30
0.0
11
182.340930
21
40.585257
31
0.0
0
LINE
8
0
6
CONTINUOUS
10
180.508620
20
40.100012
30
0.0
11
187.851710
21
6.066347
31
0.0
0
LINE
8
0
6
CONTINUOUS
10
206.242360
20
-25.787997
30
0.0
11
201.591020
21
8.516908
31
0.0
0
LINE
8
0
6
CONTINUOUS
10
203.905410
20
-25.115025
30
0.0
11
199.338900
21
8.577583
31
0.0
0
LINE
8
0
6
CONTINUOUS
10
198.875410
20
-25.280883
30
0.0
11
194.381890
21
7.884978
31
0.0
0
LINE
8
0
6
CONTINUOUS
10
194.098880
20
-26.188370
30
0.0
11
189.623740
21
6.844783
31
0.0
0
LINE
8
0
6
CONTINUOUS
10
187.851710
20
6.066347
30
0.0
11
192.373830
21
-27.305964
31
0.0
0
LINE
8
0
6
CONTINUOUS
10
208.506040
20
-59.543987
30
0.0
11
206.242360
21
-25.787997
31
0.0
0
LINE
8
0
6
CONTINUOUS
10
206.136560
20
-58.409888
30
0.0
11
203.905410
21
-25.115025
31
0.0
0
LINE
8
0
6
CONTINUOUS
10
201.077200
20
-58.159488
30
0.0
11
198.875410
21
-25.280883
31
0.0
0
LINE
8
0
6
CONTINUOUS
10
196.291670
20
-58.939532
30
0.0
11
194.098880
21
-26.188370
31
0.0
0
LINE
8
0
6
CONTINUOUS
10
192.373830
20
-27.305964
30
0.0
11
194.583270
21
-60.293039
31
0.0
0
LINE
8
0
6
CONTINUOUS
10
208.880300
20
-92.849260
30
0.0
11
208.506040
21
-59.543987
31
0.0
0
LINE
8
0
6
CONTINUOUS
10
206.506300
20
-91.411789
30
0.0
11
206.136560
21
-58.409888
31
0.0
0
LINE
8
0
6
CONTINUOUS
10
201.442480
20
-90.861874
30
0.0
11
201.077200
21
-58.159488
31
0.0
0
LINE
8
0
6
CONTINUOUS
10
196.655160
20
-91.521629
30
0.0
11
196.291670
21
-58.939532
31
0.0
0
LINE
8
0
6
CONTINUOUS
10
194.583270
20
-60.293039
30
0.0
11
194.948680
21
-93.004568
31
0.0
0
LINE
8
0
6
CONTINUOUS
10
207.861070
20
-125.811029
30
0.0
11
208.880300
21
-92.849260
31
0.0
0
LINE
8
0
6
CONTINUOUS
10
205.491160
20
-124.223316
30
0.0
11
206.506300
21
-91.411789
31
0.0
0
LINE
8
0
6
CONTINUOUS
10
200.432430
20
-123.486692
30
0.0
11
201.442480
21
-90.861874
31
0.0
0
LINE
8
0
6
CONTINUOUS
10
195.648210
20
-124.032601
30
0.0
11
196.655160
21
-91.521629
31
0.0
0
LINE
8
0
6
CONTINUOUS
10
194.948680
20
-93.004568
30
0.0
11
193.941030
21
-125.541306
31
0.0
0
LINE
8
0
6
CONTINUOUS
10
205.940490
20
-158.537913
30
0.0
11
207.861070
21
-125.811029
31
0.0
0
LINE
8
0
6
CONTINUOUS
10
203.570640
20
-156.949131
30
0.0
11
205.491160
21
-124.223316
31
0.0
0
LINE
8
0
6
CONTINUOUS
10
198.516210
20
-156.134189
30
0.0
11
200.432430
21
-123.486692
31
0.0
0
LINE
8
0
6
CONTINUOUS
10
193.738020
20
-156.570458
30
0.0
11
195.648210
21
-124.032601
31
0.0
0
LINE
8
0
6
CONTINUOUS
10
193.941030
20
-125.541306
30
0.0
11
192.035060
21
-158.002394
31
0.0
0
LINE
8
0
6
CONTINUOUS
10
203.607110
20
-191.135495
30
0.0
11
205.940490
21
-158.537913
31
0.0
0
LINE
8
0
6
CONTINUOUS
10
201.227010
20
-189.697795
30
0.0
11
203.570640
21
-156.949131
31
0.0
0
LINE
8
0
6
CONTINUOUS
10
196.170520
20
-188.913285
30
0.0
11
198.516210
21
-156.134189
31
0.0
0
LINE
8
0
6
CONTINUOUS
10
191.399660
20
-189.241464
30
0.0
11
193.738020
21
-156.570458
31
0.0
0
LINE
8
0
6
CONTINUOUS
10
192.035060
20
-158.002394
30
0.0
11
189.709140
21
-190.490148
31
0.0
0
LINE
8
0
6
CONTINUOUS
10
201.346200
20
-223.705034
30
0.0
11
203.607110
21
-191.135495
31
0.0
0
LINE
8
0
6
CONTINUOUS
10
198.945530
20
-222.580945
30
0.0
11
201.227010
21
-189.697795
31
0.0
0
LINE
8
0
6
CONTINUOUS
10
193.879540
20
-221.941362
30
0.0
11
196.170520
21
-188.913285
31
0.0
0
LINE
8
0
6
CONTINUOUS
10
189.115800
20
-222.160951
30
0.0
11
191.399660
21
-189.241464
31
0.0
0
LINE
8
0
6
CONTINUOUS
10
189.709140
20
-190.490148
30
0.0
11
187.444860
21
-223.111099
31
0.0
0
LINE
8
0
6
CONTINUOUS
10
199.639520
20
-256.345287
30
0.0
11
201.346200
21
-223.705034
31
0.0
0
LINE
8
0
6
CONTINUOUS
10
197.215210
20
-255.709201
30
0.0
11
198.945530
21
-222.580945
31
0.0
0
LINE
8
0
6
CONTINUOUS
10
192.136260
20
-255.337043
30
0.0
11
193.879540
21
-221.941362
31
0.0
0
LINE
8
0
6
CONTINUOUS
10
187.377850
20
-255.446862
30
0.0
11
189.115800
21
-222.160951
31
0.0
0
LINE
8
0
6
CONTINUOUS
10
187.444860
20
-223.111099
30
0.0
11
185.727380
21
-255.974288
31
0.0
0
LINE
8
0
6
CONTINUOUS
10
198.964510
20
-289.222543
30
0.0
11
199.639520
21
-256.345287
31
0.0
0
LINE
8
0
6
CONTINUOUS
10
196.529520
20
-289.050371
30
0.0
11
197.215210
21
-255.709201
31
0.0
0
LINE
8
0
6
CONTINUOUS
10
191.444330
20
-288.949434
30
0.0
11
192.136260
21
-255.337043
31
0.0
0
LINE
8
0
6
CONTINUOUS
10
186.687760
20
-288.978897
30
0.0
11
187.377850
21
-255.446862
31
0.0
0
LINE
8
0
6
CONTINUOUS
10
185.727380
20
-255.974288
30
0.0
11
185.046160
21
-289.121476
31
0.0
0
LINE
8
0
6
CONTINUOUS
10
198.995720
20
-323.055322
30
0.0
11
198.964510
21
-289.222543
31
0.0
0
LINE
8
0
6
CONTINUOUS
10
196.560020
20
-323.059179
30
0.0
11
196.529520
21
-289.050371
31
0.0
0
LINE
8
0
6
CONTINUOUS
10
191.474380
20
-323.067161
30
0.0
11
191.444330
21
-288.949434
31
0.0
0
LINE
8
0
6
CONTINUOUS
10
186.717900
20
-323.074635
30
0.0
11
186.687760
21
-288.978897
31
0.0
0
LINE
8
0
6
CONTINUOUS
10
185.046160
20
-289.121476
30
0.0
11
185.076860
21
-323.077202
31
0.0
0
LINE
8
0
6
CONTINUOUS
10
199.079740
20
-360.635032
30
0.0
11
198.995720
21
-323.055322
31
0.0
0
LINE
8
0
6
CONTINUOUS
10
196.644040
20
-360.641527
30
0.0
11
196.560020
21
-323.059179
31
0.0
0
LINE
8
0
6
CONTINUOUS
10
191.558420
20
-360.655114
30
0.0
11
191.474380
21
-323.067161
31
0.0
0
LINE
8
0
6
CONTINUOUS
10
186.801950
20
-360.667802
30
0.0
11
186.717900
21
-323.074635
31
0.0
0
LINE
8
0
6
CONTINUOUS
10
185.076860
20
-323.077202
30
0.0
11
185.160920
21
-360.672178
31
0.0
0
LINE
8
0
6
CONTINUOUS
10
199.203580
20
-400.416112
30
0.0
11
199.079740
21
-360.635032
31
0.0
0
LINE
8
0
6
CONTINUOUS
10
196.767880
20
-400.424405
30
0.0
11
196.644040
21
-360.641527
31
0.0
0
LINE
8
0
6
CONTINUOUS
10
191.682260
20
-400.441729
30
0.0
11
191.558420
21
-360.655114
31
0.0
0
LINE
8
0
6
CONTINUOUS
10
186.925800
20
-400.457934
30
0.0
11
186.801950
21
-360.667802
31
0.0
0
LINE
8
0
6
CONTINUOUS
10
185.160920
20
-360.672178
30
0.0
11
185.284780
21
-400.463519
31
0.0
0
LINE
8
0
6
CONTINUOUS
10
199.353950
20
-440.903464
30
0.0
11
199.203580
21
-400.416112
31
0.0
0
LINE
8
0
6
CONTINUOUS
10
196.918260
20
-440.912995
30
0.0
11
196.767880
21
-400.424405
31
0.0
0
LINE
8
0
6
CONTINUOUS
10
191.832650
20
-440.932877
30
0.0
11
191.682260
21
-400.441729
31
0.0
0
LINE
8
0
6
CONTINUOUS
10
187.076200
20
-440.951480
30
0.0
11
186.925800
21
-400.457934
31
0.0
0
LINE
8
0
6
CONTINUOUS
10
185.284780
20
-400.463519
30
0.0
11
185.435180
21
-440.957894
31
0.0
0
LINE
8
0
6
CONTINUOUS
10
199.517590
20
-480.602489
30
0.0
11
199.353950
21
-440.903464
31
0.0
0
LINE
8
0
6
CONTINUOUS
10
197.081910
20
-480.612820
30
0.0
11
196.918260
21
-440.912995
31
0.0
0
LINE
8
0
6
CONTINUOUS
10
191.996310
20
-480.634390
30
0.0
11
191.832650
21
-440.932877
31
0.0
0
LINE
8
0
6
CONTINUOUS
10
187.239860
20
-480.654561
30
0.0
11
187.076200
21
-440.951480
31
0.0
0
LINE
8
0
6
CONTINUOUS
10
185.435180
20
-440.957894
30
0.0
11
185.598840
21
-480.661515
31
0.0
0
LINE
8
0
6
CONTINUOUS
10
199.681240
20
-518.018859
30
0.0
11
199.517590
21
-480.602489
31
0.0
0
LINE
8
0
6
CONTINUOUS
10
197.245560
20
-518.029609
30
0.0
11
197.081910
21
-480.612820
31
0.0
0
LINE
8
0
6
CONTINUOUS
10
192.159960
20
-518.052059
30
0.0
11
191.996310
21
-480.634390
31
0.0
0
LINE
8
0
6
CONTINUOUS
10
187.403530
20
-518.073049
30
0.0
11
187.239860
21
-480.654561
31
0.0
0
LINE
8
0
6
CONTINUOUS
10
185.598840
20
-480.661515
30
0.0
11
185.762510
21
-518.080303
31
0.0
0
LINE
8
0
6
CONTINUOUS
10
199.831630
20
-551.658516
30
0.0
11
199.681240
21
-518.018859
31
0.0
0
LINE
8
0
6
CONTINUOUS
10
197.395950
20
-551.669256
30
0.0
11
197.245560
21
-518.029609
31
0.0
0
LINE
8
0
6
CONTINUOUS
10
192.310350
20
-551.691685
30
0.0
11
192.159960
21
-518.052059
31
0.0
0
LINE
8
0
6
CONTINUOUS
10
187.553910
20
-551.712656
30
0.0
11
187.403530
21
-518.073049
31
0.0
0
LINE
8
0
6
CONTINUOUS
10
185.762510
20
-518.080303
30
0.0
11
185.912890
21
-551.719889
31
0.0
0
LINE
8
0
6
CONTINUOUS
10
199.955480
20
-580.027999
30
0.0
11
199.831630
21
-551.658516
31
0.0
0
LINE
8
0
6
CONTINUOUS
10
197.519800
20
-580.038039
30
0.0
11
197.395950
21
-551.669256
31
0.0
0
LINE
8
0
6
CONTINUOUS
10
192.434190
20
-580.058990
30
0.0
11
192.310350
21
-551.691685
31
0.0
0
LINE
8
0
6
CONTINUOUS
10
187.677750
20
-580.078582
30
0.0
11
187.553910
21
-551.712656
31
0.0
0
LINE
8
0
6
CONTINUOUS
10
185.912890
20
-551.719889
30
0.0
11
186.036730
21
-580.085346
31
0.0
0
LINE
8
0
6
CONTINUOUS
10
200.039550
20
-601.636207
30
0.0
11
199.955480
21
-580.027999
31
0.0
0
LINE
8
0
6
CONTINUOUS
10
197.603860
20
-601.643750
30
0.0
11
197.519800
21
-580.038039
31
0.0
0
LINE
8
0
6
CONTINUOUS
10
192.518230
20
-601.659526
30
0.0
11
192.434190
21
-580.058990
31
0.0
0
LINE
8
0
6
CONTINUOUS
10
187.761770
20
-601.674262
30
0.0
11
187.677750
21
-580.078582
31
0.0
0
LINE
8
0
6
CONTINUOUS
10
186.036730
20
-580.085346
30
0.0
11
186.120750
21
-601.679358
31
0.0
0
LINE
8
0
6
CONTINUOUS
10
200.070410
20
-615.058948
30
0.0
11
200.039550
21
-601.636207
31
0.0
0
LINE
8
0
6
CONTINUOUS
10
197.634510
20
-615.226774
30
0.0
11
197.603860
21
-601.643750
31
0.0
0
LINE
8
0
6
CONTINUOUS
10
192.548870
20
-615.260773
30
0.0
11
192.518230
21
-601.659526
31
0.0
0
LINE
8
0
6
CONTINUOUS
10
187.792580
20
-615.141033
30
0.0
11
187.761770
21
-601.674262
31
0.0
0
LINE
8
0
6
CONTINUOUS
10
186.120750
20
-601.679358
30
0.0
11
186.151810
21
-614.937699
31
0.0
0
LINE
8
0
6
CONTINUOUS
10
199.810510
20
-634.044304
30
0.0
11
200.070410
21
-615.058948
31
0.0
0
LINE
8
0
6
CONTINUOUS
10
197.364970
20
-634.756320
30
0.0
11
197.634510
21
-615.226774
31
0.0
0
LINE
8
0
6
CONTINUOUS
10
192.277790
20
-634.876890
30
0.0
11
192.548870
21
-615.260773
31
0.0
0
LINE
8
0
6
CONTINUOUS
10
187.528970
20
-634.335387
30
0.0
11
187.792580
21
-615.141033
31
0.0
0
LINE
8
0
6
CONTINUOUS
10
186.151810
20
-614.937699
30
0.0
11
185.900320
21
-633.449000
31
0.0
0
LINE
8
0
6
CONTINUOUS
10
199.078950
20
-649.661730
30
0.0
11
199.810510
21
-634.044304
31
0.0
0
LINE
8
0
6
CONTINUOUS
10
196.594840
20
-651.172154
30
0.0
11
197.364970
21
-634.756320
31
0.0
0
LINE
8
0
6
CONTINUOUS
10
191.501230
20
-651.425672
30
0.0
11
192.277790
21
-634.876890
31
0.0
0
LINE
8
0
6
CONTINUOUS
10
186.781900
20
-650.273769
30
0.0
11
187.528970
21
-634.335387
31
0.0
0
LINE
8
0
6
CONTINUOUS
10
185.900320
20
-633.449000
30
0.0
11
185.201370
21
-648.391226
31
0.0
0
LINE
8
0
6
CONTINUOUS
10
197.950030
20
-662.171130
30
0.0
11
199.078950
21
-649.661730
31
0.0
0
LINE
8
0
6
CONTINUOUS
10
195.391790
20
-664.494198
30
0.0
11
196.594840
21
-651.172154
31
0.0
0
LINE
8
0
6
CONTINUOUS
10
190.286140
20
-664.879864
30
0.0
11
191.501230
21
-651.425672
31
0.0
0
LINE
8
0
6
CONTINUOUS
10
185.623890
20
-663.102185
30
0.0
11
186.781900
21
-650.273769
31
0.0
0
LINE
8
0
6
CONTINUOUS
10
185.201370
20
-648.391226
30
0.0
11
184.136140
21
-660.202506
31
0.0
0
LINE
8
0
6
CONTINUOUS
10
196.502470
20
-671.872536
30
0.0
11
197.950030
21
-662.171130
31
0.0
0
LINE
8
0
6
CONTINUOUS
10
193.838300
20
-674.906571
30
0.0
11
195.391790
21
-664.494198
31
0.0
0
LINE
8
0
6
CONTINUOUS
10
188.715970
20
-675.404185
30
0.0
11
190.286140
21
-664.879864
31
0.0
0
LINE
8
0
6
CONTINUOUS
10
184.136060
20
-673.073883
30
0.0
11
185.623890
21
-663.102185
31
0.0
0
LINE
8
0
6
CONTINUOUS
10
184.136140
20
-660.202506
30
0.0
11
182.781430
21
-669.280725
31
0.0
0
LINE
8
0
6
CONTINUOUS
10
194.820080
20
-679.078652
30
0.0
11
196.502470
21
-671.872536
31
0.0
0
LINE
8
0
6
CONTINUOUS
10
192.034020
20
-682.640104
30
0.0
11
193.838300
21
-674.906571
31
0.0
0
LINE
8
0
6
CONTINUOUS
10
186.893390
20
-683.216914
30
0.0
11
188.715970
21
-675.404185
31
0.0
0
LINE
8
0
6
CONTINUOUS
10
182.409490
20
-680.471134
30
0.0
11
184.136060
21
-673.073883
31
0.0
0
LINE
8
0
6
CONTINUOUS
10
182.781430
20
-669.280725
30
0.0
11
181.208940
21
-676.011227
31
0.0
0
LINE
8
0
6
CONTINUOUS
10
192.987770
20
-684.132364
30
0.0
11
194.820080
21
-679.078652
31
0.0
0
LINE
8
0
6
CONTINUOUS
10
190.082130
20
-688.029298
30
0.0
11
192.034020
21
-682.640104
31
0.0
0
LINE
8
0
6
CONTINUOUS
10
184.924940
20
-688.652526
30
0.0
11
186.893390
21
-683.216914
31
0.0
0
LINE
8
0
6
CONTINUOUS
10
180.537210
20
-685.636963
30
0.0
11
182.409490
21
-680.471134
31
0.0
0
LINE
8
0
6
CONTINUOUS
10
181.208940
20
-676.011227
30
0.0
11
179.489220
21
-680.749139
31
0.0
0
LINE
8
0
6
CONTINUOUS
10
191.087560
20
-687.398536
30
0.0
11
192.987770
21
-684.132364
31
0.0
0
LINE
8
0
6
CONTINUOUS
10
188.076280
20
-691.481209
30
0.0
11
191.087560
21
-687.398536
31
0.0
0
LINE
8
0
6
CONTINUOUS
10
188.076280
20
-691.481209
30
0.0
11
190.082130
21
-688.029298
31
0.0
0
LINE
8
0
6
CONTINUOUS
10
182.906620
20
-692.126387
30
0.0
11
184.924940
21
-688.652526
31
0.0
0
LINE
8
0
6
CONTINUOUS
10
178.606870
20
-688.956137
30
0.0
11
180.537210
21
-685.636963
31
0.0
0
LINE
8
0
6
CONTINUOUS
10
179.489220
20
-680.749139
30
0.0
11
177.695780
21
-683.827564
31
0.0
0
LINE
8
0
6
CONTINUOUS
10
186.098800
20
-693.417782
30
0.0
11
188.076280
21
-691.481209
31
0.0
0
LINE
8
0
6
CONTINUOUS
10
180.922300
20
-694.069834
30
0.0
11
182.906620
21
-692.126387
31
0.0
0
LINE
8
0
6
CONTINUOUS
10
176.700330
20
-690.821165
30
0.0
11
178.606870
21
-688.956137
31
0.0
0
LINE
8
0
6
CONTINUOUS
10
175.906060
20
-685.574790
30
0.0
11
177.695780
21
-683.827564
31
0.0
0
LINE
8
0
6
CONTINUOUS
10
184.224810
20
-694.245243
30
0.0
11
186.098800
21
-693.417782
31
0.0
0
LINE
8
0
6
CONTINUOUS
10
179.049470
20
-694.896775
30
0.0
11
184.224810
21
-694.245243
31
0.0
0
LINE
8
0
6
CONTINUOUS
10
179.049470
20
-694.896775
30
0.0
11
180.922300
21
-694.069834
31
0.0
0
LINE
8
0
6
CONTINUOUS
10
174.897550
20
-691.615556
30
0.0
11
176.700330
21
-690.821165
31
0.0
0
LINE
8
0
6
CONTINUOUS
10
174.201200
20
-686.323683
30
0.0
11
175.906060
21
-685.574790
31
0.0
0
LINE
8
0
6
CONTINUOUS
10
179.004760
20
-681.403958
30
0.0
11
177.368330
21
-682.121080
31
0.0
0
LINE
8
0
6
CONTINUOUS
10
177.357930
20
-695.000000
30
0.0
11
179.049470
21
-694.896775
31
0.0
0
LINE
8
0
6
CONTINUOUS
10
173.267390
20
-691.714156
30
0.0
11
174.897550
21
-691.615556
31
0.0
0
LINE
8
0
6
CONTINUOUS
10
172.654310
20
-686.416018
30
0.0
11
174.201200
21
-686.323683
31
0.0
0
LINE
8
0
6
CONTINUOUS
10
175.877840
20
-682.209159
30
0.0
11
177.368330
21
-682.121080
31
0.0
0
LINE
8
0
6
CONTINUOUS
10
175.545580
20
-694.595781
30
0.0
11
177.357930
21
-695.000000
31
0.0
0
LINE
8
0
6
CONTINUOUS
10
171.506370
20
-691.321776
30
0.0
11
173.267390
21
-691.714156
31
0.0
0
LINE
8
0
6
CONTINUOUS
10
170.972720
20
-686.041941
30
0.0
11
172.654310
21
-686.416018
31
0.0
0
LINE
8
0
6
CONTINUOUS
10
174.257220
20
-681.849150
30
0.0
11
175.877840
21
-682.209159
31
0.0
0
LINE
8
0
6
CONTINUOUS
10
173.346810
20
-693.421319
30
0.0
11
175.545580
21
-694.595781
31
0.0
0
LINE
8
0
6
CONTINUOUS
10
169.361600
20
-690.177096
30
0.0
11
173.346810
21
-693.421319
31
0.0
0
LINE
8
0
6
CONTINUOUS
10
169.361600
20
-690.177096
30
0.0
11
171.506370
21
-691.321776
31
0.0
0
LINE
8
0
6
CONTINUOUS
10
168.918860
20
-684.947406
30
0.0
11
170.972720
21
-686.041941
31
0.0
0
LINE
8
0
6
CONTINUOUS
10
172.277960
20
-680.795756
30
0.0
11
174.257220
21
-681.849150
31
0.0
0
LINE
8
0
6
CONTINUOUS
10
179.435870
20
-681.199456
30
0.0
11
177.471170
21
-680.154095
31
0.0
0
LINE
8
0
6
CONTINUOUS
10
166.965890
20
-687.939770
30
0.0
11
169.361600
21
-690.177096
31
0.0
0
LINE
8
0
6
CONTINUOUS
10
166.634710
20
-682.816981
30
0.0
11
168.918860
21
-684.947406
31
0.0
0
LINE
8
0
6
CONTINUOUS
10
170.083730
20
-678.751483
30
0.0
11
172.277960
21
-680.795756
31
0.0
0
LINE
8
0
6
CONTINUOUS
10
177.471170
20
-680.154095
30
0.0
11
175.292550
21
-678.124788
31
0.0
0
LINE
8
0
6
CONTINUOUS
10
179.186150
20
-681.269356
30
0.0
11
176.867980
21
-677.888205
31
0.0
0
LINE
8
0
6
CONTINUOUS
10
164.445540
20
-684.257449
30
0.0
11
166.965890
21
-687.939770
31
0.0
0
LINE
8
0
6
CONTINUOUS
10
164.249900
20
-679.337135
30
0.0
11
166.634710
21
-682.816981
31
0.0
0
LINE
8
0
6
CONTINUOUS
10
167.807310
20
-675.433548
30
0.0
11
170.083730
21
-678.751483
31
0.0
0
LINE
8
0
6
CONTINUOUS
10
175.292550
20
-678.124788
30
0.0
11
173.033890
21
-674.833378
31
0.0
0
LINE
8
0
6
CONTINUOUS
10
176.867980
20
-677.888205
30
0.0
11
174.560170
21
-672.860249
31
0.0
0
LINE
8
0
6
CONTINUOUS
10
161.929590
20
-678.766189
30
0.0
11
164.445540
21
-684.257449
31
0.0
0
LINE
8
0
6
CONTINUOUS
10
161.893360
20
-674.200699
30
0.0
11
164.249900
21
-679.337135
31
0.0
0
LINE
8
0
6
CONTINUOUS
10
165.577770
20
-670.579792
30
0.0
11
167.807310
21
-675.433548
31
0.0
0
LINE
8
0
6
CONTINUOUS
10
173.033890
20
-674.833378
30
0.0
11
170.824540
21
-670.024562
31
0.0
0
LINE
8
0
6
CONTINUOUS
10
174.560170
20
-672.860249
30
0.0
11
172.410310
21
-665.934835
31
0.0
0
LINE
8
0
6
CONTINUOUS
10
159.552820
20
-671.096628
30
0.0
11
161.929590
21
-678.766189
31
0.0
0
LINE
8
0
6
CONTINUOUS
10
159.691180
20
-667.103713
30
0.0
11
161.893360
21
-674.200699
31
0.0
0
LINE
8
0
6
CONTINUOUS
10
163.514370
20
-663.937948
30
0.0
11
165.577770
21
-670.579792
31
0.0
0
LINE
8
0
6
CONTINUOUS
10
170.824540
20
-670.024562
30
0.0
11
168.782800
21
-663.453782
31
0.0
0
LINE
8
0
6
CONTINUOUS
10
172.410310
20
-665.934835
30
0.0
11
170.533710
21
-656.807882
31
0.0
0
LINE
8
0
6
CONTINUOUS
10
157.458520
20
-660.898208
30
0.0
11
159.552820
21
-671.096628
31
0.0
0
LINE
8
0
6
CONTINUOUS
10
157.764880
20
-657.732094
30
0.0
11
159.691180
21
-667.103713
31
0.0
0
LINE
8
0
6
CONTINUOUS
10
161.721400
20
-655.222617
30
0.0
11
163.514370
21
-663.937948
31
0.0
0
LINE
8
0
6
CONTINUOUS
10
168.782800
20
-663.453782
30
0.0
11
167.010430
21
-654.839798
31
0.0
0
LINE
8
0
6
CONTINUOUS
10
170.533710
20
-656.807882
30
0.0
11
169.040690
21
-645.120838
31
0.0
0
LINE
8
0
6
CONTINUOUS
10
155.795010
20
-647.874790
30
0.0
11
157.458520
21
-660.898208
31
0.0
0
LINE
8
0
6
CONTINUOUS
10
156.233170
20
-645.741828
30
0.0
11
157.764880
21
-657.732094
31
0.0
0
LINE
8
0
6
CONTINUOUS
10
160.294230
20
-644.051709
30
0.0
11
161.721400
21
-655.222617
31
0.0
0
LINE
8
0
6
CONTINUOUS
10
167.010430
20
-654.839798
30
0.0
11
165.599280
21
-643.794485
31
0.0
0
LINE
8
0
6
CONTINUOUS
10
169.040690
20
-645.120838
30
0.0
11
168.047890
21
-630.456596
31
0.0
0
LINE
8
0
6
CONTINUOUS
10
154.704230
20
-631.788914
30
0.0
11
155.795010
21
-647.874790
31
0.0
0
LINE
8
0
6
CONTINUOUS
10
155.218240
20
-630.756501
30
0.0
11
156.233170
21
-645.741828
31
0.0
0
LINE
8
0
6
CONTINUOUS
10
159.339420
20
-629.938652
30
0.0
11
160.294230
21
-644.051709
31
0.0
0
LINE
8
0
6
CONTINUOUS
10
165.599280
20
-643.794485
30
0.0
11
164.653640
21
-629.814416
31
0.0
0
LINE
8
0
6
CONTINUOUS
10
168.047890
20
-630.456596
30
0.0
11
167.685430
21
-612.243812
31
0.0
0
LINE
8
0
6
CONTINUOUS
10
154.314700
20
-612.557204
30
0.0
11
154.704230
21
-631.788914
31
0.0
0
LINE
8
0
6
CONTINUOUS
10
154.849690
20
-612.314217
30
0.0
11
155.218240
21
-630.756501
31
0.0
0
LINE
8
0
6
CONTINUOUS
10
158.987480
20
-612.121774
30
0.0
11
159.339420
21
-629.938652
31
0.0
0
LINE
8
0
6
CONTINUOUS
10
164.653640
20
-629.814416
30
0.0
11
164.304220
21
-612.092620
31
0.0
0
LINE
8
0
6
CONTINUOUS
10
167.685430
20
-612.243812
30
0.0
11
167.686220
21
-603.033025
31
0.0
0
LINE
8
0
6
CONTINUOUS
10
154.313910
20
-603.033505
30
0.0
11
154.314700
21
-612.557204
31
0.0
0
LINE
8
0
6
CONTINUOUS
10
154.850120
20
-603.032855
30
0.0
11
154.849690
21
-612.314217
31
0.0
0
LINE
8
0
6
CONTINUOUS
10
158.988870
20
-603.032436
30
0.0
11
158.987480
21
-612.121774
31
0.0
0
LINE
8
0
6
CONTINUOUS
10
164.304220
20
-612.092620
30
0.0
11
164.305760
21
-603.032506
31
0.0
0
LINE
8
0
6
CONTINUOUS
10
167.686220
20
-603.033025
30
0.0
11
167.686220
21
-595.643107
31
0.0
0
LINE
8
0
6
CONTINUOUS
10
154.313910
20
-595.644186
30
0.0
11
154.313910
21
-603.033505
31
0.0
0
LINE
8
0
6
CONTINUOUS
10
154.850120
20
-595.642748
30
0.0
11
154.850120
21
-603.032855
31
0.0
0
LINE
8
0
6
CONTINUOUS
10
158.988870
20
-595.641839
30
0.0
11
158.988870
21
-603.032436
31
0.0
0
LINE
8
0
6
CONTINUOUS
10
164.305760
20
-603.032506
30
0.0
11
164.305760
21
-595.641988
31
0.0
0
LINE
8
0
6
CONTINUOUS
10
167.686220
20
-595.643107
30
0.0
11
167.686220
21
-589.639168
31
0.0
0
LINE
8
0
6
CONTINUOUS
10
154.313910
20
-589.640856
30
0.0
11
154.313910
21
-595.644186
31
0.0
0
LINE
8
0
6
CONTINUOUS
10
154.850120
20
-589.638638
30
0.0
11
154.850120
21
-595.642748
31
0.0
0
LINE
8
0
6
CONTINUOUS
10
158.988870
20
-589.637220
30
0.0
11
158.988870
21
-595.641839
31
0.0
0
LINE
8
0
6
CONTINUOUS
10
164.305760
20
-595.641988
30
0.0
11
164.305760
21
-589.637449
31
0.0
0
LINE
8
0
6
CONTINUOUS
10
167.686220
20
-589.639168
30
0.0
11
167.686220
21
-584.429669
31
0.0
0
LINE
8
0
6
CONTINUOUS
10
154.313910
20
-584.431757
30
0.0
11
154.313910
21
-589.640856
31
0.0
0
LINE
8
0
6
CONTINUOUS
10
154.850120
20
-584.428990
30
0.0
11
154.850120
21
-589.638638
31
0.0
0
LINE
8
0
6
CONTINUOUS
10
158.988870
20
-584.427231
30
0.0
11
158.988870
21
-589.637220
31
0.0
0
LINE
8
0
6
CONTINUOUS
10
164.305760
20
-589.637449
30
0.0
11
164.305760
21
-584.427521
31
0.0
0
LINE
8
0
6
CONTINUOUS
10
167.686220
20
-584.429669
30
0.0
11
167.686220
21
-579.423024
31
0.0
0
LINE
8
0
6
CONTINUOUS
10
154.313910
20
-579.425162
30
0.0
11
154.313910
21
-584.431757
31
0.0
0
LINE
8
0
6
CONTINUOUS
10
154.850120
20
-579.422335
30
0.0
11
154.850120
21
-584.428990
31
0.0
0
LINE
8
0
6
CONTINUOUS
10
158.988870
20
-579.420536
30
0.0
11
158.988870
21
-584.427231
31
0.0
0
LINE
8
0
6
CONTINUOUS
10
164.305760
20
-584.427521
30
0.0
11
164.305760
21
-579.420816
31
0.0
0
LINE
8
0
6
CONTINUOUS
10
167.686220
20
-579.423024
30
0.0
11
167.686220
21
-574.027586
31
0.0
0
LINE
8
0
6
CONTINUOUS
10
154.313910
20
-574.029414
30
0.0
11
154.313910
21
-579.425162
31
0.0
0
LINE
8
0
6
CONTINUOUS
10
154.850120
20
-574.027006
30
0.0
11
154.850120
21
-579.422335
31
0.0
0
LINE
8
0
6
CONTINUOUS
10
158.988870
20
-574.025458
30
0.0
11
158.988870
21
-579.420536
31
0.0
0
LINE
8
0
6
CONTINUOUS
10
164.305760
20
-579.420816
30
0.0
11
164.305760
21
-574.025707
31
0.0
0
LINE
8
0
6
CONTINUOUS
10
167.686220
20
-574.027586
30
0.0
11
167.686220
21
-567.651637
31
0.0
0
LINE
8
0
6
CONTINUOUS
10
154.313910
20
-567.652966
30
0.0
11
154.313910
21
-574.029414
31
0.0
0
LINE
8
0
6
CONTINUOUS
10
154.850120
20
-567.651208
30
0.0
11
154.850120
21
-574.027006
31
0.0
0
LINE
8
0
6
CONTINUOUS
10
158.988870
20
-567.650089
30
0.0
11
158.988870
21
-574.025458
31
0.0
0
LINE
8
0
6
CONTINUOUS
10
164.305760
20
-574.025707
30
0.0
11
164.305760
21
-567.650269
31
0.0
0
LINE
8
0
6
CONTINUOUS
10
167.686220
20
-567.651637
30
0.0
11
167.686220
21
-559.703432
31
0.0
0
LINE
8
0
6
CONTINUOUS
10
154.313910
20
-559.704241
30
0.0
11
154.313910
21
-567.652966
31
0.0
0
LINE
8
0
6
CONTINUOUS
10
154.850120
20
-559.703172
30
0.0
11
154.850120
21
-567.651208
31
0.0
0
LINE
8
0
6
CONTINUOUS
10
158.988870
20
-559.702493
30
0.0
11
158.988870
21
-567.650089
31
0.0
0
LINE
8
0
6
CONTINUOUS
10
164.305760
20
-567.650269
30
0.0
11
164.305760
21
-559.702593
31
0.0
0
LINE
8
0
6
CONTINUOUS
10
167.686220
20
-559.703432
30
0.0
11
167.686220
21
-549.591273
31
0.0
0
LINE
8
0
6
CONTINUOUS
10
154.313910
20
-549.591642
30
0.0
11
154.313910
21
-559.704241
31
0.0
0
LINE
8
0
6
CONTINUOUS
10
154.850120
20
-549.591163
30
0.0
11
154.850120
21
-559.703172
31
0.0
0
LINE
8
0
6
CONTINUOUS
10
158.988870
20
-549.590853
30
0.0
11
158.988870
21
-559.702493
31
0.0
0
LINE
8
0
6
CONTINUOUS
10
164.305760
20
-559.702593
30
0.0
11
164.305760
21
-549.590903
31
0.0
0
LINE
8
0
6
CONTINUOUS
10
167.686220
20
-549.591273
30
0.0
11
167.686220
21
-538.868004
31
0.0
0
LINE
8
0
6
CONTINUOUS
10
154.313910
20
-538.856155
30
0.0
11
154.313910
21
-549.591642
31
0.0
0
LINE
8
0
6
CONTINUOUS
10
154.850120
20
-538.856155
30
0.0
11
154.850120
21
-549.591163
31
0.0
0
LINE
8
0
6
CONTINUOUS
10
158.988870
20
-538.856155
30
0.0
11
158.988870
21
-549.590853
31
0.0
0
LINE
8
0
6
CONTINUOUS
10
164.305760
20
-549.590903
30
0.0
11
164.305760
21
-538.868004
31
0.0
0
LINE
8
0
6
CONTINUOUS
10
179.431373
20
119.751707
30
0.0
11
178.948151
21
121.547881
31
0.0
0
LINE
8
0
6
CONTINUOUS
10
156.229439
20
115.632749
30
0.0
11
156.749770
21
113.698710
31
0.0
0
LINE
8
0
6
CONTINUOUS
10
159.149406
20
116.508401
30
0.0
11
157.457697
21
116.056917
31
0.0
0
LINE
8
0
6
CONTINUOUS
10
157.457697
20
116.056917
30
0.0
11
156.453508
21
115.788996
31
0.0
0
LINE
8
0
6
CONTINUOUS
10
167.012199
20
118.606767
30
0.0
11
164.095201
21
117.828305
31
0.0
0
LINE
8
0
6
CONTINUOUS
10
156.205251
20
115.722708
30
0.0
11
156.229439
21
115.632749
31
0.0
0
LINE
8
0
6
CONTINUOUS
10
156.453508
20
115.788996
30
0.0
11
156.205251
21
115.722708
31
0.0
0
LINE
8
0
6
CONTINUOUS
10
164.095201
20
117.828305
30
0.0
11
161.413332
21
117.112627
31
0.0
0
LINE
8
0
6
CONTINUOUS
10
161.413332
20
117.112627
30
0.0
11
159.149406
21
116.508401
31
0.0
0
LINE
8
0
6
CONTINUOUS
10
156.749770
20
113.698710
30
0.0
11
157.371284
21
111.805060
31
0.0
0
LINE
8
0
6
CONTINUOUS
10
179.687133
20
118.542774
30
0.0
11
179.431373
21
119.751707
31
0.0
0
LINE
8
0
6
CONTINUOUS
10
177.588340
20
89.790011
30
0.0
11
175.024512
21
89.105814
31
0.0
0
LINE
8
0
6
CONTINUOUS
10
183.869482
20
91.466267
30
0.0
11
183.782097
21
91.442946
31
0.0
0
LINE
8
0
6
CONTINUOUS
10
175.024512
20
89.105814
30
0.0
11
172.492274
21
88.430066
31
0.0
0
LINE
8
0
6
CONTINUOUS
10
183.782097
20
91.442946
30
0.0
11
182.121596
21
90.999842
31
0.0
0
LINE
8
0
6
CONTINUOUS
10
172.492274
20
88.430066
30
0.0
11
170.164188
21
87.808771
31
0.0
0
LINE
8
0
6
CONTINUOUS
10
182.121596
20
90.999842
30
0.0
11
180.009015
21
90.436036
31
0.0
0
LINE
8
0
6
CONTINUOUS
10
170.164188
20
87.808771
30
0.0
11
168.723576
21
87.424307
31
0.0
0
LINE
8
0
6
CONTINUOUS
10
180.009015
20
90.436036
30
0.0
11
177.588340
21
89.790011
31
0.0
0
LINE
8
0
6
CONTINUOUS
10
118.204330
20
-511.935632
30
0.0
11
118.204330
21
-517.244390
31
0.0
0
LINE
8
0
6
CONTINUOUS
10
118.452090
20
-490.765891
30
0.0
11
118.204330
21
-491.397592
31
0.0
0
LINE
8
0
6
CONTINUOUS
10
118.204330
20
-491.397592
30
0.0
11
118.204330
21
-492.155606
31
0.0
0
LINE
8
0
6
CONTINUOUS
10
118.204330
20
-492.155606
30
0.0
11
118.204330
21
-494.177880
31
0.0
0
LINE
8
0
6
CONTINUOUS
10
115.881710
20
-491.738778
30
0.0
11
113.301030
21
-492.168504
31
0.0
0
LINE
8
0
6
CONTINUOUS
10
113.301030
20
-492.168504
30
0.0
11
109.860090
21
-493.027945
31
0.0
0
LINE
8
0
6
CONTINUOUS
10
118.204330
20
-497.400772
30
0.0
11
118.204330
21
-501.697978
31
0.0
0
LINE
8
0
6
CONTINUOUS
10
118.204330
20
-501.697978
30
0.0
11
118.204330
21
-506.626865
31
0.0
0
LINE
8
0
6
CONTINUOUS
10
118.204330
20
-506.626865
30
0.0
11
118.204330
21
-511.935632
31
0.0
0
LINE
8
0
6
CONTINUOUS
10
118.204330
20
-494.177880
30
0.0
11
118.204330
21
-497.400772
31
0.0
0
LINE
8
0
6
CONTINUOUS
10
118.204330
20
-522.173286
30
0.0
11
118.204330
21
-526.470493
31
0.0
0
LINE
8
0
6
CONTINUOUS
10
118.204330
20
-517.244390
30
0.0
11
118.204330
21
-522.173286
31
0.0
0
LINE
8
0
6
CONTINUOUS
10
118.204330
20
-526.470493
30
0.0
11
118.204330
21
-529.693395
31
0.0
0
LINE
8
0
6
CONTINUOUS
10
118.204330
20
-529.693395
30
0.0
11
118.204330
21
-531.715659
31
0.0
0
LINE
8
0
6
CONTINUOUS
10
118.204330
20
-531.715659
30
0.0
11
118.204330
21
-532.473683
31
0.0
0
LINE
8
0
6
CONTINUOUS
10
118.204330
20
-532.473683
30
0.0
11
118.452090
21
-533.105373
31
0.0
0
LINE
8
0
6
CONTINUOUS
10
115.568460
20
-533.851359
30
0.0
11
115.881710
21
-533.851359
31
0.0
0
LINE
8
0
6
CONTINUOUS
10
109.860090
20
-490.019896
30
0.0
11
109.613290
21
-490.019896
31
0.0
0
LINE
8
0
6
CONTINUOUS
10
115.568460
20
-530.929270
30
0.0
11
89.374320
21
-531.128737
31
0.0
0
LINE
8
0
6
CONTINUOUS
10
89.365390
20
-535.060679
30
0.0
11
115.568460
21
-533.851359
31
0.0
0
LINE
8
0
6
CONTINUOUS
10
109.613290
20
-490.019896
30
0.0
11
89.086830
21
-490.019896
31
0.0
0
LINE
8
0
6
CONTINUOUS
10
83.958370
20
-496.468258
30
0.0
11
82.825930
21
-501.016594
31
0.0
0
LINE
8
0
6
CONTINUOUS
10
85.368660
20
-490.803847
30
0.0
11
84.834430
21
-492.949567
31
0.0
0
LINE
8
0
6
CONTINUOUS
10
72.149210
20
-567.674476
30
0.0
11
73.930080
21
-560.443773
31
0.0
0
LINE
8
0
6
CONTINUOUS
10
85.560920
20
-490.031605
30
0.0
11
85.368660
21
-490.803847
31
0.0
0
LINE
8
0
6
CONTINUOUS
10
86.013530
20
-490.030107
30
0.0
11
85.560920
21
-490.031605
31
0.0
0
LINE
8
0
6
CONTINUOUS
10
62.347530
20
-583.267206
30
0.0
11
61.470740
21
-586.788744
31
0.0
0
LINE
8
0
6
CONTINUOUS
10
61.470740
20
-586.788744
30
0.0
11
60.936130
21
-588.936013
31
0.0
0
LINE
8
0
6
CONTINUOUS
10
60.743660
20
-589.709044
30
0.0
11
61.193680
21
-589.660728
31
0.0
0
LINE
8
0
6
CONTINUOUS
10
60.936130
20
-588.936013
30
0.0
11
60.743660
21
-589.709044
31
0.0
0
LINE
8
0
6
CONTINUOUS
10
66.196140
20
-567.809413
30
0.0
11
64.785410
21
-573.475602
31
0.0
0
LINE
8
0
6
CONTINUOUS
10
63.480940
20
-578.714974
30
0.0
11
62.347530
21
-583.267206
31
0.0
0
LINE
8
0
6
CONTINUOUS
10
72.421860
20
-557.996379
30
0.0
11
69.931300
21
-567.407072
31
0.0
0
LINE
8
0
6
CONTINUOUS
10
70.769300
20
-573.284448
30
0.0
11
72.149210
21
-567.674476
31
0.0
0
LINE
8
0
6
CONTINUOUS
10
69.372510
20
-578.866824
30
0.0
11
70.769300
21
-573.284448
31
0.0
0
LINE
8
0
6
CONTINUOUS
10
68.467810
20
-583.115535
30
0.0
11
69.361430
21
-578.990950
31
0.0
0
LINE
8
0
6
CONTINUOUS
10
66.550000
20
-586.347179
30
0.0
11
68.467810
21
-583.115535
31
0.0
0
LINE
8
0
6
CONTINUOUS
10
86.367480
20
-530.263691
30
0.0
11
83.550440
21
-533.533840
31
0.0
0
LINE
8
0
6
CONTINUOUS
10
73.930080
20
-560.443773
30
0.0
11
75.786640
21
-552.772913
31
0.0
0
LINE
8
0
6
CONTINUOUS
10
83.644760
20
-529.765748
30
0.0
11
83.900380
21
-525.493419
31
0.0
0
LINE
8
0
6
CONTINUOUS
10
74.990490
20
-548.091379
30
0.0
11
72.421860
21
-557.996379
31
0.0
0
LINE
8
0
6
CONTINUOUS
10
84.110500
20
-538.203234
30
0.0
11
86.737950
21
-536.631957
31
0.0
0
LINE
8
0
6
CONTINUOUS
10
78.449120
20
-545.451942
30
0.0
11
84.110500
21
-538.203234
31
0.0
0
LINE
8
0
6
CONTINUOUS
10
75.703400
20
-553.202179
30
0.0
11
78.449120
21
-545.451942
31
0.0
0
LINE
8
0
6
CONTINUOUS
10
67.725740
20
-578.203363
30
0.0
11
68.853790
21
-573.157314
31
0.0
0
LINE
8
0
6
CONTINUOUS
10
63.154210
20
-588.777559
30
0.0
11
66.550000
21
-586.347179
31
0.0
0
LINE
8
0
6
CONTINUOUS
10
61.566280
20
-589.620735
30
0.0
11
63.154210
21
-588.777559
31
0.0
0
LINE
8
0
6
CONTINUOUS
10
61.566280
20
-589.620735
30
0.0
11
62.638610
21
-586.403887
31
0.0
0
LINE
8
0
6
CONTINUOUS
10
69.931300
20
-567.407072
30
0.0
11
68.853790
21
-573.157314
31
0.0
0
LINE
8
0
6
CONTINUOUS
10
89.086830
20
-490.019896
30
0.0
11
86.013530
21
-490.030107
31
0.0
0
LINE
8
0
6
CONTINUOUS
10
62.638610
20
-586.403887
30
0.0
11
63.517060
21
-582.755216
31
0.0
0
LINE
8
0
6
CONTINUOUS
10
61.835790
20
-588.743819
30
0.0
11
62.638610
21
-586.403887
31
0.0
0
LINE
8
0
6
CONTINUOUS
10
61.566280
20
-589.620735
30
0.0
11
61.835790
21
-588.743819
31
0.0
0
LINE
8
0
6
CONTINUOUS
10
61.193680
20
-589.660728
30
0.0
11
61.566280
21
-589.620735
31
0.0
0
LINE
8
0
6
CONTINUOUS
10
63.517060
20
-582.755216
30
0.0
11
64.645030
21
-578.311364
31
0.0
0
LINE
8
0
6
CONTINUOUS
10
68.974080
20
-556.651933
30
0.0
11
66.196140
21
-567.809413
31
0.0
0
LINE
8
0
6
CONTINUOUS
10
78.706000
20
-517.564077
30
0.0
11
77.299700
21
-523.212473
31
0.0
0
LINE
8
0
6
CONTINUOUS
10
81.522570
20
-506.251539
30
0.0
11
82.825930
21
-501.016594
31
0.0
0
LINE
8
0
6
CONTINUOUS
10
80.112330
20
-511.915681
30
0.0
11
81.522570
21
-506.251539
31
0.0
0
LINE
8
0
6
CONTINUOUS
10
83.958370
20
-496.468258
30
0.0
11
84.834430
21
-492.949567
31
0.0
0
LINE
8
0
6
CONTINUOUS
10
63.480940
20
-578.714974
30
0.0
11
64.785410
21
-573.475602
31
0.0
0
LINE
8
0
6
CONTINUOUS
10
74.525690
20
-534.354157
30
0.0
11
77.299700
21
-523.212473
31
0.0
0
LINE
8
0
6
CONTINUOUS
10
71.749180
20
-545.505912
30
0.0
11
74.525690
21
-534.354157
31
0.0
0
LINE
8
0
6
CONTINUOUS
10
68.974080
20
-556.651933
30
0.0
11
71.749180
21
-545.505912
31
0.0
0
LINE
8
0
6
CONTINUOUS
10
89.184500
20
-526.993532
30
0.0
11
86.367480
21
-530.263691
31
0.0
0
LINE
8
0
6
CONTINUOUS
10
89.019360
20
-522.183607
30
0.0
11
89.186280
21
-517.248976
31
0.0
0
LINE
8
0
6
CONTINUOUS
10
89.365390
20
-535.060679
30
0.0
11
89.228480
21
-533.861829
31
0.0
0
LINE
8
0
6
CONTINUOUS
10
86.737950
20
-536.631957
30
0.0
11
89.365390
21
-535.060679
31
0.0
0
LINE
8
0
6
CONTINUOUS
10
89.228480
20
-533.861829
30
0.0
11
89.374320
21
-531.128737
31
0.0
0
LINE
8
0
6
CONTINUOUS
10
89.374320
20
-531.128737
30
0.0
11
86.443810
21
-533.743428
31
0.0
0
LINE
8
0
6
CONTINUOUS
10
80.112330
20
-511.915681
30
0.0
11
78.706000
21
-517.564077
31
0.0
0
LINE
8
0
6
CONTINUOUS
10
119.203420
20
-533.421643
30
0.0
11
143.523610
21
-533.421643
31
0.0
0
LINE
8
0
6
CONTINUOUS
10
118.452090
20
-530.262332
30
0.0
11
118.452090
21
-532.347339
31
0.0
0
LINE
8
0
6
CONTINUOUS
10
118.452090
20
-526.912247
30
0.0
11
118.452090
21
-530.262332
31
0.0
0
LINE
8
0
6
CONTINUOUS
10
118.948420
20
-527.102173
30
0.0
11
118.948420
21
-522.615900
31
0.0
0
LINE
8
0
6
CONTINUOUS
10
118.452090
20
-522.488697
30
0.0
11
118.452090
21
-526.912247
31
0.0
0
LINE
8
0
6
CONTINUOUS
10
119.203420
20
-490.449622
30
0.0
11
118.948420
21
-490.449622
31
0.0
0
LINE
8
0
6
CONTINUOUS
10
118.452090
20
-496.958168
30
0.0
11
118.452090
21
-501.382558
31
0.0
0
LINE
8
0
6
CONTINUOUS
10
118.452090
20
-501.382558
30
0.0
11
118.452090
21
-506.501390
31
0.0
0
LINE
8
0
6
CONTINUOUS
10
118.452090
20
-506.501390
30
0.0
11
118.452090
21
-511.935632
31
0.0
0
LINE
8
0
6
CONTINUOUS
10
118.948420
20
-496.769082
30
0.0
11
118.948420
21
-493.356244
31
0.0
0
LINE
8
0
6
CONTINUOUS
10
118.452090
20
-493.609781
30
0.0
11
118.452090
21
-496.958168
31
0.0
0
LINE
8
0
6
CONTINUOUS
10
118.948420
20
-493.356244
30
0.0
11
118.948420
21
-491.207656
31
0.0
0
LINE
8
0
6
CONTINUOUS
10
118.452090
20
-491.523926
30
0.0
11
118.452090
21
-493.609781
31
0.0
0
LINE
8
0
6
CONTINUOUS
10
118.948420
20
-490.449622
30
0.0
11
118.452090
21
-490.765891
31
0.0
0
LINE
8
0
6
CONTINUOUS
10
118.948420
20
-491.207656
30
0.0
11
118.948420
21
-490.449622
31
0.0
0
LINE
8
0
6
CONTINUOUS
10
118.452090
20
-490.765891
30
0.0
11
118.452090
21
-491.523926
31
0.0
0
LINE
8
0
6
CONTINUOUS
10
118.948420
20
-522.615900
30
0.0
11
118.948420
21
-517.433476
31
0.0
0
LINE
8
0
6
CONTINUOUS
10
118.452090
20
-517.369875
30
0.0
11
118.452090
21
-522.488697
31
0.0
0
LINE
8
0
6
CONTINUOUS
10
118.948420
20
-517.433476
30
0.0
11
118.948420
21
-511.935632
31
0.0
0
LINE
8
0
6
CONTINUOUS
10
118.452090
20
-511.935632
30
0.0
11
118.452090
21
-517.369875
31
0.0
0
LINE
8
0
6
CONTINUOUS
10
118.452090
20
-532.347339
30
0.0
11
118.452090
21
-533.105373
31
0.0
0
LINE
8
0
6
CONTINUOUS
10
118.452090
20
-533.105373
30
0.0
11
118.948420
21
-533.421643
31
0.0
0
LINE
8
0
6
CONTINUOUS
10
118.948420
20
-532.663619
30
0.0
11
118.948420
21
-533.421643
31
0.0
0
LINE
8
0
6
CONTINUOUS
10
118.948420
20
-533.421643
30
0.0
11
119.203420
21
-533.421643
31
0.0
0
LINE
8
0
6
CONTINUOUS
10
118.948420
20
-530.515021
30
0.0
11
118.948420
21
-532.663619
31
0.0
0
LINE
8
0
6
CONTINUOUS
10
118.948420
20
-527.102173
30
0.0
11
118.948420
21
-530.515021
31
0.0
0
LINE
8
0
6
CONTINUOUS
10
143.523610
20
-490.449622
30
0.0
11
119.203420
21
-490.449622
31
0.0
0
LINE
8
0
6
CONTINUOUS
10
118.948420
20
-506.437798
30
0.0
11
118.948420
21
-511.935632
31
0.0
0
LINE
8
0
6
CONTINUOUS
10
118.948420
20
-501.255364
30
0.0
11
118.948420
21
-506.437798
31
0.0
0
LINE
8
0
6
CONTINUOUS
10
118.948420
20
-496.769082
30
0.0
11
118.948420
21
-501.255364
31
0.0
0
LINE
8
0
6
CONTINUOUS
10
110.118160
20
-490.793396
30
0.0
11
110.634320
21
-492.942004
31
0.0
0
LINE
8
0
6
CONTINUOUS
10
111.752620
20
-493.715494
30
0.0
11
111.150460
21
-491.652837
31
0.0
0
LINE
8
0
6
CONTINUOUS
10
110.634320
20
-492.942004
30
0.0
11
111.580570
21
-496.465710
31
0.0
0
LINE
8
0
6
CONTINUOUS
10
112.612830
20
-497.067308
30
0.0
11
111.752620
21
-493.715494
31
0.0
0
LINE
8
0
6
CONTINUOUS
10
115.881710
20
-533.077868
30
0.0
11
115.881710
21
-533.851359
31
0.0
0
LINE
8
0
6
CONTINUOUS
10
116.741930
20
-532.991927
30
0.0
11
116.741930
21
-532.218437
31
0.0
0
LINE
8
0
6
CONTINUOUS
10
115.881710
20
-533.851359
30
0.0
11
116.741930
21
-532.991927
31
0.0
0
LINE
8
0
6
CONTINUOUS
10
115.881710
20
-530.929270
30
0.0
11
115.881710
21
-533.077868
31
0.0
0
LINE
8
0
6
CONTINUOUS
10
116.741930
20
-532.218437
30
0.0
11
116.741930
21
-530.155770
31
0.0
0
LINE
8
0
6
CONTINUOUS
10
116.741930
20
-530.155770
30
0.0
11
116.741930
21
-526.803946
31
0.0
0
LINE
8
0
6
CONTINUOUS
10
115.881710
20
-527.405554
30
0.0
11
115.881710
21
-530.929270
31
0.0
0
LINE
8
0
6
CONTINUOUS
10
116.741930
20
-517.350103
30
0.0
11
116.741930
21
-511.935632
31
0.0
0
LINE
8
0
6
CONTINUOUS
10
115.881710
20
-511.935632
30
0.0
11
115.881710
21
-517.607936
31
0.0
0
LINE
8
0
6
CONTINUOUS
10
116.741930
20
-522.420799
30
0.0
11
116.741930
21
-517.350103
31
0.0
0
LINE
8
0
6
CONTINUOUS
10
115.881710
20
-517.607936
30
0.0
11
115.881710
21
-522.850525
31
0.0
0
LINE
8
0
6
CONTINUOUS
10
115.881710
20
-522.850525
30
0.0
11
115.881710
21
-527.405554
31
0.0
0
LINE
8
0
6
CONTINUOUS
10
116.741930
20
-526.803946
30
0.0
11
116.741930
21
-522.420799
31
0.0
0
LINE
8
0
6
CONTINUOUS
10
114.333300
20
-506.263318
30
0.0
11
115.881710
21
-511.935632
31
0.0
0
LINE
8
0
6
CONTINUOUS
10
116.741930
20
-511.935632
30
0.0
11
115.193520
21
-506.521152
31
0.0
0
LINE
8
0
6
CONTINUOUS
10
115.881710
20
-511.935632
30
0.0
11
116.741930
21
-511.935632
31
0.0
0
LINE
8
0
6
CONTINUOUS
10
112.870920
20
-501.020740
30
0.0
11
114.333300
21
-506.263318
31
0.0
0
LINE
8
0
6
CONTINUOUS
10
115.193520
20
-506.521152
30
0.0
11
113.817150
21
-501.450455
31
0.0
0
LINE
8
0
6
CONTINUOUS
10
111.580570
20
-496.465710
30
0.0
11
112.870920
21
-501.020740
31
0.0
0
LINE
8
0
6
CONTINUOUS
10
113.817150
20
-501.450455
30
0.0
11
112.612830
21
-497.067308
31
0.0
0
LINE
8
0
6
CONTINUOUS
10
109.860090
20
-490.019896
30
0.0
11
110.118160
21
-490.793396
31
0.0
0
LINE
8
0
6
CONTINUOUS
10
110.978410
20
-490.879347
30
0.0
11
109.860090
21
-490.019896
31
0.0
0
LINE
8
0
6
CONTINUOUS
10
111.150460
20
-491.652837
30
0.0
11
110.978410
21
-490.879347
31
0.0
0
LINE
8
0
6
CONTINUOUS
10
143.523610
20
-490.036820
30
0.0
11
143.523610
21
-492.733346
31
0.0
0
LINE
8
0
6
CONTINUOUS
10
143.523610
20
-530.787421
30
0.0
11
143.523610
21
-534.533982
31
0.0
0
LINE
8
0
6
CONTINUOUS
10
143.523610
20
-534.533982
30
0.0
11
143.523610
21
-536.884824
31
0.0
0
LINE
8
0
6
CONTINUOUS
10
143.523610
20
-536.884824
30
0.0
11
143.523610
21
-537.766016
31
0.0
0
LINE
8
0
6
CONTINUOUS
10
143.523610
20
-537.766016
30
0.0
11
143.908590
21
-538.500342
31
0.0
0
LINE
8
0
6
CONTINUOUS
10
143.523610
20
-525.792005
30
0.0
11
143.523610
21
-530.787421
31
0.0
0
LINE
8
0
6
CONTINUOUS
10
143.523610
20
-523.631988
30
0.0
11
143.523610
21
-525.792005
31
0.0
0
LINE
8
0
6
CONTINUOUS
10
143.523610
20
-522.067424
30
0.0
11
143.523610
21
-523.631988
31
0.0
0
LINE
8
0
6
CONTINUOUS
10
143.523610
20
-492.733346
30
0.0
11
143.523610
21
-496.330045
31
0.0
0
LINE
8
0
6
CONTINUOUS
10
143.523610
20
-496.330045
30
0.0
11
143.523610
21
-500.456258
31
0.0
0
LINE
8
0
6
CONTINUOUS
10
143.523610
20
-500.456258
30
0.0
11
143.523610
21
-504.899180
31
0.0
0
LINE
8
0
6
CONTINUOUS
10
143.523610
20
-488.343375
30
0.0
11
143.523610
21
-490.036820
31
0.0
0
LINE
8
0
6
CONTINUOUS
10
143.908590
20
-487.180442
30
0.0
11
143.523610
21
-487.708957
31
0.0
0
LINE
8
0
6
CONTINUOUS
10
143.523610
20
-487.708957
30
0.0
11
143.523610
21
-488.343375
31
0.0
0
LINE
8
0
6
CONTINUOUS
10
143.523610
20
-517.065015
30
0.0
11
143.523610
21
-519.761540
31
0.0
0
LINE
8
0
6
CONTINUOUS
10
143.523610
20
-519.761540
30
0.0
11
143.523610
21
-521.454986
31
0.0
0
LINE
8
0
6
CONTINUOUS
10
143.523610
20
-521.454986
30
0.0
11
143.523610
21
-522.089403
31
0.0
0
LINE
8
0
6
CONTINUOUS
10
143.523610
20
-513.468316
30
0.0
11
143.523610
21
-517.065015
31
0.0
0
LINE
8
0
6
CONTINUOUS
10
143.523610
20
-509.342103
30
0.0
11
143.523610
21
-513.468316
31
0.0
0
LINE
8
0
6
CONTINUOUS
10
143.523610
20
-504.899180
30
0.0
11
143.523610
21
-509.342103
31
0.0
0
LINE
8
0
6
CONTINUOUS
10
143.523610
20
-522.089403
30
0.0
11
143.908590
21
-522.636901
31
0.0
0
LINE
8
0
6
CONTINUOUS
10
162.109617
20
-459.393941
30
0.0
11
161.104180
21
-459.361394
31
0.0
0
LINE
8
0
6
CONTINUOUS
10
161.104180
20
-459.361394
30
0.0
11
154.119130
21
-459.587506
31
0.0
0
LINE
8
0
6
CONTINUOUS
10
154.832410
20
-476.269436
30
0.0
11
154.832410
21
-486.915685
31
0.0
0
LINE
8
0
6
CONTINUOUS
10
154.832410
20
-476.048768
30
0.0
11
154.832410
21
-476.269436
31
0.0
0
LINE
8
0
6
CONTINUOUS
10
153.670000
20
-459.592781
30
0.0
11
152.526310
21
-460.289812
31
0.0
0
LINE
8
0
6
CONTINUOUS
10
161.104180
20
-459.592781
30
0.0
11
162.109617
21
-459.592781
31
0.0
0
LINE
8
0
6
CONTINUOUS
10
153.670000
20
-459.592781
30
0.0
11
153.955920
21
-459.592781
31
0.0
0
LINE
8
0
6
CONTINUOUS
10
153.839730
20
-459.587506
30
0.0
11
153.670000
21
-459.592781
31
0.0
0
LINE
8
0
6
CONTINUOUS
10
154.119130
20
-459.587506
30
0.0
11
153.839730
21
-459.587506
31
0.0
0
LINE
8
0
6
CONTINUOUS
10
154.642180
20
-459.592781
30
0.0
11
155.843090
21
-459.592781
31
0.0
0
LINE
8
0
6
CONTINUOUS
10
153.955920
20
-459.592781
30
0.0
11
154.642180
21
-459.592781
31
0.0
0
LINE
8
0
6
CONTINUOUS
10
159.159870
20
-459.592781
30
0.0
11
161.104180
21
-459.592781
31
0.0
0
LINE
8
0
6
CONTINUOUS
10
155.843090
20
-459.592781
30
0.0
11
157.387100
21
-459.592781
31
0.0
0
LINE
8
0
6
CONTINUOUS
10
157.387100
20
-459.592781
30
0.0
11
159.159870
21
-459.592781
31
0.0
0
LINE
8
0
6
CONTINUOUS
10
143.908590
20
-496.066287
30
0.0
11
143.908590
21
-500.350355
31
0.0
0
LINE
8
0
6
CONTINUOUS
10
143.908590
20
-492.363685
30
0.0
11
143.908590
21
-496.066287
31
0.0
0
LINE
8
0
6
CONTINUOUS
10
143.908590
20
-500.350355
30
0.0
11
143.908590
21
-504.899180
31
0.0
0
LINE
8
0
6
CONTINUOUS
10
143.908590
20
-489.560258
30
0.0
11
143.908590
21
-492.363685
31
0.0
0
LINE
8
0
6
CONTINUOUS
10
143.908590
20
-487.814860
30
0.0
11
143.908590
21
-489.560258
31
0.0
0
LINE
8
0
6
CONTINUOUS
10
144.677600
20
-486.915685
30
0.0
11
143.908590
21
-487.180442
31
0.0
0
LINE
8
0
6
CONTINUOUS
10
143.908590
20
-487.180442
30
0.0
11
143.908590
21
-487.814860
31
0.0
0
LINE
8
0
6
CONTINUOUS
10
143.908590
20
-517.434675
30
0.0
11
143.908590
21
-520.238102
31
0.0
0
LINE
8
0
6
CONTINUOUS
10
143.908590
20
-520.238102
30
0.0
11
143.908590
21
-521.983501
31
0.0
0
LINE
8
0
6
CONTINUOUS
10
185.626196
20
-486.915685
30
0.0
11
144.677600
21
-486.915685
31
0.0
0
LINE
8
0
6
CONTINUOUS
10
143.908590
20
-521.983501
30
0.0
11
143.908590
21
-522.617918
31
0.0
0
LINE
8
0
6
CONTINUOUS
10
143.908590
20
-513.732074
30
0.0
11
143.908590
21
-517.434675
31
0.0
0
LINE
8
0
6
CONTINUOUS
10
143.908590
20
-509.448005
30
0.0
11
143.908590
21
-513.732074
31
0.0
0
LINE
8
0
6
CONTINUOUS
10
143.908590
20
-504.899180
30
0.0
11
143.908590
21
-509.448005
31
0.0
0
LINE
8
0
6
CONTINUOUS
10
144.677600
20
-522.882675
30
0.0
11
185.783978
21
-522.882675
31
0.0
0
LINE
8
0
6
CONTINUOUS
10
152.526310
20
-466.232877
30
0.0
11
152.812230
21
-466.232877
31
0.0
0
LINE
8
0
6
CONTINUOUS
10
152.526310
20
-465.935730
30
0.0
11
152.526310
21
-466.232877
31
0.0
0
LINE
8
0
6
CONTINUOUS
10
152.812230
20
-466.232877
30
0.0
11
153.670000
21
-466.232877
31
0.0
0
LINE
8
0
6
CONTINUOUS
10
153.670000
20
-466.232877
30
0.0
11
155.042500
21
-466.232877
31
0.0
0
LINE
8
0
6
CONTINUOUS
10
155.042500
20
-466.232877
30
0.0
11
156.815230
21
-466.232877
31
0.0
0
LINE
8
0
6
CONTINUOUS
10
156.815230
20
-466.232877
30
0.0
11
158.873950
21
-466.232877
31
0.0
0
LINE
8
0
6
CONTINUOUS
10
158.873950
20
-466.232877
30
0.0
11
161.104180
21
-466.232877
31
0.0
0
LINE
8
0
6
CONTINUOUS
10
161.104180
20
-466.232877
30
0.0
11
162.109617
21
-466.232877
31
0.0
0
LINE
8
0
6
CONTINUOUS
10
155.568730
20
-476.048768
30
0.0
11
157.189650
21
-476.048768
31
0.0
0
LINE
8
0
6
CONTINUOUS
10
153.531860
20
-476.048768
30
0.0
11
154.313760
21
-476.048768
31
0.0
0
LINE
8
0
6
CONTINUOUS
10
153.270600
20
-475.788477
30
0.0
11
153.270600
21
-476.048768
31
0.0
0
LINE
8
0
6
CONTINUOUS
10
153.270600
20
-476.048768
30
0.0
11
153.531860
21
-476.048768
31
0.0
0
LINE
8
0
6
CONTINUOUS
10
157.189650
20
-476.048768
30
0.0
11
159.066270
21
-476.048768
31
0.0
0
LINE
8
0
6
CONTINUOUS
10
154.313760
20
-476.048768
30
0.0
11
155.568730
21
-476.048768
31
0.0
0
LINE
8
0
6
CONTINUOUS
10
161.104180
20
-476.048768
30
0.0
11
162.109617
21
-476.048768
31
0.0
0
LINE
8
0
6
CONTINUOUS
10
159.066270
20
-476.048768
30
0.0
11
161.104180
21
-476.048768
31
0.0
0
LINE
8
0
6
CONTINUOUS
10
153.270600
20
-466.458920
30
0.0
11
153.270600
21
-475.788477
31
0.0
0
LINE
8
0
6
CONTINUOUS
10
153.270600
20
-466.232877
30
0.0
11
153.270600
21
-466.458920
31
0.0
0
LINE
8
0
6
CONTINUOUS
10
152.526310
20
-460.289812
30
0.0
11
152.526310
21
-460.555498
31
0.0
0
LINE
8
0
6
CONTINUOUS
10
152.812230
20
-460.289812
30
0.0
11
152.526310
21
-460.289812
31
0.0
0
LINE
8
0
6
CONTINUOUS
10
162.109617
20
-460.289812
30
0.0
11
161.104180
21
-460.289812
31
0.0
0
LINE
8
0
6
CONTINUOUS
10
161.104180
20
-460.289812
30
0.0
11
158.873950
21
-460.289812
31
0.0
0
LINE
8
0
6
CONTINUOUS
10
158.873950
20
-460.289812
30
0.0
11
156.815230
21
-460.289812
31
0.0
0
LINE
8
0
6
CONTINUOUS
10
156.815230
20
-460.289812
30
0.0
11
155.042500
21
-460.289812
31
0.0
0
LINE
8
0
6
CONTINUOUS
10
155.042500
20
-460.289812
30
0.0
11
153.670000
21
-460.289812
31
0.0
0
LINE
8
0
6
CONTINUOUS
10
153.670000
20
-460.289812
30
0.0
11
152.812230
21
-460.289812
31
0.0
0
LINE
8
0
6
CONTINUOUS
10
152.526310
20
-460.555498
30
0.0
11
152.526310
21
-465.935730
31
0.0
0
LINE
8
0
6
CONTINUOUS
10
143.908590
20
-537.619151
30
0.0
11
143.908590
21
-538.500342
31
0.0
0
LINE
8
0
6
CONTINUOUS
10
143.908590
20
-538.500342
30
0.0
11
144.677600
21
-538.868004
31
0.0
0
LINE
8
0
6
CONTINUOUS
10
143.908590
20
-535.195375
30
0.0
11
143.908590
21
-537.619151
31
0.0
0
LINE
8
0
6
CONTINUOUS
10
143.908590
20
-531.300949
30
0.0
11
143.908590
21
-535.195375
31
0.0
0
LINE
8
0
6
CONTINUOUS
10
143.908590
20
-526.158669
30
0.0
11
143.908590
21
-531.300949
31
0.0
0
LINE
8
0
6
CONTINUOUS
10
144.677600
20
-526.306533
30
0.0
11
144.677600
21
-524.013637
31
0.0
0
LINE
8
0
6
CONTINUOUS
10
143.908590
20
-523.935709
30
0.0
11
143.908590
21
-526.158669
31
0.0
0
LINE
8
0
6
CONTINUOUS
10
144.677600
20
-522.882675
30
0.0
11
143.908590
21
-522.636901
31
0.0
0
LINE
8
0
6
CONTINUOUS
10
143.908590
20
-522.636901
30
0.0
11
143.908590
21
-523.935709
31
0.0
0
LINE
8
0
6
CONTINUOUS
10
144.677600
20
-537.986813
30
0.0
11
144.677600
21
-538.868004
31
0.0
0
LINE
8
0
6
CONTINUOUS
10
144.677600
20
-538.868004
30
0.0
11
185.855438
21
-538.868004
31
0.0
0
LINE
8
0
6
CONTINUOUS
10
144.677600
20
-535.489105
30
0.0
11
144.677600
21
-537.986813
31
0.0
0
LINE
8
0
6
CONTINUOUS
10
199.569364
20
-492.439805
30
0.0
11
200.442337
21
-492.439805
31
0.0
0
LINE
8
0
6
CONTINUOUS
10
200.442337
20
-489.775556
30
0.0
11
199.557711
21
-489.775556
31
0.0
0
LINE
8
0
6
CONTINUOUS
10
199.690123
20
-520.005890
30
0.0
11
200.442337
21
-520.005890
31
0.0
0
LINE
8
0
6
CONTINUOUS
10
200.442337
20
-517.171700
30
0.0
11
199.677535
21
-517.171700
31
0.0
0
LINE
8
0
6
CONTINUOUS
10
199.635480
20
-507.556380
30
0.0
11
200.442337
21
-507.556380
31
0.0
0
LINE
8
0
6
CONTINUOUS
10
200.442337
20
-502.057931
30
0.0
11
199.611431
21
-502.057931
31
0.0
0
LINE
8
0
6
CONTINUOUS
10
200.442337
20
-489.772699
30
0.0
11
199.557698
21
-489.772699
31
0.0
0
LINE
8
0
6
CONTINUOUS
10
199.557711
20
-489.775556
30
0.0
11
200.442337
21
-489.775556
31
0.0
0
LINE
8
0
6
CONTINUOUS
10
207.256286
20
-489.775556
30
0.0
11
206.893517
21
-489.775556
31
0.0
0
LINE
8
0
6
CONTINUOUS
10
208.003162
20
-498.528118
30
0.0
11
208.003162
21
-496.133836
31
0.0
0
LINE
8
0
6
CONTINUOUS
10
207.256286
20
-489.775556
30
0.0
11
207.178898
21
-492.439805
31
0.0
0
LINE
8
0
6
CONTINUOUS
10
207.328508
20
-489.775556
30
0.0
11
207.256286
21
-489.775556
31
0.0
0
LINE
8
0
6
CONTINUOUS
10
207.258582
20
-492.796885
30
0.0
11
207.178898
21
-492.439805
31
0.0
0
LINE
8
0
6
CONTINUOUS
10
207.178898
20
-492.439805
30
0.0
11
206.823782
21
-492.439805
31
0.0
0
LINE
8
0
6
CONTINUOUS
10
207.258582
20
-492.796885
30
0.0
11
208.003162
21
-496.133836
31
0.0
0
LINE
8
0
6
CONTINUOUS
10
208.003162
20
-489.775556
30
0.0
11
207.328508
21
-489.775556
31
0.0
0
LINE
8
0
6
CONTINUOUS
10
208.003162
20
-496.133836
30
0.0
11
208.003162
21
-489.775556
31
0.0
0
LINE
8
0
6
CONTINUOUS
10
206.893517
20
-489.775556
30
0.0
11
200.442337
21
-489.775556
31
0.0
0
LINE
8
0
6
CONTINUOUS
10
200.442337
20
-492.439805
30
0.0
11
206.823782
21
-492.439805
31
0.0
0
LINE
8
0
6
CONTINUOUS
10
206.823782
20
-520.005890
30
0.0
11
207.178898
21
-520.005890
31
0.0
0
LINE
8
0
6
CONTINUOUS
10
207.178898
20
-520.005890
30
0.0
11
207.258582
21
-520.005890
31
0.0
0
LINE
8
0
6
CONTINUOUS
10
207.256286
20
-517.171700
30
0.0
11
207.178970
21
-520.003283
31
0.0
0
LINE
8
0
6
CONTINUOUS
10
206.893517
20
-517.171700
30
0.0
11
207.256286
21
-517.171700
31
0.0
0
LINE
8
0
6
CONTINUOUS
10
207.256286
20
-517.171700
30
0.0
11
207.328508
21
-516.831010
31
0.0
0
LINE
8
0
6
CONTINUOUS
10
207.258582
20
-520.005890
30
0.0
11
208.003162
21
-520.005890
31
0.0
0
LINE
8
0
6
CONTINUOUS
10
208.003162
20
-513.647520
30
0.0
11
207.328508
21
-516.831010
31
0.0
0
LINE
8
0
6
CONTINUOUS
10
208.003162
20
-520.005890
30
0.0
11
208.003162
21
-513.647520
31
0.0
0
LINE
8
0
6
CONTINUOUS
10
206.893517
20
-517.171700
30
0.0
11
200.442337
21
-517.171700
31
0.0
0
LINE
8
0
6
CONTINUOUS
10
200.442337
20
-520.005890
30
0.0
11
206.823782
21
-520.005890
31
0.0
0
LINE
8
0
6
CONTINUOUS
10
207.256276
20
-502.057931
30
0.0
11
207.178888
21
-507.556380
31
0.0
0
LINE
8
0
6
CONTINUOUS
10
206.893507
20
-502.057931
30
0.0
11
207.256276
21
-502.057931
31
0.0
0
LINE
8
0
6
CONTINUOUS
10
207.256276
20
-502.057931
30
0.0
11
207.328498
21
-501.717241
31
0.0
0
LINE
8
0
6
CONTINUOUS
10
207.258572
20
-507.913451
30
0.0
11
207.178888
21
-507.556380
31
0.0
0
LINE
8
0
6
CONTINUOUS
10
207.178888
20
-507.556380
30
0.0
11
206.823772
21
-507.556380
31
0.0
0
LINE
8
0
6
CONTINUOUS
10
206.893507
20
-502.057931
30
0.0
11
200.442337
21
-502.057931
31
0.0
0
LINE
8
0
6
CONTINUOUS
10
200.442337
20
-507.556380
30
0.0
11
206.823772
21
-507.556380
31
0.0
0
LINE
8
0
6
CONTINUOUS
10
207.566527
20
-489.775556
30
0.0
11
208.003162
21
-489.775556
31
0.0
0
LINE
8
0
6
CONTINUOUS
10
208.003162
20
-489.772699
30
0.0
11
207.566527
21
-489.772699
31
0.0
0
LINE
8
0
6
CONTINUOUS
10
200.442337
20
-489.775556
30
0.0
11
207.566527
21
-489.775556
31
0.0
0
LINE
8
0
6
CONTINUOUS
10
207.566527
20
-489.772699
30
0.0
11
200.442337
21
-489.772699
31
0.0
0
LINE
8
0
6
CONTINUOUS
10
208.003162
20
-513.647520
30
0.0
11
208.003162
21
-511.250412
31
0.0
0
LINE
8
0
6
CONTINUOUS
10
207.258572
20
-507.913451
30
0.0
11
208.003162
21
-511.250412
31
0.0
0
LINE
8
0
6
CONTINUOUS
10
208.003162
20
-498.528118
30
0.0
11
207.328498
21
-501.717241
31
0.0
0
LINE
8
0
6
CONTINUOUS
10
208.003162
20
-511.250412
30
0.0
11
208.003162
21
-498.528118
31
0.0
0
LINE
8
0
6
CONTINUOUS
10
211.996112
20
-538.459946
30
0.0
11
212.957671
21
-538.769245
31
0.0
0
LINE
8
0
6
CONTINUOUS
10
211.656950
20
-473.157898
30
0.0
11
210.268898
21
-491.345160
31
0.0
0
LINE
8
0
6
CONTINUOUS
10
210.268814
20
-518.403395
30
0.0
11
211.860351
21
-536.883367
31
0.0
0
LINE
8
0
6
CONTINUOUS
10
212.957641
20
-538.768955
30
0.0
11
213.601378
21
-538.768955
31
0.0
0
LINE
8
0
6
CONTINUOUS
10
213.601308
20
-470.947800
30
0.0
11
212.957561
21
-470.947800
31
0.0
0
LINE
8
0
6
CONTINUOUS
10
211.996072
20
-538.459656
30
0.0
11
212.957641
21
-538.768955
31
0.0
0
LINE
8
0
6
CONTINUOUS
10
212.957591
20
-486.197022
30
0.0
11
212.957591
21
-480.959941
31
0.0
0
LINE
8
0
6
CONTINUOUS
10
212.957591
20
-480.959941
30
0.0
11
212.957551
21
-476.748597
31
0.0
0
LINE
8
0
6
CONTINUOUS
10
212.957551
20
-476.748597
30
0.0
11
212.957561
21
-473.581727
31
0.0
0
LINE
8
0
6
CONTINUOUS
10
212.957561
20
-473.581727
30
0.0
11
212.957561
21
-471.563042
31
0.0
0
LINE
8
0
6
CONTINUOUS
10
212.957561
20
-470.947800
30
0.0
11
211.777759
21
-471.574398
31
0.0
0
LINE
8
0
6
CONTINUOUS
10
212.957561
20
-471.563042
30
0.0
11
212.957561
21
-470.947800
31
0.0
0
LINE
8
0
6
CONTINUOUS
10
208.003162
20
-518.376428
30
0.0
11
210.268798
21
-518.403394
31
0.0
0
LINE
8
0
6
CONTINUOUS
10
210.268898
20
-491.345160
30
0.0
11
208.003203
21
-491.409316
31
0.0
0
LINE
8
0
6
CONTINUOUS
10
211.996072
20
-538.459656
30
0.0
11
212.003232
21
-537.810346
31
0.0
0
LINE
8
0
6
CONTINUOUS
10
211.860310
20
-536.883078
30
0.0
11
211.996072
21
-538.459656
31
0.0
0
LINE
8
0
6
CONTINUOUS
10
212.003232
20
-537.810346
30
0.0
11
211.982233
21
-535.932159
31
0.0
0
LINE
8
0
6
CONTINUOUS
10
211.982233
20
-535.932159
30
0.0
11
211.991168
21
-532.835991
31
0.0
0
LINE
8
0
6
CONTINUOUS
10
211.991168
20
-532.835991
30
0.0
11
211.987999
21
-528.685143
31
0.0
0
LINE
8
0
6
CONTINUOUS
10
211.987999
20
-528.685143
30
0.0
11
211.958045
21
-523.641224
31
0.0
0
LINE
8
0
6
CONTINUOUS
10
211.958045
20
-523.641224
30
0.0
11
211.951115
21
-517.864946
31
0.0
0
LINE
8
0
6
CONTINUOUS
10
211.951115
20
-517.864946
30
0.0
11
211.941749
21
-511.592231
31
0.0
0
LINE
8
0
6
CONTINUOUS
10
211.941749
20
-511.592231
30
0.0
11
211.908004
21
-505.062871
31
0.0
0
LINE
8
0
6
CONTINUOUS
10
211.908004
20
-505.062871
30
0.0
11
211.888229
21
-498.531374
31
0.0
0
LINE
8
0
6
CONTINUOUS
10
211.888229
20
-498.531374
30
0.0
11
211.879665
21
-492.237025
31
0.0
0
LINE
8
0
6
CONTINUOUS
10
211.879665
20
-492.237025
30
0.0
11
211.819446
21
-486.466011
31
0.0
0
LINE
8
0
6
CONTINUOUS
10
211.819446
20
-486.466011
30
0.0
11
211.800783
21
-481.392079
31
0.0
0
LINE
8
0
6
CONTINUOUS
10
211.800783
20
-481.392079
30
0.0
11
211.800974
21
-477.226299
31
0.0
0
LINE
8
0
6
CONTINUOUS
10
211.800974
20
-477.226299
30
0.0
11
211.789191
21
-474.127085
31
0.0
0
LINE
8
0
6
CONTINUOUS
10
211.789191
20
-474.127085
30
0.0
11
211.767279
21
-472.215159
31
0.0
0
LINE
8
0
6
CONTINUOUS
10
211.777759
20
-471.574398
30
0.0
11
211.656909
21
-473.157609
31
0.0
0
LINE
8
0
6
CONTINUOUS
10
211.767279
20
-472.215159
30
0.0
11
211.777759
21
-471.574398
31
0.0
0
LINE
8
0
6
CONTINUOUS
10
213.601378
20
-538.768955
30
0.0
11
233.930026
21
-538.769025
31
0.0
0
LINE
8
0
6
CONTINUOUS
10
233.929946
20
-470.947800
30
0.0
11
213.601308
21
-470.947800
31
0.0
0
LINE
8
0
6
CONTINUOUS
10
210.268798
20
-518.403394
30
0.0
11
211.860310
21
-536.883078
31
0.0
0
LINE
8
0
6
CONTINUOUS
10
211.656909
20
-473.157609
30
0.0
11
210.268839
21
-491.345162
31
0.0
0
LINE
8
0
6
CONTINUOUS
10
233.930026
20
-538.769025
30
0.0
11
234.999960
21
-538.769025
31
0.0
0
LINE
8
0
6
CONTINUOUS
10
234.999960
20
-538.769025
30
0.0
11
234.999950
21
-538.110277
31
0.0
0
LINE
8
0
6
CONTINUOUS
10
234.999950
20
-538.110277
30
0.0
11
234.999950
21
-536.251056
31
0.0
0
LINE
8
0
6
CONTINUOUS
10
234.999950
20
-536.251056
30
0.0
11
234.999950
21
-533.080061
31
0.0
0
LINE
8
0
6
CONTINUOUS
10
234.999950
20
-533.080061
30
0.0
11
234.999950
21
-528.912293
31
0.0
0
LINE
8
0
6
CONTINUOUS
10
234.999910
20
-523.867085
30
0.0
11
234.999910
21
-517.963166
31
0.0
0
LINE
8
0
6
CONTINUOUS
10
234.999910
20
-517.963166
30
0.0
11
234.999910
21
-511.659518
31
0.0
0
LINE
8
0
6
CONTINUOUS
10
234.999910
20
-511.659518
30
0.0
11
234.999910
21
-505.095631
31
0.0
0
LINE
8
0
6
CONTINUOUS
10
234.999910
20
-505.095631
30
0.0
11
234.999910
21
-498.409993
31
0.0
0
LINE
8
0
6
CONTINUOUS
10
234.999910
20
-498.409993
30
0.0
11
234.999910
21
-492.072197
31
0.0
0
LINE
8
0
6
CONTINUOUS
10
234.999910
20
-492.072197
30
0.0
11
234.999910
21
-486.197022
31
0.0
0
LINE
8
0
6
CONTINUOUS
10
234.999910
20
-486.197022
30
0.0
11
234.999910
21
-480.959941
31
0.0
0
LINE
8
0
6
CONTINUOUS
10
234.999910
20
-480.959941
30
0.0
11
234.999870
21
-476.748517
31
0.0
0
LINE
8
0
6
CONTINUOUS
10
234.999880
20
-470.947800
30
0.0
11
233.929946
21
-470.947800
31
0.0
0
LINE
8
0
6
CONTINUOUS
10
234.999880
20
-471.563042
30
0.0
11
234.999880
21
-470.947800
31
0.0
0
LINE
8
0
6
CONTINUOUS
10
234.999910
20
-473.581727
30
0.0
11
234.999880
21
-471.563042
31
0.0
0
LINE
8
0
6
CONTINUOUS
10
234.999910
20
-523.867085
30
0.0
11
234.999950
21
-528.912293
31
0.0
0
LINE
8
0
6
CONTINUOUS
10
234.999910
20
-473.581727
30
0.0
11
234.999870
21
-476.748517
31
0.0
0
LINE
8
0
6
CONTINUOUS
10
222.633840
20
517.864993
30
0.0
11
182.461402
21
517.864993
31
0.0
0
LINE
8
0
6
CONTINUOUS
10
183.869480
20
516.462600
30
0.0
11
222.633842
21
516.462600
31
0.0
0
LINE
8
0
6
CONTINUOUS
10
178.749838
20
521.696635
30
0.0
11
222.633835
21
521.696635
31
0.0
0
LINE
8
0
6
CONTINUOUS
10
222.633830
20
537.397970
30
0.0
11
183.869482
21
537.397970
31
0.0
0
LINE
8
0
6
CONTINUOUS
10
182.461402
20
535.995737
30
0.0
11
222.633832
21
535.995737
31
0.0
0
LINE
8
0
6
CONTINUOUS
10
222.633835
20
532.164245
30
0.0
11
178.749828
21
532.164245
31
0.0
0
LINE
8
0
6
CONTINUOUS
10
174.369892
20
526.930360
30
0.0
11
222.633835
21
526.930360
31
0.0
0
LINE
8
0
6
CONTINUOUS
10
222.633825
20
557.368808
30
0.0
11
222.633825
21
556.623566
31
0.0
0
LINE
8
0
6
CONTINUOUS
10
223.112268
20
557.399890
30
0.0
11
222.633825
21
557.368808
31
0.0
0
LINE
8
0
6
CONTINUOUS
10
222.633825
20
556.623566
30
0.0
11
222.633825
21
554.424893
31
0.0
0
LINE
8
0
6
CONTINUOUS
10
222.633825
20
554.424893
30
0.0
11
222.633825
21
550.883414
31
0.0
0
LINE
8
0
6
CONTINUOUS
10
222.633825
20
550.883414
30
0.0
11
222.633825
21
546.176380
31
0.0
0
LINE
8
0
6
CONTINUOUS
10
222.633825
20
546.176380
30
0.0
11
222.633825
21
540.540011
31
0.0
0
LINE
8
0
6
CONTINUOUS
10
222.633825
20
540.540011
30
0.0
11
222.633835
21
534.256858
31
0.0
0
LINE
8
0
6
CONTINUOUS
10
222.633835
20
534.256858
30
0.0
11
222.633835
21
527.642073
31
0.0
0
LINE
8
0
6
CONTINUOUS
10
222.633835
20
527.642073
30
0.0
11
222.633835
21
521.027139
31
0.0
0
LINE
8
0
6
CONTINUOUS
10
222.633835
20
521.027139
30
0.0
11
222.633845
21
514.743986
31
0.0
0
LINE
8
0
6
CONTINUOUS
10
222.633845
20
514.743986
30
0.0
11
222.633845
21
509.107617
31
0.0
0
LINE
8
0
6
CONTINUOUS
10
222.633845
20
509.107617
30
0.0
11
222.633845
21
504.400583
31
0.0
0
LINE
8
0
6
CONTINUOUS
10
222.633845
20
504.400583
30
0.0
11
222.633845
21
500.859104
31
0.0
0
LINE
8
0
6
CONTINUOUS
10
222.633845
20
500.859104
30
0.0
11
222.633855
21
498.660431
31
0.0
0
LINE
8
0
6
CONTINUOUS
10
222.633855
20
497.915189
30
0.0
11
223.112298
21
497.884097
31
0.0
0
LINE
8
0
6
CONTINUOUS
10
222.633855
20
498.660431
30
0.0
11
222.633855
21
497.915189
31
0.0
0
LINE
8
0
6
CONTINUOUS
10
234.999970
20
520.941035
30
0.0
11
234.999970
21
527.642073
31
0.0
0
LINE
8
0
6
CONTINUOUS
10
234.999970
20
527.642073
30
0.0
11
234.999960
21
534.343112
31
0.0
0
LINE
8
0
6
CONTINUOUS
10
234.999940
20
546.418083
30
0.0
11
234.999940
21
551.186541
31
0.0
0
LINE
8
0
6
CONTINUOUS
10
234.999940
20
551.186541
30
0.0
11
234.999940
21
554.774193
31
0.0
0
LINE
8
0
6
CONTINUOUS
10
234.999940
20
554.774193
30
0.0
11
234.999940
21
557.001371
31
0.0
0
LINE
8
0
6
CONTINUOUS
10
228.379946
20
557.742338
30
0.0
11
223.112268
21
557.399890
31
0.0
0
LINE
8
0
6
CONTINUOUS
10
223.112298
20
497.884097
30
0.0
11
228.379966
21
497.541809
31
0.0
0
LINE
8
0
6
CONTINUOUS
10
234.999980
20
497.527636
30
0.0
11
234.999980
21
498.282626
31
0.0
0
LINE
8
0
6
CONTINUOUS
10
228.379966
20
497.541809
30
0.0
11
234.999980
21
497.527636
31
0.0
0
LINE
8
0
6
CONTINUOUS
10
234.999980
20
498.282626
30
0.0
11
234.999980
21
500.509804
31
0.0
0
LINE
8
0
6
CONTINUOUS
10
234.999980
20
500.509804
30
0.0
11
234.999980
21
504.097606
31
0.0
0
LINE
8
0
6
CONTINUOUS
10
234.999980
20
504.097606
30
0.0
11
234.999980
21
508.866064
31
0.0
0
LINE
8
0
6
CONTINUOUS
10
234.999980
20
508.866064
30
0.0
11
234.999970
21
514.575883
31
0.0
0
LINE
8
0
6
CONTINUOUS
10
234.999970
20
514.575883
30
0.0
11
234.999970
21
520.941035
31
0.0
0
LINE
8
0
6
CONTINUOUS
10
234.999960
20
534.343112
30
0.0
11
234.999960
21
540.708264
31
0.0
0
LINE
8
0
6
CONTINUOUS
10
234.999960
20
540.708264
30
0.0
11
234.999940
21
546.418083
31
0.0
0
LINE
8
0
6
CONTINUOUS
10
234.999940
20
557.001371
30
0.0
11
234.999950
21
557.756511
31
0.0
0
LINE
8
0
6
CONTINUOUS
10
234.999950
20
557.756511
30
0.0
11
228.379946
21
557.742338
31
0.0
0
LINE
8
0
6
CONTINUOUS
10
-111.005754
20
694.119814
30
0.0
11
-111.145767
21
693.328708
31
0.0
0
LINE
8
0
6
CONTINUOUS
10
-88.513833
20
689.354412
30
0.0
11
-88.373780
21
690.145518
31
0.0
0
LINE
8
0
6
CONTINUOUS
10
-104.388858
20
692.957765
30
0.0
11
-104.528871
21
692.166649
31
0.0
0
LINE
8
0
6
CONTINUOUS
10
-91.462330
20
689.871965
30
0.0
11
-91.322277
21
690.663070
31
0.0
0
LINE
8
0
6
CONTINUOUS
10
-97.183952
20
691.692683
30
0.0
11
-97.324005
21
690.901577
31
0.0
0
LINE
8
0
6
CONTINUOUS
10
-91.322277
20
690.663070
30
0.0
11
-97.183952
21
691.692683
31
0.0
0
LINE
8
0
6
CONTINUOUS
10
-115.402055
20
694.076377
30
0.0
11
-115.262012
21
694.867333
31
0.0
0
LINE
8
0
6
CONTINUOUS
10
-116.017383
20
695.000000
30
0.0
11
-116.157436
21
694.208894
31
0.0
0
LINE
8
0
6
CONTINUOUS
10
-115.262012
20
694.867333
30
0.0
11
-116.017383
21
695.000000
31
0.0
0
LINE
8
0
6
CONTINUOUS
10
-119.970089
20
668.274560
30
0.0
11
-115.713761
21
667.526890
31
0.0
0
LINE
8
0
6
CONTINUOUS
10
-115.713761
20
667.526890
30
0.0
11
-109.096865
21
666.364841
31
0.0
0
LINE
8
0
6
CONTINUOUS
10
-115.563108
20
668.377892
30
0.0
11
-115.713761
21
667.526890
31
0.0
0
LINE
8
0
6
CONTINUOUS
10
-93.081826
20
663.552594
30
0.0
11
-92.931184
21
664.403596
31
0.0
0
LINE
8
0
6
CONTINUOUS
10
-96.030354
20
664.070147
30
0.0
11
-93.081826
21
663.552594
31
0.0
0
LINE
8
0
6
CONTINUOUS
10
-109.096865
20
666.364841
30
0.0
11
-101.891999
21
665.099759
31
0.0
0
LINE
8
0
6
CONTINUOUS
10
-108.946212
20
667.215843
30
0.0
11
-109.096865
21
666.364841
31
0.0
0
LINE
8
0
6
CONTINUOUS
10
-96.030354
20
664.070147
30
0.0
11
-95.879711
21
664.921149
31
0.0
0
LINE
8
0
6
CONTINUOUS
10
-101.891999
20
665.099759
30
0.0
11
-96.030354
21
664.070147
31
0.0
0
LINE
8
0
6
CONTINUOUS
10
-101.741346
20
665.950761
30
0.0
11
-101.891999
21
665.099759
31
0.0
0
LINE
8
0
6
CONTINUOUS
10
-119.970089
20
668.274560
30
0.0
11
-119.819446
21
669.125412
31
0.0
0
LINE
8
0
6
CONTINUOUS
10
-120.574737
20
669.258078
30
0.0
11
-120.725420
21
668.407076
31
0.0
0
LINE
8
0
6
CONTINUOUS
10
-104.388858
20
692.957765
30
0.0
11
-97.183952
21
691.692683
31
0.0
0
LINE
8
0
6
CONTINUOUS
10
-111.005754
20
694.119814
30
0.0
11
-104.388858
21
692.957765
31
0.0
0
LINE
8
0
6
CONTINUOUS
10
-115.262012
20
694.867333
30
0.0
11
-111.005754
21
694.119814
31
0.0
0
LINE
8
0
6
CONTINUOUS
10
-91.322277
20
690.663070
30
0.0
11
-88.373780
21
690.145518
31
0.0
0
LINE
8
0
6
CONTINUOUS
10
-119.970089
20
668.274560
30
0.0
11
-120.725420
21
668.407076
31
0.0
0
LINE
8
0
6
CONTINUOUS
10
-111.145767
20
693.328708
30
0.0
11
-115.563108
21
668.377892
31
0.0
0
LINE
8
0
6
CONTINUOUS
10
-92.931184
20
664.403596
30
0.0
11
-92.477299
21
666.967302
31
0.0
0
LINE
8
0
6
CONTINUOUS
10
-88.905947
20
687.139610
30
0.0
11
-88.513833
21
689.354412
31
0.0
0
LINE
8
0
6
CONTINUOUS
10
-104.528871
20
692.166649
30
0.0
11
-108.946212
21
667.215843
31
0.0
0
LINE
8
0
6
CONTINUOUS
10
-95.879711
20
664.921149
30
0.0
11
-94.667034
21
671.770747
31
0.0
0
LINE
8
0
6
CONTINUOUS
10
-92.612139
20
683.377469
30
0.0
11
-91.462330
21
689.871965
31
0.0
0
LINE
8
0
6
CONTINUOUS
10
-97.324005
20
690.901577
30
0.0
11
-101.741346
21
665.950761
31
0.0
0
LINE
8
0
6
CONTINUOUS
10
-119.819446
20
669.125412
30
0.0
11
-115.402055
21
694.076377
31
0.0
0
LINE
8
0
6
CONTINUOUS
10
-116.157436
20
694.208894
30
0.0
11
-120.574737
21
669.258078
31
0.0
0
LINE
8
0
6
CONTINUOUS
10
-97.245679
20
663.032522
30
0.0
11
-97.038935
21
664.247267
31
0.0
0
LINE
8
0
6
CONTINUOUS
10
-99.152146
20
664.618521
30
0.0
11
-99.358909
21
663.403685
31
0.0
0
LINE
8
0
6
CONTINUOUS
10
-116.851444
20
667.726714
30
0.0
11
-117.058186
21
666.511973
31
0.0
0
LINE
8
0
6
CONTINUOUS
10
-103.560015
20
664.141422
30
0.0
11
-103.353263
21
665.356218
31
0.0
0
LINE
8
0
6
CONTINUOUS
10
-108.517054
20
666.263139
30
0.0
11
-108.723811
21
665.048316
31
0.0
0
LINE
8
0
6
CONTINUOUS
10
-113.466252
20
665.881137
30
0.0
11
-113.259508
21
667.095878
31
0.0
0
LINE
8
0
6
CONTINUOUS
10
-116.310071
20
667.631666
30
0.0
11
-116.516819
21
666.416900
31
0.0
0
LINE
8
0
6
CONTINUOUS
10
183.869482
20
-486.915685
30
0.0
11
183.869482
21
24.523127
31
0.0
0
LINE
8
0
6
CONTINUOUS
10
183.869482
20
84.271600
30
0.0
11
183.869482
21
85.363521
31
0.0
0
LINE
8
0
6
CONTINUOUS
10
183.869482
20
116.234747
30
0.0
11
183.869482
21
516.462598
31
0.0
0
LINE
8
0
6
CONTINUOUS
10
183.869482
20
537.397971
30
0.0
11
183.869482
21
567.796178
31
0.0
0
LINE
8
0
6
CONTINUOUS
10
182.411851
20
-486.915685
30
0.0
11
182.411851
21
31.278942
31
0.0
0
LINE
8
0
6
CONTINUOUS
10
182.411851
20
117.213562
30
0.0
11
182.411851
21
518.049184
31
0.0
0
LINE
8
0
6
CONTINUOUS
10
182.411851
20
535.811553
30
0.0
11
182.411851
21
567.796178
31
0.0
0
LINE
8
0
6
CONTINUOUS
10
178.429521
20
-486.915685
30
0.0
11
178.429521
21
48.234065
31
0.0
0
LINE
8
0
6
CONTINUOUS
10
178.429521
20
127.167977
30
0.0
11
178.429521
21
522.887230
31
0.0
0
LINE
8
0
6
CONTINUOUS
10
178.429521
20
530.973641
30
0.0
11
178.429521
21
567.796178
31
0.0
0
LINE
8
0
6
CONTINUOUS
10
172.989550
20
-486.915685
30
0.0
11
172.989550
21
70.175017
31
0.0
0
LINE
8
0
6
CONTINUOUS
10
172.989550
20
149.948739
30
0.0
11
172.989550
21
567.796178
31
0.0
0
LINE
8
0
6
CONTINUOUS
10
167.549578
20
-486.915685
30
0.0
11
167.549578
21
82.669948
31
0.0
0
LINE
8
0
6
CONTINUOUS
10
167.549578
20
172.725933
30
0.0
11
167.549578
21
567.796178
31
0.0
0
LINE
8
0
6
CONTINUOUS
10
162.109617
20
567.796178
30
0.0
11
162.109617
21
195.503057
31
0.0
0
LINE
8
0
6
CONTINUOUS
10
162.109617
20
85.421590
30
0.0
11
162.109617
21
-486.915685
31
0.0
0
LINE
8
0
6
CONTINUOUS
10
163.567249
20
-486.915685
30
0.0
11
163.567249
21
84.412698
31
0.0
0
LINE
8
0
6
CONTINUOUS
10
163.567249
20
189.399958
30
0.0
11
163.567249
21
567.796178
31
0.0
0
LINE
8
0
6
CONTINUOUS
10
161.918991
20
573.680961
30
0.0
11
162.109617
21
567.796178
31
0.0
0
LINE
8
0
6
CONTINUOUS
10
172.989550
20
567.796178
30
0.0
11
172.762502
21
574.566711
31
0.0
0
LINE
8
0
6
CONTINUOUS
10
183.869482
20
567.796178
30
0.0
11
183.606023
21
575.452460
31
0.0
0
LINE
8
0
6
CONTINUOUS
10
178.184273
20
575.009585
30
0.0
11
178.429521
21
567.796178
31
0.0
0
LINE
8
0
6
CONTINUOUS
10
182.411851
20
567.796178
30
0.0
11
182.153265
21
575.333746
31
0.0
0
LINE
8
0
6
CONTINUOUS
10
163.371740
20
573.799525
30
0.0
11
163.567249
21
567.796178
31
0.0
0
LINE
8
0
6
CONTINUOUS
10
167.549578
20
567.796178
30
0.0
11
167.340732
21
574.123686
31
0.0
0
LINE
8
0
6
CONTINUOUS
10
177.771133
20
581.446209
30
0.0
11
178.184273
21
575.009585
31
0.0
0
LINE
8
0
6
CONTINUOUS
10
161.556223
20
579.605366
30
0.0
11
161.918991
21
573.680961
31
0.0
0
LINE
8
0
6
CONTINUOUS
10
181.727820
20
581.895336
30
0.0
11
182.153265
21
575.333746
31
0.0
0
LINE
8
0
6
CONTINUOUS
10
183.606023
20
575.452460
30
0.0
11
183.176076
21
582.059774
31
0.0
0
LINE
8
0
6
CONTINUOUS
10
163.004469
20
579.769654
30
0.0
11
163.371740
21
573.799525
31
0.0
0
LINE
8
0
6
CONTINUOUS
10
166.961186
20
580.218931
30
0.0
11
167.340732
21
574.123686
31
0.0
0
LINE
8
0
6
CONTINUOUS
10
172.762502
20
574.566711
30
0.0
11
172.366149
21
580.832495
31
0.0
0
LINE
8
0
6
CONTINUOUS
10
168.750038
20
596.334955
30
0.0
11
170.992453
21
588.708696
31
0.0
0
LINE
8
0
6
CONTINUOUS
10
173.869099
20
598.168328
30
0.0
11
176.258005
21
589.969803
31
0.0
0
LINE
8
0
6
CONTINUOUS
10
158.511907
20
592.668201
30
0.0
11
160.461359
21
586.186622
31
0.0
0
LINE
8
0
6
CONTINUOUS
10
177.616489
20
599.510365
30
0.0
11
180.112636
21
590.892897
31
0.0
0
LINE
8
0
6
CONTINUOUS
10
181.523537
20
591.230921
30
0.0
11
178.988149
21
600.001700
31
0.0
0
LINE
8
0
6
CONTINUOUS
10
159.883557
20
593.159386
30
0.0
11
161.872250
21
586.524496
31
0.0
0
LINE
8
0
6
CONTINUOUS
10
165.726901
20
587.447729
30
0.0
11
163.630967
21
594.501573
31
0.0
0
LINE
8
0
6
CONTINUOUS
10
156.910892
20
607.551763
30
0.0
11
160.658633
21
601.260370
31
0.0
0
LINE
8
0
6
CONTINUOUS
10
161.469179
20
610.508932
30
0.0
11
165.497307
21
603.655651
31
0.0
0
LINE
8
0
6
CONTINUOUS
10
166.027425
20
613.465960
30
0.0
11
170.335960
21
606.050771
31
0.0
0
LINE
8
0
6
CONTINUOUS
10
152.352626
20
604.594734
30
0.0
11
155.819960
21
598.865250
31
0.0
0
LINE
8
0
6
CONTINUOUS
10
157.116479
20
599.506860
30
0.0
11
153.573985
21
605.387069
31
0.0
0
LINE
8
0
6
CONTINUOUS
10
169.364333
20
615.630645
30
0.0
11
173.878114
21
607.804132
31
0.0
0
LINE
8
0
6
CONTINUOUS
10
175.174634
20
608.446042
30
0.0
11
170.585711
21
616.423129
31
0.0
0
LINE
8
0
6
CONTINUOUS
10
143.548550
20
614.977919
30
0.0
11
148.440634
21
610.060114
31
0.0
0
LINE
8
0
6
CONTINUOUS
10
164.856458
20
624.081239
30
0.0
11
158.393274
21
630.823736
31
0.0
0
LINE
8
0
6
CONTINUOUS
10
144.542972
20
616.039232
30
0.0
11
149.540291
21
610.999208
31
0.0
0
LINE
8
0
6
CONTINUOUS
10
147.259759
20
618.939261
30
0.0
11
152.544615
21
613.565318
31
0.0
0
LINE
8
0
6
CONTINUOUS
10
150.970947
20
622.900753
30
0.0
11
156.648576
21
617.070682
31
0.0
0
LINE
8
0
6
CONTINUOUS
10
154.682095
20
626.862085
30
0.0
11
160.752497
21
620.575885
31
0.0
0
LINE
8
0
6
CONTINUOUS
10
163.756831
20
623.141995
30
0.0
11
157.398912
21
629.762113
31
0.0
0
LINE
8
0
6
CONTINUOUS
10
129.883689
20
624.535999
30
0.0
11
136.716120
21
620.620690
31
0.0
0
LINE
8
0
6
CONTINUOUS
10
139.040906
20
642.582786
30
0.0
11
148.219904
21
637.036176
31
0.0
0
LINE
8
0
6
CONTINUOUS
10
149.045773
20
638.214835
30
0.0
11
139.698272
21
643.878491
31
0.0
0
LINE
8
0
6
CONTINUOUS
10
130.541185
20
625.831713
30
0.0
11
137.542079
21
621.799199
31
0.0
0
LINE
8
0
6
CONTINUOUS
10
132.337388
20
629.371664
30
0.0
11
139.798573
21
625.019264
31
0.0
0
LINE
8
0
6
CONTINUOUS
10
134.791016
20
634.207320
30
0.0
11
142.880976
21
629.417837
31
0.0
0
LINE
8
0
6
CONTINUOUS
10
145.963380
20
633.816261
30
0.0
11
137.244654
21
639.042825
31
0.0
0
LINE
8
0
6
CONTINUOUS
10
116.641274
20
645.939243
30
0.0
11
126.942964
21
643.202283
31
0.0
0
LINE
8
0
6
CONTINUOUS
10
113.964480
20
629.905367
30
0.0
11
121.924085
21
627.932087
31
0.0
0
LINE
8
0
6
CONTINUOUS
10
117.294518
20
649.851815
30
0.0
11
128.167702
21
646.928625
31
0.0
0
LINE
8
0
6
CONTINUOUS
10
128.615890
20
648.292455
30
0.0
11
117.533509
21
651.283922
31
0.0
0
LINE
8
0
6
CONTINUOUS
10
114.203631
20
631.337324
30
0.0
11
122.372413
21
629.295918
31
0.0
0
LINE
8
0
6
CONTINUOUS
10
114.856785
20
635.250046
30
0.0
11
123.597081
21
633.022259
31
0.0
0
LINE
8
0
6
CONTINUOUS
10
125.270018
20
638.112271
30
0.0
11
115.749020
21
640.594724
31
0.0
0
LINE
8
0
6
CONTINUOUS
10
-96.262596
20
678.037436
30
0.0
11
115.749020
21
640.594724
31
0.0
0
LINE
8
0
6
CONTINUOUS
10
-93.341455
20
683.023887
30
0.0
11
116.641274
21
645.939243
31
0.0
0
LINE
8
0
6
CONTINUOUS
10
-92.580881
20
666.382236
30
0.0
11
113.964480
21
629.905367
31
0.0
0
LINE
8
0
6
CONTINUOUS
10
-90.465360
20
686.544135
30
0.0
11
117.294518
21
649.851815
31
0.0
0
LINE
8
0
6
CONTINUOUS
10
117.533509
20
651.283922
30
0.0
11
-88.802355
21
687.724735
31
0.0
0
LINE
8
0
6
CONTINUOUS
10
-93.737721
20
668.060712
30
0.0
11
114.203631
21
631.337324
31
0.0
0
LINE
8
0
6
CONTINUOUS
10
114.856785
20
635.250046
30
0.0
11
-95.230737
21
672.352568
31
0.0
0
LINE
8
0
6
CONTINUOUS
10
126.942964
20
643.202283
30
0.0
11
137.244654
21
639.042825
31
0.0
0
LINE
8
0
6
CONTINUOUS
10
121.924085
20
627.932087
30
0.0
11
129.883689
21
624.535999
31
0.0
0
LINE
8
0
6
CONTINUOUS
10
128.167702
20
646.928625
30
0.0
11
139.040906
21
642.582786
31
0.0
0
LINE
8
0
6
CONTINUOUS
10
139.698272
20
643.878491
30
0.0
11
128.615890
21
648.292455
31
0.0
0
LINE
8
0
6
CONTINUOUS
10
122.372413
20
629.295918
30
0.0
11
130.541185
21
625.831713
31
0.0
0
LINE
8
0
6
CONTINUOUS
10
123.597081
20
633.022259
30
0.0
11
132.337388
21
629.371664
31
0.0
0
LINE
8
0
6
CONTINUOUS
10
134.791016
20
634.207320
30
0.0
11
125.270018
21
638.112271
31
0.0
0
LINE
8
0
6
CONTINUOUS
10
136.716120
20
620.620690
30
0.0
11
143.548550
21
614.977919
31
0.0
0
LINE
8
0
6
CONTINUOUS
10
148.219904
20
637.036176
30
0.0
11
157.398912
21
629.762113
31
0.0
0
LINE
8
0
6
CONTINUOUS
10
158.393274
20
630.823736
30
0.0
11
149.045773
21
638.214835
31
0.0
0
LINE
8
0
6
CONTINUOUS
10
137.542079
20
621.799199
30
0.0
11
144.542972
21
616.039232
31
0.0
0
LINE
8
0
6
CONTINUOUS
10
139.798573
20
625.019264
30
0.0
11
147.259759
21
618.939261
31
0.0
0
LINE
8
0
6
CONTINUOUS
10
142.880976
20
629.417837
30
0.0
11
150.970947
21
622.900753
31
0.0
0
LINE
8
0
6
CONTINUOUS
10
154.682095
20
626.862085
30
0.0
11
145.963380
21
633.816261
31
0.0
0
LINE
8
0
6
CONTINUOUS
10
148.440634
20
610.060114
30
0.0
11
152.352626
21
604.594734
31
0.0
0
LINE
8
0
6
CONTINUOUS
10
170.585711
20
616.423129
30
0.0
11
164.856458
21
624.081239
31
0.0
0
LINE
8
0
6
CONTINUOUS
10
149.540291
20
610.999208
30
0.0
11
153.573985
21
605.387069
31
0.0
0
LINE
8
0
6
CONTINUOUS
10
152.544615
20
613.565318
30
0.0
11
156.910892
21
607.551763
31
0.0
0
LINE
8
0
6
CONTINUOUS
10
156.648576
20
617.070682
30
0.0
11
161.469179
21
610.508932
31
0.0
0
LINE
8
0
6
CONTINUOUS
10
160.752497
20
620.575885
30
0.0
11
166.027425
21
613.465960
31
0.0
0
LINE
8
0
6
CONTINUOUS
10
169.364333
20
615.630645
30
0.0
11
163.756831
21
623.141995
31
0.0
0
LINE
8
0
6
CONTINUOUS
10
160.658633
20
601.260370
30
0.0
11
163.630967
21
594.501573
31
0.0
0
LINE
8
0
6
CONTINUOUS
10
165.497307
20
603.655651
30
0.0
11
168.750038
21
596.334955
31
0.0
0
LINE
8
0
6
CONTINUOUS
10
170.335960
20
606.050771
30
0.0
11
173.869099
21
598.168328
31
0.0
0
LINE
8
0
6
CONTINUOUS
10
155.819960
20
598.865250
30
0.0
11
158.511907
21
592.668201
31
0.0
0
LINE
8
0
6
CONTINUOUS
10
159.883557
20
593.159386
30
0.0
11
157.116479
21
599.506860
31
0.0
0
LINE
8
0
6
CONTINUOUS
10
173.878114
20
607.804132
30
0.0
11
177.616489
21
599.510365
31
0.0
0
LINE
8
0
6
CONTINUOUS
10
178.988149
20
600.001700
30
0.0
11
175.174634
21
608.446042
31
0.0
0
LINE
8
0
6
CONTINUOUS
10
170.992453
20
588.708696
30
0.0
11
172.366149
21
580.832495
31
0.0
0
LINE
8
0
6
CONTINUOUS
10
176.258005
20
589.969803
30
0.0
11
177.771133
21
581.446209
31
0.0
0
LINE
8
0
6
CONTINUOUS
10
160.461359
20
586.186622
30
0.0
11
161.556223
21
579.605366
31
0.0
0
LINE
8
0
6
CONTINUOUS
10
180.112636
20
590.892897
30
0.0
11
181.727820
21
581.895336
31
0.0
0
LINE
8
0
6
CONTINUOUS
10
183.176076
20
582.059774
30
0.0
11
181.523537
21
591.230921
31
0.0
0
LINE
8
0
6
CONTINUOUS
10
161.872250
20
586.524496
30
0.0
11
163.004469
21
579.769654
31
0.0
0
LINE
8
0
6
CONTINUOUS
10
166.961186
20
580.218931
30
0.0
11
165.726901
21
587.447729
31
0.0
0
LINE
8
0
6
CONTINUOUS
10
154.911120
20
106.343210
30
0.0
11
154.178190
21
102.701970
31
0.0
0
LINE
8
0
6
CONTINUOUS
10
154.178190
20
102.701970
30
0.0
11
154.169690
21
98.987680
31
0.0
0
LINE
8
0
6
CONTINUOUS
10
154.169690
20
98.987680
30
0.0
11
154.886010
21
95.343040
31
0.0
0
LINE
8
0
6
CONTINUOUS
10
160.106510
20
114.542640
30
0.0
11
160.186090
21
114.522580
31
0.0
0
LINE
8
0
6
CONTINUOUS
10
163.276760
20
105.528810
30
0.0
11
164.293210
21
102.150140
31
0.0
0
LINE
8
0
6
CONTINUOUS
10
162.339950
20
108.642520
30
0.0
11
163.276760
21
105.528810
31
0.0
0
LINE
8
0
6
CONTINUOUS
10
164.293210
20
102.150140
30
0.0
11
165.390550
21
98.502790
31
0.0
0
LINE
8
0
6
CONTINUOUS
10
154.911120
20
106.343210
30
0.0
11
156.340390
21
109.771480
31
0.0
0
LINE
8
0
6
CONTINUOUS
10
156.340390
20
109.771480
30
0.0
11
158.411020
21
112.854980
31
0.0
0
LINE
8
0
6
CONTINUOUS
10
158.411020
20
112.854980
30
0.0
11
160.106510
21
114.542640
31
0.0
0
LINE
8
0
6
CONTINUOUS
10
182.000200
20
117.489990
30
0.0
11
178.571810
21
118.919390
31
0.0
0
LINE
8
0
6
CONTINUOUS
10
185.083890
20
115.419260
30
0.0
11
182.000200
21
117.489990
31
0.0
0
LINE
8
0
6
CONTINUOUS
10
187.704350
20
112.786660
30
0.0
11
185.083890
21
115.419260
31
0.0
0
LINE
8
0
6
CONTINUOUS
10
189.760880
20
109.693550
30
0.0
11
187.704350
21
112.786660
31
0.0
0
LINE
8
0
6
CONTINUOUS
10
191.174500
20
106.258680
30
0.0
11
189.760880
21
109.693550
31
0.0
0
LINE
8
0
6
CONTINUOUS
10
176.226560
20
119.391580
30
0.0
11
175.969876
21
119.110186
31
0.0
0
LINE
8
0
6
CONTINUOUS
10
182.000200
20
117.490030
30
0.0
11
179.594830
21
118.584783
31
0.0
0
LINE
8
0
6
CONTINUOUS
10
178.914065
20
118.850512
30
0.0
11
178.871110
21
118.859160
31
0.0
0
LINE
8
0
6
CONTINUOUS
10
177.619320
20
113.238580
30
0.0
11
176.798220
21
115.967850
31
0.0
0
LINE
8
0
6
CONTINUOUS
10
179.572600
20
106.746240
30
0.0
11
178.556110
21
110.124840
31
0.0
0
LINE
8
0
6
CONTINUOUS
10
178.556110
20
110.124840
30
0.0
11
177.619320
21
113.238580
31
0.0
0
LINE
8
0
6
CONTINUOUS
10
180.669930
20
103.098850
30
0.0
11
179.572600
21
106.746240
31
0.0
0
LINE
8
0
6
CONTINUOUS
10
176.798220
20
115.967850
30
0.0
11
176.239953
21
117.823389
31
0.0
0
LINE
8
0
6
CONTINUOUS
10
176.226560
20
119.391580
30
0.0
11
178.571810
21
118.919390
31
0.0
0
LINE
8
0
6
CONTINUOUS
10
170.171430
20
82.580050
30
0.0
11
169.936130
21
83.393960
31
0.0
0
LINE
8
0
6
CONTINUOUS
10
156.299600
20
91.908090
30
0.0
11
158.356140
21
88.814950
31
0.0
0
LINE
8
0
6
CONTINUOUS
10
154.886010
20
95.343040
30
0.0
11
156.299600
21
91.908090
31
0.0
0
LINE
8
0
6
CONTINUOUS
10
166.487900
20
94.855440
30
0.0
11
165.390550
21
98.502790
31
0.0
0
LINE
8
0
6
CONTINUOUS
10
169.851100
20
82.206590
30
0.0
11
170.171430
21
82.580050
31
0.0
0
LINE
8
0
6
CONTINUOUS
10
170.171430
20
82.580050
30
0.0
11
169.833920
21
82.210070
31
0.0
0
LINE
8
0
6
CONTINUOUS
10
164.060270
20
84.111650
30
0.0
11
166.831820
21
82.814470
31
0.0
0
LINE
8
0
6
CONTINUOUS
10
166.831820
20
82.814470
30
0.0
11
167.488660
21
82.682210
31
0.0
0
LINE
8
0
6
CONTINUOUS
10
168.441170
20
88.363060
30
0.0
11
169.262270
21
85.633800
31
0.0
0
LINE
8
0
6
CONTINUOUS
10
166.487900
20
94.855440
30
0.0
11
167.504370
21
91.476810
31
0.0
0
LINE
8
0
6
CONTINUOUS
10
167.504370
20
91.476810
30
0.0
11
168.441170
21
88.363060
31
0.0
0
LINE
8
0
6
CONTINUOUS
10
169.262270
20
85.633800
30
0.0
11
169.936130
21
83.393960
31
0.0
0
LINE
8
0
6
CONTINUOUS
10
164.060280
20
84.111650
30
0.0
11
160.976610
21
86.182430
31
0.0
0
LINE
8
0
6
CONTINUOUS
10
160.976610
20
86.182430
30
0.0
11
158.356140
21
88.814950
31
0.0
0
LINE
8
0
6
CONTINUOUS
10
167.488680
20
82.682290
30
0.0
11
164.060280
21
84.111650
31
0.0
0
LINE
8
0
6
CONTINUOUS
10
169.833920
20
82.210070
30
0.0
11
167.488680
21
82.682290
31
0.0
0
LINE
8
0
6
CONTINUOUS
10
183.633380
20
85.206555
30
0.0
11
185.016960
21
86.126390
31
0.0
0
LINE
8
0
6
CONTINUOUS
10
185.954000
20
87.059040
30
0.0
11
187.649460
21
88.746660
31
0.0
0
LINE
8
0
6
CONTINUOUS
10
185.215500
20
87.990060
30
0.0
11
185.468370
21
87.181380
31
0.0
0
LINE
8
0
6
CONTINUOUS
10
187.649460
20
88.746660
30
0.0
11
189.720120
21
91.830200
31
0.0
0
LINE
8
0
6
CONTINUOUS
10
189.720120
20
91.830200
30
0.0
11
191.149360
21
95.258470
31
0.0
0
LINE
8
0
6
CONTINUOUS
10
191.149360
20
95.258470
30
0.0
11
191.882350
21
98.899710
31
0.0
0
LINE
8
0
6
CONTINUOUS
10
191.882350
20
98.899710
30
0.0
11
191.890820
21
102.614000
31
0.0
0
LINE
8
0
6
CONTINUOUS
10
191.890820
20
102.614000
30
0.0
11
191.174500
21
106.258680
31
0.0
0
LINE
8
0
6
CONTINUOUS
10
185.468370
20
87.181380
30
0.0
11
185.954000
21
87.059040
31
0.0
0
LINE
8
0
6
CONTINUOUS
10
181.767250
20
99.451510
30
0.0
11
182.783740
21
96.072870
31
0.0
0
LINE
8
0
6
CONTINUOUS
10
182.783740
20
96.072870
30
0.0
11
183.720520
21
92.959120
31
0.0
0
LINE
8
0
6
CONTINUOUS
10
188.183700
20
89.278470
30
0.0
11
189.720110
21
91.830200
31
0.0
0
LINE
8
0
6
CONTINUOUS
10
188.093360
20
89.188520
30
0.0
11
188.183700
21
89.278470
31
0.0
0
LINE
8
0
6
CONTINUOUS
10
188.093360
20
89.188520
30
0.0
11
189.720120
21
91.830200
31
0.0
0
LINE
8
0
6
CONTINUOUS
10
187.649460
20
88.746660
30
0.0
11
188.093360
21
89.188520
31
0.0
0
LINE
8
0
6
CONTINUOUS
10
184.541640
20
90.229860
30
0.0
11
183.720520
21
92.959120
31
0.0
0
LINE
8
0
6
CONTINUOUS
10
183.517011
20
85.667372
30
0.0
11
184.882010
21
86.574840
31
0.0
0
LINE
8
0
6
CONTINUOUS
10
181.767250
20
99.451510
30
0.0
11
180.669930
21
103.098850
31
0.0
0
LINE
8
0
6
CONTINUOUS
10
185.215500
20
87.990060
30
0.0
11
184.541640
21
90.229860
31
0.0
0
LINE
8
0
6
CONTINUOUS
10
110.421827
20
252.746922
30
0.0
11
110.224222
21
252.953914
31
0.0
0
LINE
8
0
6
CONTINUOUS
10
116.834788
20
244.741367
30
0.0
11
116.749368
21
244.828388
31
0.0
0
LINE
8
0
6
CONTINUOUS
10
85.616432
20
280.606229
30
0.0
11
86.694952
21
279.486139
31
0.0
0
LINE
8
0
6
CONTINUOUS
10
86.694952
20
279.486139
30
0.0
11
87.855954
21
278.097246
31
0.0
0
LINE
8
0
6
CONTINUOUS
10
95.298385
20
268.696513
30
0.0
11
94.130702
21
270.066208
31
0.0
0
LINE
8
0
6
CONTINUOUS
10
87.855954
20
278.097246
30
0.0
11
88.335442
21
277.554233
31
0.0
0
LINE
8
0
6
CONTINUOUS
10
103.217446
20
260.091250
30
0.0
11
102.393514
21
261.002197
31
0.0
0
LINE
8
0
6
CONTINUOUS
10
102.673492
20
259.675786
30
0.0
11
100.193128
21
262.778502
31
0.0
0
LINE
8
0
6
CONTINUOUS
10
98.971371
20
264.315831
30
0.0
11
95.657362
21
268.244352
31
0.0
0
LINE
8
0
6
CONTINUOUS
10
100.193128
20
262.778502
30
0.0
11
98.971371
21
264.315831
31
0.0
0
LINE
8
0
6
CONTINUOUS
10
109.825423
20
250.732547
30
0.0
11
107.330406
21
253.964157
31
0.0
0
LINE
8
0
6
CONTINUOUS
10
106.512275
20
255.019401
30
0.0
11
103.521214
21
258.649183
31
0.0
0
LINE
8
0
6
CONTINUOUS
10
107.330406
20
253.964157
30
0.0
11
106.512275
21
255.019401
31
0.0
0
LINE
8
0
6
CONTINUOUS
10
110.825094
20
247.812103
30
0.0
11
111.299252
21
247.351922
31
0.0
0
LINE
8
0
6
CONTINUOUS
10
122.048354
20
235.823642
30
0.0
11
121.766522
21
236.273133
31
0.0
0
LINE
8
0
6
CONTINUOUS
10
133.380627
20
224.976661
30
0.0
11
134.438651
21
223.954493
31
0.0
0
LINE
8
0
6
CONTINUOUS
10
131.012436
20
227.230646
30
0.0
11
133.380627
21
224.976661
31
0.0
0
LINE
8
0
6
CONTINUOUS
10
128.184697
20
229.911051
30
0.0
11
128.497204
21
229.617850
31
0.0
0
LINE
8
0
6
CONTINUOUS
10
93.863165
20
268.137580
30
0.0
11
94.649426
21
267.298247
31
0.0
0
LINE
8
0
6
CONTINUOUS
10
86.640044
20
278.712379
30
0.0
11
86.314553
21
279.211155
31
0.0
0
LINE
8
0
6
CONTINUOUS
10
210.264020
20
-514.766333
30
0.0
11
210.267794
21
-514.503436
31
0.0
0
LINE
8
0
6
CONTINUOUS
10
182.411851
20
535.811553
30
0.0
11
182.461402
21
535.995737
31
0.0
0
LINE
8
0
6
CONTINUOUS
10
179.594830
20
118.584783
30
0.0
11
179.085064
21
118.779330
31
0.0
0
LINE
8
0
6
CONTINUOUS
10
-94.667034
20
671.770747
30
0.0
11
-95.230737
21
672.352568
31
0.0
0
LINE
8
0
6
CONTINUOUS
10
-93.737721
20
668.060712
30
0.0
11
-94.667034
21
671.770747
31
0.0
0
LINE
8
0
6
CONTINUOUS
10
178.749838
20
521.696635
30
0.0
11
178.429521
21
522.887230
31
0.0
0
LINE
8
0
6
CONTINUOUS
10
178.429521
20
530.973641
30
0.0
11
178.749828
21
532.164245
31
0.0
0
LINE
8
0
6
CONTINUOUS
10
182.461402
20
517.864993
30
0.0
11
182.411851
21
518.049184
31
0.0
0
LINE
8
0
6
CONTINUOUS
10
-93.341455
20
683.023887
30
0.0
11
-92.612139
21
683.377469
31
0.0
0
LINE
8
0
6
CONTINUOUS
10
-90.465360
20
686.544135
30
0.0
11
-92.612139
21
683.377469
31
0.0
0
LINE
8
0
6
CONTINUOUS
10
-88.905947
20
687.139610
30
0.0
11
-90.465360
21
686.544135
31
0.0
0
LINE
8
0
6
CONTINUOUS
10
-92.477299
20
666.967302
30
0.0
11
-93.737721
21
668.060712
31
0.0
0
LINE
8
0
6
CONTINUOUS
10
-96.262596
20
678.037436
30
0.0
11
-93.341455
21
683.023887
31
0.0
0
LINE
8
0
6
CONTINUOUS
10
-95.230737
20
672.352568
30
0.0
11
-96.262596
21
678.037436
31
0.0
0
ENDSEC
0
EOF
