  0
SECTION
  2
HEADER
  9
$ACADVER
  1
AC1009
  9
$INSBASE
 10
0.0
 20
0.0
 30
0.0
  9
$EXTMIN
 10
0.0
 20
0.0000240000000531
 30
-38.287087999999983
  9
$EXTMAX
 10
218.0
 20
155.0
 30
68.0
  9
$LIMMIN
 10
0.0
 20
0.0
  9
$LIMMAX
 10
420.0
 20
297.0
  9
$ORTHOMODE
 70
     0
  9
$REGENMODE
 70
     1
  9
$FILLMODE
 70
     1
  9
$QTEXTMODE
 70
     0
  9
$MIRRTEXT
 70
     1
  9
$DRAGMODE
 70
     2
  9
$LTSCALE
 40
1.0
  9
$OSMODE
 70
    37
  9
$ATTMODE
 70
     1
  9
$TEXTSIZE
 40
2.5
  9
$TRACEWID
 40
1.0
  9
$TEXTSTYLE
  7
STANDARD
  9
$CLAYER
  8
0
  9
$CELTYPE
  6
BYLAYER
  9
$CECOLOR
 62
   256
  9
$DIMSCALE
 40
1.0
  9
$DIMASZ
 40
2.5
  9
$DIMEXO
 40
0.625
  9
$DIMDLI
 40
3.75
  9
$DIMRND
 40
0.0
  9
$DIMDLE
 40
0.0
  9
$DIMEXE
 40
1.25
  9
$DIMTP
 40
0.0
  9
$DIMTM
 40
0.0
  9
$DIMTXT
 40
2.5
  9
$DIMCEN
 40
2.5
  9
$DIMTSZ
 40
0.0
  9
$DIMTOL
 70
     0
  9
$DIMLIM
 70
     0
  9
$DIMTIH
 70
     0
  9
$DIMTOH
 70
     0
  9
$DIMSE1
 70
     0
  9
$DIMSE2
 70
     0
  9
$DIMTAD
 70
     1
  9
$DIMZIN
 70
     8
  9
$DIMBLK
  1

  9
$DIMASO
 70
     1
  9
$DIMSHO
 70
     1
  9
$DIMPOST
  1

  9
$DIMAPOST
  1

  9
$DIMALT
 70
     0
  9
$DIMALTD
 70
     4
  9
$DIMALTF
 40
0.0394
  9
$DIMLFAC
 40
1.0
  9
$DIMTOFL
 70
     1
  9
$DIMTVP
 40
0.0
  9
$DIMTIX
 70
     0
  9
$DIMSOXD
 70
     0
  9
$DIMSAH
 70
     0
  9
$DIMBLK1
  1

  9
$DIMBLK2
  1

  9
$DIMSTYLE
  2
STANDARD
  9
$DIMCLRD
 70
     0
  9
$DIMCLRE
 70
     0
  9
$DIMCLRT
 70
     0
  9
$DIMTFAC
 40
1.0
  9
$DIMGAP
 40
0.625
  9
$LUNITS
 70
     2
  9
$LUPREC
 70
     4
  9
$SKETCHINC
 40
1.0
  9
$FILLETRAD
 40
10.0
  9
$AUNITS
 70
     0
  9
$AUPREC
 70
     0
  9
$MENU
  1
.
  9
$ELEVATION
 40
0.0
  9
$PELEVATION
 40
0.0
  9
$THICKNESS
 40
0.0
  9
$LIMCHECK
 70
     0
  9
$BLIPMODE
 70
     0
  9
$CHAMFERA
 40
10.0
  9
$CHAMFERB
 40
10.0
  9
$SKPOLY
 70
     0
  9
$TDCREATE
 40
2452048.431915856
  9
$TDUPDATE
 40
2452617.4763393519
  9
$TDINDWG
 40
0.0434412037
  9
$TDUSRTIMER
 40
0.0434412037
  9
$USRTIMER
 70
     1
  9
$ANGBASE
 50
0.0
  9
$ANGDIR
 70
     0
  9
$PDMODE
 70
     0
  9
$PDSIZE
 40
0.0
  9
$PLINEWID
 40
0.0
  9
$COORDS
 70
     1
  9
$SPLFRAME
 70
     0
  9
$SPLINETYPE
 70
     6
  9
$SPLINESEGS
 70
     8
  9
$ATTDIA
 70
     0
  9
$ATTREQ
 70
     1
  9
$HANDLING
 70
 22529
  9
$HANDSEED
  5
2A86
  9
$SURFTAB1
 70
     6
  9
$SURFTAB2
 70
     6
  9
$SURFTYPE
 70
     6
  9
$SURFU
 70
     6
  9
$SURFV
 70
     6
  9
$UCSNAME
  2

  9
$UCSORG
 10
0.0
 20
0.0
 30
0.0
  9
$UCSXDIR
 10
1.0
 20
0.0
 30
0.0
  9
$UCSYDIR
 10
0.0
 20
1.0
 30
0.0
  9
$PUCSNAME
  2

  9
$PUCSORG
 10
0.0
 20
0.0
 30
0.0
  9
$PUCSXDIR
 10
1.0
 20
0.0
 30
0.0
  9
$PUCSYDIR
 10
0.0
 20
1.0
 30
0.0
  9
$USERI1
 70
     0
  9
$USERI2
 70
     0
  9
$USERI3
 70
     0
  9
$USERI4
 70
     0
  9
$USERI5
 70
     0
  9
$USERR1
 40
0.0
  9
$USERR2
 40
0.0
  9
$USERR3
 40
0.0
  9
$USERR4
 40
0.0
  9
$USERR5
 40
0.0
  9
$WORLDVIEW
 70
     1
  9
$SHADEDGE
 70
     3
  9
$SHADEDIF
 70
    70
  9
$TILEMODE
 70
     1
  9
$MAXACTVP
 70
    48
  9
$PLIMCHECK
 70
     0
  9
$PEXTMIN
 10
1.0000000000000000E+020
 20
1.0000000000000000E+020
 30
1.0000000000000000E+020
  9
$PEXTMAX
 10
-1.0000000000000000E+020
 20
-1.0000000000000000E+020
 30
-1.0000000000000000E+020
  9
$PLIMMIN
 10
0.0
 20
0.0
  9
$PLIMMAX
 10
420.0
 20
297.0
  9
$UNITMODE
 70
     0
  9
$VISRETAIN
 70
     1
  9
$PLINEGEN
 70
     0
  9
$PSLTSCALE
 70
     1
  0
ENDSEC
  0
SECTION
  2
TABLES
  0
TABLE
  2
VPORT
 70
     4
  0
VPORT
  2
*ACTIVE
 70
     0
 10
0.0
 20
0.0
 11
1.0
 21
1.0
 12
22.273855122094851
 22
88.268556599193175
 13
0.0
 23
0.0
 14
10.0
 24
10.0
 15
10.0
 25
10.0
 16
-1.0
 26
-1.0
 36
1.0
 17
0.0
 27
0.0
 37
0.0
 40
241.98690747130161
 41
1.9325153374233119
 42
50.0
 43
0.0
 44
0.0
 50
0.0
 51
0.0
 71
     0
 72
   100
 73
     1
 74
     1
 75
     0
 76
     0
 77
     0
 78
     0
  0
ENDTAB
  0
TABLE
  2
LTYPE
 70
     1
  0
LTYPE
  2
CONTINUOUS
 70
     0
  3
Solid line
 72
    65
 73
     0
 40
0.0
  0
ENDTAB
  0
TABLE
  2
LAYER
 70
     4
  0
LAYER
  2
0
 70
     0
 62
     7
  6
CONTINUOUS
  0
LAYER
  2
ENTITIES
 70
     0
 62
     7
  6
CONTINUOUS
  0
LAYER
  2
LAYER1
 70
     0
 62
     7
  6
CONTINUOUS
  0
LAYER
  2
ASHADE
 70
     4
 62
     7
  6
CONTINUOUS
  0
ENDTAB
  0
TABLE
  2
STYLE
 70
     2
  0
STYLE
  2
STANDARD
 70
     0
 40
0.0
 41
1.0
 50
0.0
 71
     0
 42
2.5
  3
txt
  4

  0
STYLE
  2
ASHADE
 70
     0
 40
0.2
 41
1.0
 50
0.0
 71
     0
 42
2.5
  3
simplex.shx
  4

  0
ENDTAB
  0
TABLE
  2
VIEW
 70
     0
  0
ENDTAB
  0
TABLE
  2
UCS
 70
     0
  0
ENDTAB
  0
TABLE
  2
APPID
 70
     6
  0
APPID
  2
ACAD
 70
     0
  0
APPID
  2
AVE_RENDER
 70
     0
  0
APPID
  2
AVE_ENTITY_MATERIAL
 70
     0
  0
APPID
  2
AVE_FINISH
 70
     0
  0
APPID
  2
AVE_MATERIAL
 70
     0
  0
APPID
  2
AVE_GLOBAL
 70
     0
  0
ENDTAB
  0
TABLE
  2
DIMSTYLE
 70
     1
  0
DIMSTYLE
  2
STANDARD
 70
     0
  3

  4

  5

  6

  7

 40
1.0
 41
0.18
 42
0.0625
 43
0.38
 44
0.18
 45
0.0
 46
0.0
 47
0.0
 48
0.0
140
0.18
141
0.09
142
0.0
143
25.399999999999999
144
1.0
145
0.0
146
1.0
147
0.09
 71
     0
 72
     0
 73
     1
 74
     1
 75
     0
 76
     0
 77
     0
 78
     0
170
     0
171
     2
172
     0
173
     0
174
     0
175
     0
176
     0
177
     0
178
     0
  0
ENDTAB
  0
ENDSEC
  0
SECTION
  2
BLOCKS
  0
BLOCK
  8
0
  2
$MODEL_SPACE
 70
     0
 10
0.0
 20
0.0
 30
0.0
  3
$MODEL_SPACE
  1

  0
ENDBLK
  5
1A
  8
0
  0
BLOCK
 67
     1
  8
0
  2
$PAPER_SPACE
 70
     0
 10
0.0
 20
0.0
 30
0.0
  3
$PAPER_SPACE
  1

  0
ENDBLK
  5
17
 67
     1
  8
0
  0
BLOCK
  8
ASHADE
  2
AVE_RENDER
 70
     0
 10
0.0
 20
0.0
 30
0.0
  3
AVE_RENDER
  1
AVE_RENDER
  0
ENDBLK
  5
E0F
  8
0
  0
BLOCK
  8
ASHADE
  2
AVE_GLOBAL
 70
     0
 10
0.0
 20
0.0
 30
0.0
  3
AVE_GLOBAL
  1
AVE_GLOBAL
  0
ENDBLK
  5
E1D
  8
0
  0
ENDSEC
  0
SECTION
  2
ENTITIES
  0
INSERT
  5
E10
  8
ASHADE
 62
     1
  2
AVE_RENDER
 10
0.0
 20
0.0
 30
0.0
1001
AVE_RENDER
1002
{
1070
     7
1000
Pref
1070
    30
1070
    20
1070
     1
1070
     0
1000

1070
    10
1070
     1
1070
    10
1040
1.0
1070
     1
1040
0.3
1040
0.7
1040
0.0
1040
10.0
1010
-1.0
1020
-1.0
1030
-1.0
1040
0.3
1070
    49
1070
     0
1070
     0
1010
1.0
1020
1.0
1030
1.0
1040
45.0
1070
     1
1070
     0
1000
WCS
1040
0.0
1070
     0
1040
10.0
1002
}
  0
INSERT
  5
E11
  8
ASHADE
 62
     3
  2
AVE_RENDER
 10
0.0
 20
0.0
 30
0.0
1001
AVE_RENDER
1002
{
1070
     0
1000
Full Opt
1070
     0
1070
     1
1070
     1
1070
     1
1070
     0
1070
     0
1070
     0
1070
     1
1070
     1
1040
0.0001
1040
0.0001
1002
}
  0
INSERT
  5
E12
  8
ASHADE
 62
     4
  2
AVE_RENDER
 10
0.0
 20
0.0
 30
0.0
1001
AVE_RENDER
1002
{
1070
     0
1000
Quick Opt
1070
     0
1070
     1
1070
     1
1070
     1
1070
     0
1070
     0
1070
     1
1002
}
  0
INSERT
  5
E13
  8
ASHADE
 62
     5
  2
AVE_RENDER
 10
0.0
 20
0.0
 30
0.0
1001
AVE_RENDER
1002
{
1070
     1
1000
Scanl Opt
1070
     2
1070
     0
1070
     2
1040
2.0
1040
4.0
1070
     0
1070
     1
1070
     0
1040
0.03
1002
}
  0
INSERT
  5
E14
  8
ASHADE
 62
     6
  2
AVE_RENDER
 10
0.0
 20
0.0
 30
0.0
1001
AVE_RENDER
1002
{
1070
     2
1000
Raytr Opt
1070
     2
1070
     0
1070
     2
1040
2.0
1040
4.0
1070
     0
1070
     1
1070
     1
1040
0.03
1070
     3
1040
0.03
1002
}
  0
INSERT
  5
E15
  8
ASHADE
 62
     7
  2
AVE_RENDER
 10
0.0
 20
0.0
 30
0.0
1001
AVE_RENDER
1002
{
1070
     0
1000
RFile Opt
1070
     1
1070
   640
1070
   480
1070
 10000
1070
     1
1070
     8
1070
     8
1070
     0
1070
     0
1070
     0
1070
     0
1070
     0
1070
     0
1070
     0
1002
}
  0
INSERT
  5
E16
  8
ASHADE
 62
     8
  2
AVE_RENDER
 10
0.0
 20
0.0
 30
0.0
1001
AVE_RENDER
1002
{
1070
     0
1000
Fog Opt
1070
     0
1070
     0
1040
0.0
1040
1.0
1040
0.0
1040
1.0
1010
0.5
1020
0.5
1030
0.5
1002
}
  0
INSERT
  5
E17
  8
ASHADE
 62
     9
  2
AVE_RENDER
 10
0.0
 20
0.0
 30
0.0
1001
AVE_RENDER
1002
{
1070
     0
1000
BG Opt
1070
     0
1070
     1
1010
0.0
1020
0.0
1030
0.0
1010
1.0
1020
0.0
1030
0.0
1010
0.0
1020
1.0
1030
0.0
1010
0.0
1020
0.0
1030
1.0
1040
0.5
1040
0.33
1040
0.0
1000

1070
     1
1000

1070
     1
1070
     1
1040
1.0
1040
1.0
1040
0.0
1040
0.0
1070
     0
1002
}
  0
INSERT
  5
E1E
  8
ASHADE
 62
     1
  2
AVE_GLOBAL
 10
0.0
 20
0.0
 30
0.0
1001
AVE_MATERIAL
1002
{
1000
*GLOBAL*
1000
1
1000
Global finish.
1002
{
1002
}
1002
{
1070
    63
1002
{
1002
{
1010
-1.0
1020
-1.0
1030
-1.0
1002
}
1040
0.1000000014901161
1000

1040
0.0
1002
{
1002
}
1040
0.0
1002
{
1002
}
1040
0.0
1002
}
1002
{
1002
{
1010
-1.0
1020
-1.0
1030
-1.0
1002
}
1040
0.699999988079071
1000

1040
0.0
1002
{
1002
}
1040
0.0
1002
{
1002
}
1040
0.0
1002
}
1002
{
1002
{
1010
-1.0
1020
-1.0
1030
-1.0
1002
}
1040
0.2000000029802322
1000

1040
0.0
1002
{
1002
}
1040
0.0
1002
{
1002
}
1040
0.0
1002
}
1002
{
1070
     0
1002
{
1070
     1
1002
{
1040
1.0
1040
1.0
1000

1040
0.0
1002
{
1002
}
1040
0.0
1002
{
1002
}
1040
0.0
1002
}
1002
}
1040
1.0
1040
0.0
1040
0.0
1002
}
1002
{
1040
1.0
1040
1.0
1000

1040
0.0
1002
{
1002
}
1040
0.0
1002
{
1002
}
1040
0.0
1002
}
1002
{
1040
0.5
1040
1.0
1000

1040
0.0
1002
{
1002
}
1040
0.0
1002
{
1002
}
1040
0.0
1002
}
1002
{
1070
     0
1040
0.0
1002
{
1002
}
1040
1.0
1002
{
1002
}
1040
0.0
1002
}
1002
{
1040
0.0
1002
{
1002
{
1010
0.0
1020
0.0
1030
0.0
1002
}
1040
1.0
1000

1040
0.0
1002
{
1002
}
1040
0.0
1002
{
1002
}
1040
0.0
1002
}
1002
}
1002
{
1002
{
1070
     1
1002
{
1040
0.0
1040
1.0
1000

1040
0.0
1002
{
1002
}
1040
0.0
1002
{
1002
}
1040
0.0
1002
}
1002
}
1040
0.0
1002
{
1002
}
1010
1.0
1020
0.0
1030
0.0
1010
0.0
1020
1.0
1030
0.0
1010
0.0
1020
0.0
1030
1.0
1070
     0
1002
}
1002
{
1002
{
1040
1.0
1040
1.0
1002
{
1070
     1
1002
{
1040
1.0
1040
1.0
1000

1040
0.0
1002
{
1002
}
1040
0.0
1002
{
1002
}
1040
0.0
1002
}
1002
}
1002
}
1070
     0
1040
0.0
1002
{
1002
}
1002
}
1002
{
1002
}
1002
}
1002
{
1071
        3
1070
     3
1070
     0
1002
{
1070
     2
1070
     0
1070
     0
1040
0.0
1002
}
1070
     0
1070
     2
1002
{
1002
}
1002
}
1002
{
1040
8030.0
1040
190.30000305175781
1040
0.3050000071525574
1040
228.0
1040
545.0
1040
14.0
1040
17.39999961853027
1040
0.4560000002384186
1002
}
1002
}
  0
INSERT
  5
E3B
  8
ASHADE
 62
     1
  2
AVE_GLOBAL
 10
0.0
 20
0.0
 30
0.0
1001
AVE_MATERIAL
1002
{
1000
*GLOBAL*
1000
1
1000
Global finish.
1002
{
1002
}
1002
{
1070
    63
1002
{
1002
{
1010
-1.0
1020
-1.0
1030
-1.0
1002
}
1040
0.1
1000

1040
0.0
1002
{
1002
}
1040
0.0
1002
{
1002
}
1040
0.0
1002
}
1002
{
1002
{
1010
-1.0
1020
-1.0
1030
-1.0
1002
}
1040
0.7
1000

1040
0.0
1002
{
1002
}
1040
0.0
1002
{
1002
}
1040
0.0
1002
}
1002
{
1002
{
1010
-1.0
1020
-1.0
1030
-1.0
1002
}
1040
0.2
1000

1040
0.0
1002
{
1002
}
1040
0.0
1002
{
1002
}
1040
0.0
1002
}
1002
{
1070
     0
1002
{
1070
     1
1002
{
1040
1.0
1040
1.0
1000

1040
0.0
1002
{
1002
}
1040
0.0
1002
{
1002
}
1040
0.0
1002
}
1002
}
1040
1.0
1040
0.0
1040
0.0
1002
}
1002
{
1040
1.0
1040
1.0
1000

1040
0.0
1002
{
1002
}
1040
0.0
1002
{
1002
}
1040
0.0
1002
}
1002
{
1040
0.5
1040
1.0
1000

1040
0.0
1002
{
1002
}
1040
0.0
1002
{
1002
}
1040
0.0
1002
}
1002
{
1070
     0
1040
0.0
1002
{
1002
}
1040
1.0
1002
{
1002
}
1040
0.0
1002
}
1002
{
1040
0.0
1002
{
1002
{
1010
0.0
1020
0.0
1030
0.0
1002
}
1040
1.0
1000

1040
0.0
1002
{
1002
}
1040
0.0
1002
{
1002
}
1040
0.0
1002
}
1002
}
1002
{
1002
{
1070
     1
1002
{
1040
0.0
1040
1.0
1000

1040
0.0
1002
{
1002
}
1040
0.0
1002
{
1002
}
1040
0.0
1002
}
1002
}
1040
0.0
1002
{
1002
}
1010
1.0
1020
0.0
1030
0.0
1010
0.0
1020
1.0
1030
0.0
1010
0.0
1020
0.0
1030
1.0
1070
     0
1002
}
1002
{
1002
{
1040
1.0
1040
1.0
1002
{
1070
     1
1002
{
1040
1.0
1040
1.0
1000

1040
0.0
1002
{
1002
}
1040
0.0
1002
{
1002
}
1040
0.0
1002
}
1002
}
1002
}
1070
     0
1040
0.0
1002
{
1002
}
1002
}
1002
{
1002
}
1002
}
1002
{
1071
        3
1070
     3
1070
     0
1002
{
1070
     2
1070
     0
1070
     0
1040
0.0
1002
}
1070
     0
1070
     2
1002
{
1002
}
1002
}
1002
{
1040
8030.0
1040
190.300003
1040
0.305
1040
228.0
1040
545.0
1040
14.0
1040
17.399999999999999
1040
0.4560000000000001
1002
}
1002
}
  0
INSERT
  5
159B
  8
ASHADE
 62
     1
  2
AVE_GLOBAL
 10
0.0
 20
0.0
 30
0.0
1001
AVE_MATERIAL
1002
{
1000
*GLOBAL*
1000
1
1000
Global finish.
1002
{
1002
}
1002
{
1070
    63
1002
{
1002
{
1010
-1.0
1020
-1.0
1030
-1.0
1002
}
1040
0.1
1000

1040
0.0
1002
{
1002
}
1040
0.0
1002
{
1002
}
1040
0.0
1002
}
1002
{
1002
{
1010
-1.0
1020
-1.0
1030
-1.0
1002
}
1040
0.7
1000

1040
0.0
1002
{
1002
}
1040
0.0
1002
{
1002
}
1040
0.0
1002
}
1002
{
1002
{
1010
-1.0
1020
-1.0
1030
-1.0
1002
}
1040
0.2
1000

1040
0.0
1002
{
1002
}
1040
0.0
1002
{
1002
}
1040
0.0
1002
}
1002
{
1070
     0
1002
{
1070
     1
1002
{
1040
1.0
1040
1.0
1000

1040
0.0
1002
{
1002
}
1040
0.0
1002
{
1002
}
1040
0.0
1002
}
1002
}
1040
1.0
1040
0.0
1040
0.0
1002
}
1002
{
1040
1.0
1040
1.0
1000

1040
0.0
1002
{
1002
}
1040
0.0
1002
{
1002
}
1040
0.0
1002
}
1002
{
1040
0.5
1040
1.0
1000

1040
0.0
1002
{
1002
}
1040
0.0
1002
{
1002
}
1040
0.0
1002
}
1002
{
1070
     0
1040
0.0
1002
{
1002
}
1040
1.0
1002
{
1002
}
1040
0.0
1002
}
1002
{
1040
0.0
1002
{
1002
{
1010
0.0
1020
0.0
1030
0.0
1002
}
1040
1.0
1000

1040
0.0
1002
{
1002
}
1040
0.0
1002
{
1002
}
1040
0.0
1002
}
1002
}
1002
{
1002
{
1070
     1
1002
{
1040
0.0
1040
1.0
1000

1040
0.0
1002
{
1002
}
1040
0.0
1002
{
1002
}
1040
0.0
1002
}
1002
}
1040
0.0
1002
{
1002
}
1010
1.0
1020
0.0
1030
0.0
1010
0.0
1020
1.0
1030
0.0
1010
0.0
1020
0.0
1030
1.0
1070
     0
1002
}
1002
{
1002
{
1040
1.0
1040
1.0
1002
{
1070
     1
1002
{
1040
1.0
1040
1.0
1000

1040
0.0
1002
{
1002
}
1040
0.0
1002
{
1002
}
1040
0.0
1002
}
1002
}
1002
}
1070
     0
1040
0.0
1002
{
1002
}
1002
}
1002
{
1002
}
1002
}
1002
{
1071
        3
1070
     3
1070
     0
1002
{
1070
     2
1070
     0
1070
     0
1040
0.0
1002
}
1070
     0
1070
     2
1002
{
1002
}
1002
}
1002
{
1040
8030.0
1040
190.300003
1040
0.305
1040
228.0
1040
545.0
1040
14.0
1040
17.399999999999999
1040
0.4560000000000001
1002
}
1002
}
  0
POLYLINE
  5
159C
  8
0
 66
     1
 10
0.0
 20
0.0
 30
0.0
 70
    16
 71
     4
 72
     7
  0
VERTEX
  5
159D
  8
0
 10
109.0
 20
51.0
 30
55.5
 70
    64
  0
VERTEX
  5
159E
  8
0
 10
103.0
 20
51.0
 30
54.600000000000001
 70
    64
  0
VERTEX
  5
159F
  8
0
 10
97.299999999999997
 20
51.0
 30
52.399999999999999
 70
    64
  0
VERTEX
  5
15A0
  8
0
 10
92.400000000000006
 20
51.0
 30
48.600000000000001
 70
    64
  0
VERTEX
  5
15A1
  8
0
 10
88.599999999999994
 20
51.0
 30
43.700000000000003
 70
    64
  0
VERTEX
  5
15A2
  8
0
 10
86.400000000000006
 20
51.0
 30
38.0
 70
    64
  0
VERTEX
  5
15A3
  8
0
 10
85.5
 20
51.0
 30
32.0
 70
    64
  0
VERTEX
  5
15A4
  8
0
 10
109.0
 20
47.492991000000011
 30
55.500042000000001
 70
    64
  0
VERTEX
  5
15A5
  8
0
 10
103.0
 20
47.492991000000011
 30
54.600042000000002
 70
    64
  0
VERTEX
  5
15A6
  8
0
 10
97.299999999999997
 20
47.492991000000011
 30
52.400041999999999
 70
    64
  0
VERTEX
  5
15A7
  8
0
 10
92.400000000000006
 20
47.492991000000011
 30
48.600042000000002
 70
    64
  0
VERTEX
  5
15A8
  8
0
 10
88.599999999999994
 20
47.492991000000011
 30
43.700042000000032
 70
    64
  0
VERTEX
  5
15A9
  8
0
 10
86.400000000000006
 20
47.492991000000011
 30
38.000042000000022
 70
    64
  0
VERTEX
  5
15AA
  8
0
 10
85.5
 20
47.492991000000032
 30
32.000042000000022
 70
    64
  0
VERTEX
  5
15AB
  8
0
 10
109.0
 20
44.492991000000011
 30
55.000042000000008
 70
    64
  0
VERTEX
  5
15AC
  8
0
 10
103.09999999999989
 20
44.492991000000011
 30
54.20004200000001
 70
    64
  0
VERTEX
  5
15AD
  8
0
 10
97.599999999999994
 20
44.492991000000011
 30
51.900041999999999
 70
    64
  0
VERTEX
  5
15AE
  8
0
 10
92.799999999999983
 20
44.492991000000011
 30
48.20004200000001
 70
    64
  0
VERTEX
  5
15AF
  8
0
 10
89.099999999999994
 20
44.492991000000011
 30
43.400042000000013
 70
    64
  0
VERTEX
  5
15B0
  8
0
 10
86.799999999999983
 20
44.492991000000011
 30
37.900042000000013
 70
    64
  0
VERTEX
  5
15B1
  8
0
 10
86.0
 20
44.492991000000032
 30
32.000042000000022
 70
    64
  0
VERTEX
  5
15B2
  8
0
 10
109.0
 20
40.492991000000011
 30
54.000042000000008
 70
    64
  0
VERTEX
  5
15B3
  8
0
 10
103.2999999999999
 20
40.492991000000011
 30
53.20004200000001
 70
    64
  0
VERTEX
  5
15B4
  8
0
 10
98.099999999999994
 20
40.492991000000011
 30
51.100042000000002
 70
    64
  0
VERTEX
  5
15B5
  8
0
 10
93.499999999999986
 20
40.492991000000011
 30
47.500042000000022
 70
    64
  0
VERTEX
  5
15B6
  8
0
 10
89.900000000000006
 20
40.492991000000011
 30
42.900042000000013
 70
    64
  0
VERTEX
  5
15B7
  8
0
 10
87.799999999999983
 20
40.492991000000011
 30
37.700042000000018
 70
    64
  0
VERTEX
  5
15B8
  8
0
 10
87.0
 20
40.492991000000032
 30
32.000042000000022
 70
    64
  0
SEQEND
  5
15B9
  8
0
  0
POLYLINE
  5
15BA
  8
0
 66
     1
 10
0.0
 20
0.0
 30
0.0
 70
    16
 71
     6
 72
     7
  0
VERTEX
  5
15BB
  8
0
 10
109.0
 20
12.492991000000011
 30
32.000042000000008
 70
    64
  0
VERTEX
  5
15BC
  8
0
 10
109.0
 20
12.492991000000011
 30
32.000042000000008
 70
    64
  0
VERTEX
  5
15BD
  8
0
 10
109.0
 20
12.492991000000011
 30
32.000042000000008
 70
    64
  0
VERTEX
  5
15BE
  8
0
 10
109.0
 20
12.492991000000011
 30
32.000042000000008
 70
    64
  0
VERTEX
  5
15BF
  8
0
 10
109.0
 20
12.492991000000011
 30
32.000042000000008
 70
    64
  0
VERTEX
  5
15C0
  8
0
 10
109.0
 20
12.492991000000011
 30
32.000042000000008
 70
    64
  0
VERTEX
  5
15C1
  8
0
 10
109.0
 20
12.492991000000011
 30
32.000042000000008
 70
    64
  0
VERTEX
  5
15C2
  8
0
 10
109.0
 20
12.492991000000011
 30
55.500042000000008
 70
    64
  0
VERTEX
  5
15C3
  8
0
 10
103.0
 20
12.492991000000011
 30
54.600042000000009
 70
    64
  0
VERTEX
  5
15C4
  8
0
 10
97.299999999999997
 20
12.492991000000011
 30
52.400042000000013
 70
    64
  0
VERTEX
  5
15C5
  8
0
 10
92.400000000000006
 20
12.492991000000011
 30
48.600042000000002
 70
    64
  0
VERTEX
  5
15C6
  8
0
 10
88.599999999999994
 20
12.492991000000011
 30
43.70004200000001
 70
    64
  0
VERTEX
  5
15C7
  8
0
 10
86.400000000000006
 20
12.492991000000011
 30
38.000042000000001
 70
    64
  0
VERTEX
  5
15C8
  8
0
 10
85.5
 20
12.492991000000011
 30
32.000042000000008
 70
    64
  0
VERTEX
  5
15C9
  8
0
 10
109.0
 20
12.992991000000011
 30
57.000042000000022
 70
    64
  0
VERTEX
  5
15CA
  8
0
 10
102.59999999999999
 20
12.992991000000011
 30
56.100042000000009
 70
    64
  0
VERTEX
  5
15CB
  8
0
 10
96.599999999999994
 20
12.992991000000011
 30
53.600042000000009
 70
    64
  0
VERTEX
  5
15CC
  8
0
 10
91.299999999999997
 20
12.992991000000011
 30
49.70004200000001
 70
    64
  0
VERTEX
  5
15CD
  8
0
 10
87.400000000000006
 20
12.992991000000011
 30
44.400041999999992
 70
    64
  0
VERTEX
  5
15CE
  8
0
 10
84.900000000000006
 20
12.992991000000011
 30
38.400041999999999
 70
    64
  0
VERTEX
  5
15CF
  8
0
 10
84.0
 20
12.992991000000011
 30
32.000042000000008
 70
    64
  0
VERTEX
  5
15D0
  8
0
 10
109.0
 20
14.492991000000011
 30
57.500042000000022
 70
    64
  0
VERTEX
  5
15D1
  8
0
 10
102.40000000000001
 20
14.492991000000011
 30
56.600042000000009
 70
    64
  0
VERTEX
  5
15D2
  8
0
 10
96.299999999999997
 20
14.492991000000011
 30
54.100042000000009
 70
    64
  0
VERTEX
  5
15D3
  8
0
 10
91.0
 20
14.492991000000011
 30
50.000042000000022
 70
    64
  0
VERTEX
  5
15D4
  8
0
 10
86.900000000000006
 20
14.492991000000011
 30
44.700042000000003
 70
    64
  0
VERTEX
  5
15D5
  8
0
 10
84.400000000000006
 20
14.492991000000011
 30
38.600042000000002
 70
    64
  0
VERTEX
  5
15D6
  8
0
 10
83.499999999999986
 20
14.492991000000011
 30
32.000042000000008
 70
    64
  0
VERTEX
  5
15D7
  8
0
 10
109.0
 20
40.492991000000011
 30
57.500042000000008
 70
    64
  0
VERTEX
  5
15D8
  8
0
 10
102.40000000000001
 20
40.792991000000001
 30
56.600042000000002
 70
    64
  0
VERTEX
  5
15D9
  8
0
 10
96.299999999999997
 20
41.392990999999988
 30
54.100042000000002
 70
    64
  0
VERTEX
  5
15DA
  8
0
 10
91.0
 20
42.492991000000011
 30
50.000042000000008
 70
    64
  0
VERTEX
  5
15DB
  8
0
 10
86.900000000000006
 20
43.992991000000018
 30
44.700042000000018
 70
    64
  0
VERTEX
  5
15DC
  8
0
 10
84.400000000000006
 20
45.692991000000013
 30
38.600042000000009
 70
    64
  0
VERTEX
  5
15DD
  8
0
 10
83.499999999999986
 20
47.492991000000032
 30
32.000042000000022
 70
    64
  0
VERTEX
  5
15DE
  8
0
 10
109.0
 20
41.792991000000001
 30
56.500042000000008
 70
    64
  0
VERTEX
  5
15DF
  8
0
 10
102.7
 20
41.992991000000011
 30
55.600042000000002
 70
    64
  0
VERTEX
  5
15E0
  8
0
 10
96.799999999999983
 20
42.692990999999999
 30
53.20004200000001
 70
    64
  0
VERTEX
  5
15E1
  8
0
 10
91.699999999999989
 20
43.692990999999999
 30
49.300041999999998
 70
    64
  0
VERTEX
  5
15E2
  8
0
 10
87.799999999999983
 20
45.092991000000012
 30
44.200042000000018
 70
    64
  0
VERTEX
  5
15E3
  8
0
 10
85.400000000000006
 20
46.692990999999999
 30
38.300042000000019
 70
    64
  0
VERTEX
  5
15E4
  8
0
 10
84.500000000000014
 20
48.492991000000032
 30
32.000042000000029
 70
    64
  0
SEQEND
  5
15E5
  8
0
  0
POLYLINE
  5
15E6
  8
0
 66
     1
 10
0.0
 20
0.0
 30
0.0
 70
    16
 71
     6
 72
     7
  0
VERTEX
  5
15E7
  8
0
 10
109.0
 20
12.492991000000011
 30
32.000042000000008
 70
    64
  0
VERTEX
  5
15E8
  8
0
 10
109.0
 20
12.492991000000011
 30
32.000042000000008
 70
    64
  0
VERTEX
  5
15E9
  8
0
 10
109.0
 20
12.492991000000011
 30
32.000042000000008
 70
    64
  0
VERTEX
  5
15EA
  8
0
 10
109.0
 20
12.492991000000011
 30
32.000042000000008
 70
    64
  0
VERTEX
  5
15EB
  8
0
 10
109.0
 20
12.492991000000011
 30
32.000042000000008
 70
    64
  0
VERTEX
  5
15EC
  8
0
 10
109.0
 20
12.492991000000011
 30
32.000042000000008
 70
    64
  0
VERTEX
  5
15ED
  8
0
 10
109.0
 20
12.492991000000011
 30
32.000042000000008
 70
    64
  0
VERTEX
  5
15EE
  8
0
 10
109.0
 20
12.492991000000011
 30
8.5000419999999934
 70
    64
  0
VERTEX
  5
15EF
  8
0
 10
103.0
 20
12.492991000000011
 30
9.4000419999999991
 70
    64
  0
VERTEX
  5
15F0
  8
0
 10
97.299999999999997
 20
12.492991000000011
 30
11.600041999999981
 70
    64
  0
VERTEX
  5
15F1
  8
0
 10
92.400000000000006
 20
12.492991000000011
 30
15.400041999999999
 70
    64
  0
VERTEX
  5
15F2
  8
0
 10
88.599999999999994
 20
12.492991000000011
 30
20.300042000000008
 70
    64
  0
VERTEX
  5
15F3
  8
0
 10
86.400000000000006
 20
12.492991000000011
 30
26.000042000000011
 70
    64
  0
VERTEX
  5
15F4
  8
0
 10
85.5
 20
12.492991000000011
 30
32.000042000000008
 70
    64
  0
VERTEX
  5
15F5
  8
0
 10
109.0
 20
12.992991000000011
 30
7.0000419999999934
 70
    64
  0
VERTEX
  5
15F6
  8
0
 10
102.59999999999999
 20
12.992991000000011
 30
7.9000419999999991
 70
    64
  0
VERTEX
  5
15F7
  8
0
 10
96.599999999999994
 20
12.992991000000011
 30
10.400041999999999
 70
    64
  0
VERTEX
  5
15F8
  8
0
 10
91.299999999999997
 20
12.992991000000011
 30
14.300041999999999
 70
    64
  0
VERTEX
  5
15F9
  8
0
 10
87.400000000000006
 20
12.992991000000011
 30
19.600042000000009
 70
    64
  0
VERTEX
  5
15FA
  8
0
 10
84.900000000000006
 20
12.992991000000011
 30
25.600042000000009
 70
    64
  0
VERTEX
  5
15FB
  8
0
 10
84.0
 20
12.992991000000011
 30
32.000042000000008
 70
    64
  0
VERTEX
  5
15FC
  8
0
 10
109.0
 20
14.492991000000011
 30
6.5000419999999934
 70
    64
  0
VERTEX
  5
15FD
  8
0
 10
102.40000000000001
 20
14.492991000000011
 30
7.4000419999999991
 70
    64
  0
VERTEX
  5
15FE
  8
0
 10
96.299999999999997
 20
14.492991000000011
 30
9.9000419999999991
 70
    64
  0
VERTEX
  5
15FF
  8
0
 10
91.0
 20
14.492991000000011
 30
14.000042000000001
 70
    64
  0
VERTEX
  5
1600
  8
0
 10
86.900000000000006
 20
14.492991000000011
 30
19.300042000000008
 70
    64
  0
VERTEX
  5
1601
  8
0
 10
84.400000000000006
 20
14.492991000000011
 30
25.400041999999999
 70
    64
  0
VERTEX
  5
1602
  8
0
 10
83.499999999999986
 20
14.492991000000011
 30
32.000042000000008
 70
    64
  0
VERTEX
  5
1603
  8
0
 10
109.0
 20
47.492991000000039
 30
6.5000420000000068
 70
    64
  0
VERTEX
  5
1604
  8
0
 10
102.40000000000001
 20
47.492991000000039
 30
7.4000420000000133
 70
    64
  0
VERTEX
  5
1605
  8
0
 10
96.299999999999997
 20
47.492991000000039
 30
9.9000420000000133
 70
    64
  0
VERTEX
  5
1606
  8
0
 10
91.0
 20
47.492991000000039
 30
14.00004200000002
 70
    64
  0
VERTEX
  5
1607
  8
0
 10
86.900000000000006
 20
47.492991000000032
 30
19.300042000000008
 70
    64
  0
VERTEX
  5
1608
  8
0
 10
84.400000000000006
 20
47.492991000000032
 30
25.40004200000001
 70
    64
  0
VERTEX
  5
1609
  8
0
 10
83.499999999999986
 20
47.492991000000032
 30
32.000042000000022
 70
    64
  0
VERTEX
  5
160A
  8
0
 10
109.0
 20
48.492991000000039
 30
7.5000420000000139
 70
    64
  0
VERTEX
  5
160B
  8
0
 10
102.7
 20
48.492991000000039
 30
8.4000420000000204
 70
    64
  0
VERTEX
  5
160C
  8
0
 10
96.799999999999983
 20
48.492991000000039
 30
10.80004200000001
 70
    64
  0
VERTEX
  5
160D
  8
0
 10
91.699999999999989
 20
48.492991000000039
 30
14.70004200000003
 70
    64
  0
VERTEX
  5
160E
  8
0
 10
87.799999999999983
 20
48.492991000000032
 30
19.800042000000019
 70
    64
  0
VERTEX
  5
160F
  8
0
 10
85.400000000000006
 20
48.492991000000032
 30
25.700042000000028
 70
    64
  0
VERTEX
  5
1610
  8
0
 10
84.500000000000014
 20
48.492991000000032
 30
32.000042000000029
 70
    64
  0
SEQEND
  5
1611
  8
0
  0
POLYLINE
  5
1630
  8
0
 66
     1
 10
0.0
 20
0.0
 30
0.0
 70
    16
 71
     4
 72
     7
  0
VERTEX
  5
1631
  8
0
 10
109.0
 20
4.2172810000000416
 30
-37.251810999999996
 70
    64
  0
VERTEX
  5
1632
  8
0
 10
109.0
 20
4.2172810000000416
 30
-37.251810999999996
 70
    64
  0
VERTEX
  5
1633
  8
0
 10
109.0
 20
4.2172810000000416
 30
-37.251810999999996
 70
    64
  0
VERTEX
  5
1634
  8
0
 10
109.0
 20
4.2172810000000416
 30
-37.251810999999996
 70
    64
  0
VERTEX
  5
1635
  8
0
 10
109.0
 20
4.2172810000000416
 30
-37.251810999999996
 70
    64
  0
VERTEX
  5
1636
  8
0
 10
109.0
 20
4.2172810000000416
 30
-37.251810999999996
 70
    64
  0
VERTEX
  5
1637
  8
0
 10
109.0
 20
4.2172810000000416
 30
-37.251810999999996
 70
    64
  0
VERTEX
  5
1638
  8
0
 10
109.0
 20
8.0809840000000577
 30
-38.287087999999983
 70
    64
  0
VERTEX
  5
1639
  8
0
 10
108.0
 20
7.9843920000000423
 30
-38.261206000000008
 70
    64
  0
VERTEX
  5
163A
  8
0
 10
107.0
 20
7.5980210000000454
 30
-38.157677999999997
 70
    64
  0
VERTEX
  5
163B
  8
0
 10
106.09999999999989
 20
7.0184660000000463
 30
-38.002386999999992
 70
    64
  0
VERTEX
  5
163C
  8
0
 10
105.4999999999999
 20
6.1491320000000371
 30
-37.769449999999999
 70
    64
  0
VERTEX
  5
163D
  8
0
 10
105.09999999999989
 20
5.1832070000000376
 30
-37.510631000000011
 70
    64
  0
VERTEX
  5
163E
  8
0
 10
105.0
 20
4.2172810000000416
 30
-37.251810999999996
 70
    64
  0
VERTEX
  5
163F
  8
0
 10
109.0
 20
8.6933570000000486
 30
-37.933534000000002
 70
    64
  0
VERTEX
  5
1640
  8
0
 10
107.8
 20
8.5001710000000514
 30
-37.881769999999989
 70
    64
  0
VERTEX
  5
1641
  8
0
 10
106.8
 20
8.1138010000000502
 30
-37.778243000000003
 70
    64
  0
VERTEX
  5
1642
  8
0
 10
105.8
 20
7.43765300000004
 30
-37.597070000000002
 70
    64
  0
VERTEX
  5
1643
  8
0
 10
105.09999999999989
 20
6.4717270000000431
 30
-37.338249999999988
 70
    64
  0
VERTEX
  5
1644
  8
0
 10
104.7
 20
5.505801000000047
 30
-37.079431
 70
    64
  0
VERTEX
  5
1645
  8
0
 10
104.4999999999999
 20
4.3466900000000521
 30
-36.768848999999989
 70
    64
  0
VERTEX
  5
1646
  8
0
 10
109.0
 20
21.76371800000004
 30
10.845720000000011
 70
    64
  0
VERTEX
  5
1647
  8
0
 10
107.8
 20
21.57053300000004
 30
10.897484000000009
 70
    64
  0
VERTEX
  5
1648
  8
0
 10
106.8
 20
21.184163000000041
 30
11.00101100000002
 70
    64
  0
VERTEX
  5
1649
  8
0
 10
105.8
 20
20.508015000000029
 30
11.182185000000009
 70
    64
  0
VERTEX
  5
164A
  8
0
 10
105.09999999999989
 20
19.542089000000029
 30
11.441004000000021
 70
    64
  0
VERTEX
  5
164B
  8
0
 10
104.7
 20
18.57616300000003
 30
11.69982299999999
 70
    64
  0
VERTEX
  5
164C
  8
0
 10
104.4999999999999
 20
17.417052000000009
 30
12.010406
 70
    64
  0
SEQEND
  5
164D
  8
0
  0
POLYLINE
  5
164E
  8
0
 66
     1
 10
0.0
 20
0.0
 30
0.0
 70
    16
 71
     4
 72
     7
  0
VERTEX
  5
164F
  8
0
 10
109.0
 20
4.2172810000000416
 30
-37.251810999999996
 70
    64
  0
VERTEX
  5
1650
  8
0
 10
109.0
 20
4.2172810000000416
 30
-37.251810999999996
 70
    64
  0
VERTEX
  5
1651
  8
0
 10
109.0
 20
4.2172810000000416
 30
-37.251810999999996
 70
    64
  0
VERTEX
  5
1652
  8
0
 10
109.0
 20
4.2172810000000416
 30
-37.251810999999996
 70
    64
  0
VERTEX
  5
1653
  8
0
 10
109.0
 20
4.2172810000000416
 30
-37.251810999999996
 70
    64
  0
VERTEX
  5
1654
  8
0
 10
109.0
 20
4.2172810000000416
 30
-37.251810999999996
 70
    64
  0
VERTEX
  5
1655
  8
0
 10
109.0
 20
4.2172810000000416
 30
-37.251810999999996
 70
    64
  0
VERTEX
  5
1656
  8
0
 10
109.0
 20
0.3535770000000298
 30
-36.216535000000022
 70
    64
  0
VERTEX
  5
1657
  8
0
 10
108.0
 20
0.4501700000000426
 30
-36.242416999999982
 70
    64
  0
VERTEX
  5
1658
  8
0
 10
107.0
 20
0.836540000000042
 30
-36.345945
 70
    64
  0
VERTEX
  5
1659
  8
0
 10
106.09999999999989
 20
1.416096000000038
 30
-36.501235999999999
 70
    64
  0
VERTEX
  5
165A
  8
0
 10
105.4999999999999
 20
2.2854290000000499
 30
-36.734172999999998
 70
    64
  0
VERTEX
  5
165B
  8
0
 10
105.09999999999989
 20
3.251355000000046
 30
-36.99299199999998
 70
    64
  0
VERTEX
  5
165C
  8
0
 10
105.0
 20
4.2172810000000416
 30
-37.251810999999996
 70
    64
  0
VERTEX
  5
165D
  8
0
 10
109.0
 20
0.0000240000000531
 30
-35.604162999999993
 70
    64
  0
VERTEX
  5
165E
  8
0
 10
107.8
 20
0.1932090000000528
 30
-35.655926999999991
 70
    64
  0
VERTEX
  5
165F
  8
0
 10
106.8
 20
0.5795800000000498
 30
-35.759453999999998
 70
    64
  0
VERTEX
  5
1660
  8
0
 10
105.8
 20
1.255728000000033
 30
-35.940627999999997
 70
    64
  0
VERTEX
  5
1661
  8
0
 10
105.09999999999989
 20
2.221653000000031
 30
-36.199446999999992
 70
    64
  0
VERTEX
  5
1662
  8
0
 10
104.7
 20
3.1875790000000559
 30
-36.458265999999981
 70
    64
  0
VERTEX
  5
1663
  8
0
 10
104.4999999999999
 20
4.3466900000000521
 30
-36.768848999999989
 70
    64
  0
VERTEX
  5
1664
  8
0
 10
109.0
 20
13.07038600000004
 30
13.175091
 70
    64
  0
VERTEX
  5
1665
  8
0
 10
107.8
 20
13.26357100000004
 30
13.123328000000001
 70
    64
  0
VERTEX
  5
1666
  8
0
 10
106.8
 20
13.649941000000039
 30
13.0198
 70
    64
  0
VERTEX
  5
1667
  8
0
 10
105.8
 20
14.326089000000019
 30
12.838627000000001
 70
    64
  0
VERTEX
  5
1668
  8
0
 10
105.09999999999989
 20
15.292015000000021
 30
12.579808
 70
    64
  0
VERTEX
  5
1669
  8
0
 10
104.7
 20
16.25794100000001
 30
12.320988
 70
    64
  0
VERTEX
  5
166A
  8
0
 10
104.4999999999999
 20
17.417052000000009
 30
12.010406
 70
    64
  0
SEQEND
  5
166B
  8
0
  0
POLYLINE
  5
192E
  8
LAYER1
 62
   252
 66
     1
 10
0.0
 20
0.0
 30
0.0
 70
    64
 71
   106
 72
    96
  0
VERTEX
  5
192F
  8
LAYER1
 10
0.0
 20
155.0
 30
34.000100000000003
 70
   192
  0
VERTEX
  5
1930
  8
LAYER1
 10
0.0
 20
155.0
 30
33.99989999999999
 70
   192
  0
VERTEX
  5
1931
  8
LAYER1
 10
0.0
 20
129.0
 30
34.000100000000003
 70
   192
  0
VERTEX
  5
1932
  8
LAYER1
 10
0.0
 20
129.0
 30
33.99989999999999
 70
   192
  0
VERTEX
  5
1933
  8
LAYER1
 10
0.666667
 20
127.5
 30
34.000100000000003
 70
   192
  0
VERTEX
  5
1934
  8
LAYER1
 10
0.666667
 20
127.5
 30
33.99989999999999
 70
   192
  0
VERTEX
  5
1935
  8
LAYER1
 10
1.1999999999999991
 20
155.0
 30
42.799999999999997
 70
   192
  0
VERTEX
  5
1936
  8
LAYER1
 10
1.1999999999999991
 20
155.0
 30
25.199999999999999
 70
   192
  0
VERTEX
  5
1937
  8
LAYER1
 10
1.1999999999999991
 20
129.0
 30
42.799999999999997
 70
   192
  0
VERTEX
  5
1938
  8
LAYER1
 10
1.1999999999999991
 20
129.0
 30
25.199999999999999
 70
   192
  0
VERTEX
  5
1939
  8
LAYER1
 10
1.8666700000000001
 20
127.5
 30
42.533299999999997
 70
   192
  0
VERTEX
  5
193A
  8
LAYER1
 10
1.8666700000000001
 20
127.5
 30
25.466699999999999
 70
   192
  0
VERTEX
  5
193B
  8
LAYER1
 10
2.666669999999999
 20
127.0
 30
34.000100000000003
 70
   192
  0
VERTEX
  5
193C
  8
LAYER1
 10
2.666669999999999
 20
127.0
 30
33.99989999999999
 70
   192
  0
VERTEX
  5
193D
  8
LAYER1
 10
3.8666699999999992
 20
127.0
 30
42.0
 70
   192
  0
VERTEX
  5
193E
  8
LAYER1
 10
3.8666699999999992
 20
127.0
 30
26.0
 70
   192
  0
VERTEX
  5
193F
  8
LAYER1
 10
4.5333300000000003
 20
155.0
 30
50.933300000000003
 70
   192
  0
VERTEX
  5
1940
  8
LAYER1
 10
4.5333300000000003
 20
155.0
 30
17.066700000000001
 70
   192
  0
VERTEX
  5
1941
  8
LAYER1
 10
4.5333300000000003
 20
129.0
 30
50.933300000000003
 70
   192
  0
VERTEX
  5
1942
  8
LAYER1
 10
4.5333300000000003
 20
129.0
 30
17.066700000000001
 70
   192
  0
VERTEX
  5
1943
  8
LAYER1
 10
5.2000000000000002
 20
127.5
 30
50.53329999999999
 70
   192
  0
VERTEX
  5
1944
  8
LAYER1
 10
5.2000000000000002
 20
127.5
 30
17.466699999999999
 70
   192
  0
VERTEX
  5
1945
  8
LAYER1
 10
6.7999999999999989
 20
127.0
 30
49.600000000000001
 70
   192
  0
VERTEX
  5
1946
  8
LAYER1
 10
6.7999999999999989
 20
127.0
 30
18.399999999999999
 70
   192
  0
VERTEX
  5
1947
  8
LAYER1
 10
10.0
 20
155.0
 30
58.0
 70
   192
  0
VERTEX
  5
1948
  8
LAYER1
 10
10.0
 20
155.0
 30
10.0
 70
   192
  0
VERTEX
  5
1949
  8
LAYER1
 10
10.0
 20
129.0
 30
58.0
 70
   192
  0
VERTEX
  5
194A
  8
LAYER1
 10
10.0
 20
129.0
 30
10.0
 70
   192
  0
VERTEX
  5
194B
  8
LAYER1
 10
10.4
 20
127.5
 30
57.600000000000001
 70
   192
  0
VERTEX
  5
194C
  8
LAYER1
 10
10.4
 20
127.5
 30
10.4
 70
   192
  0
VERTEX
  5
194D
  8
LAYER1
 10
11.8667
 20
127.0
 30
56.133299999999998
 70
   192
  0
VERTEX
  5
194E
  8
LAYER1
 10
11.8667
 20
127.0
 30
11.8667
 70
   192
  0
VERTEX
  5
194F
  8
LAYER1
 10
17.066700000000001
 20
155.0
 30
63.466700000000003
 70
   192
  0
VERTEX
  5
1950
  8
LAYER1
 10
17.066700000000001
 20
155.0
 30
4.5333399999999999
 70
   192
  0
VERTEX
  5
1951
  8
LAYER1
 10
17.066700000000001
 20
129.0
 30
63.466700000000003
 70
   192
  0
VERTEX
  5
1952
  8
LAYER1
 10
17.066700000000001
 20
129.0
 30
4.5333400000000008
 70
   192
  0
VERTEX
  5
1953
  8
LAYER1
 10
17.466699999999989
 20
127.5
 30
62.799999999999997
 70
   192
  0
VERTEX
  5
1954
  8
LAYER1
 10
17.466699999999989
 20
127.5
 30
5.2000100000000007
 70
   192
  0
VERTEX
  5
1955
  8
LAYER1
 10
18.399999999999991
 20
127.0
 30
61.200000000000003
 70
   192
  0
VERTEX
  5
1956
  8
LAYER1
 10
18.399999999999991
 20
127.0
 30
6.8000100000000021
 70
   192
  0
VERTEX
  5
1957
  8
LAYER1
 10
25.199999999999999
 20
155.0
 30
66.799999999999983
 70
   192
  0
VERTEX
  5
1958
  8
LAYER1
 10
25.199999999999999
 20
155.0
 30
1.2
 70
   192
  0
VERTEX
  5
1959
  8
LAYER1
 10
25.199999999999999
 20
129.0
 30
66.799999999999983
 70
   192
  0
VERTEX
  5
195A
  8
LAYER1
 10
25.199999999999999
 20
129.0
 30
1.2000000000000011
 70
   192
  0
VERTEX
  5
195B
  8
LAYER1
 10
25.466699999999999
 20
127.5
 30
66.133300000000006
 70
   192
  0
VERTEX
  5
195C
  8
LAYER1
 10
25.466699999999999
 20
127.5
 30
1.866670000000002
 70
   192
  0
VERTEX
  5
195D
  8
LAYER1
 10
26.0
 20
127.0
 30
64.133300000000006
 70
   192
  0
VERTEX
  5
195E
  8
LAYER1
 10
26.0
 20
127.0
 30
3.8666700000000009
 70
   192
  0
VERTEX
  5
195F
  8
LAYER1
 10
34.0
 20
155.0
 30
68.0
 70
   192
  0
VERTEX
  5
1960
  8
LAYER1
 10
34.0
 20
155.0
 30
0.0000000000000005
 70
   192
  0
VERTEX
  5
1961
  8
LAYER1
 10
34.0
 20
129.0
 30
68.0
 70
   192
  0
VERTEX
  5
1962
  8
LAYER1
 10
34.0
 20
129.0
 30
0.0000000000000021
 70
   192
  0
VERTEX
  5
1963
  8
LAYER1
 10
34.0
 20
127.5
 30
67.333299999999994
 70
   192
  0
VERTEX
  5
1964
  8
LAYER1
 10
34.0
 20
127.5
 30
0.6666680000000023
 70
   192
  0
VERTEX
  5
1965
  8
LAYER1
 10
34.0
 20
127.0
 30
65.333299999999994
 70
   192
  0
VERTEX
  5
1966
  8
LAYER1
 10
34.0
 20
127.0
 30
34.000100000000003
 70
   192
  0
VERTEX
  5
1967
  8
LAYER1
 10
34.0
 20
127.0
 30
33.99989999999999
 70
   192
  0
VERTEX
  5
1968
  8
LAYER1
 10
34.0
 20
127.0
 30
2.6666700000000021
 70
   192
  0
VERTEX
  5
1969
  8
LAYER1
 10
42.0
 20
127.0
 30
64.133300000000006
 70
   192
  0
VERTEX
  5
196A
  8
LAYER1
 10
42.0
 20
127.0
 30
3.8666700000000009
 70
   192
  0
VERTEX
  5
196B
  8
LAYER1
 10
42.533299999999997
 20
127.5
 30
66.133300000000006
 70
   192
  0
VERTEX
  5
196C
  8
LAYER1
 10
42.533299999999997
 20
127.5
 30
1.866670000000002
 70
   192
  0
VERTEX
  5
196D
  8
LAYER1
 10
42.799999999999997
 20
155.0
 30
66.799999999999983
 70
   192
  0
VERTEX
  5
196E
  8
LAYER1
 10
42.799999999999997
 20
155.0
 30
1.2
 70
   192
  0
VERTEX
  5
196F
  8
LAYER1
 10
42.799999999999997
 20
129.0
 30
66.799999999999983
 70
   192
  0
VERTEX
  5
1970
  8
LAYER1
 10
42.799999999999997
 20
129.0
 30
1.2000000000000011
 70
   192
  0
VERTEX
  5
1971
  8
LAYER1
 10
49.600000000000001
 20
127.0
 30
61.200000000000003
 70
   192
  0
VERTEX
  5
1972
  8
LAYER1
 10
49.600000000000001
 20
127.0
 30
6.8000100000000021
 70
   192
  0
VERTEX
  5
1973
  8
LAYER1
 10
50.53329999999999
 20
127.5
 30
62.799999999999997
 70
   192
  0
VERTEX
  5
1974
  8
LAYER1
 10
50.53329999999999
 20
127.5
 30
5.2000100000000007
 70
   192
  0
VERTEX
  5
1975
  8
LAYER1
 10
50.933300000000003
 20
155.0
 30
63.466700000000003
 70
   192
  0
VERTEX
  5
1976
  8
LAYER1
 10
50.933300000000003
 20
155.0
 30
4.5333399999999999
 70
   192
  0
VERTEX
  5
1977
  8
LAYER1
 10
50.933300000000003
 20
129.0
 30
63.466700000000003
 70
   192
  0
VERTEX
  5
1978
  8
LAYER1
 10
50.933300000000003
 20
129.0
 30
4.5333400000000008
 70
   192
  0
VERTEX
  5
1979
  8
LAYER1
 10
56.133299999999998
 20
127.0
 30
56.133299999999998
 70
   192
  0
VERTEX
  5
197A
  8
LAYER1
 10
56.133299999999998
 20
127.0
 30
11.8667
 70
   192
  0
VERTEX
  5
197B
  8
LAYER1
 10
57.600000000000001
 20
127.5
 30
57.600000000000001
 70
   192
  0
VERTEX
  5
197C
  8
LAYER1
 10
57.600000000000001
 20
127.5
 30
10.4
 70
   192
  0
VERTEX
  5
197D
  8
LAYER1
 10
58.0
 20
155.0
 30
58.0
 70
   192
  0
VERTEX
  5
197E
  8
LAYER1
 10
58.0
 20
155.0
 30
10.0
 70
   192
  0
VERTEX
  5
197F
  8
LAYER1
 10
58.0
 20
129.0
 30
58.0
 70
   192
  0
VERTEX
  5
1980
  8
LAYER1
 10
58.0
 20
129.0
 30
10.0
 70
   192
  0
VERTEX
  5
1981
  8
LAYER1
 10
61.200000000000003
 20
127.0
 30
49.600000000000001
 70
   192
  0
VERTEX
  5
1982
  8
LAYER1
 10
61.200000000000003
 20
127.0
 30
18.399999999999999
 70
   192
  0
VERTEX
  5
1983
  8
LAYER1
 10
62.799999999999997
 20
127.5
 30
50.53329999999999
 70
   192
  0
VERTEX
  5
1984
  8
LAYER1
 10
62.799999999999997
 20
127.5
 30
17.466699999999999
 70
   192
  0
VERTEX
  5
1985
  8
LAYER1
 10
63.466700000000003
 20
155.0
 30
50.933300000000003
 70
   192
  0
VERTEX
  5
1986
  8
LAYER1
 10
63.466700000000003
 20
155.0
 30
17.066700000000001
 70
   192
  0
VERTEX
  5
1987
  8
LAYER1
 10
63.466700000000003
 20
129.0
 30
50.933300000000003
 70
   192
  0
VERTEX
  5
1988
  8
LAYER1
 10
63.466700000000003
 20
129.0
 30
17.066700000000001
 70
   192
  0
VERTEX
  5
1989
  8
LAYER1
 10
64.133300000000006
 20
127.0
 30
42.0
 70
   192
  0
VERTEX
  5
198A
  8
LAYER1
 10
64.133300000000006
 20
127.0
 30
26.0
 70
   192
  0
VERTEX
  5
198B
  8
LAYER1
 10
65.333299999999994
 20
127.0
 30
34.000100000000003
 70
   192
  0
VERTEX
  5
198C
  8
LAYER1
 10
65.333299999999994
 20
127.0
 30
33.99989999999999
 70
   192
  0
VERTEX
  5
198D
  8
LAYER1
 10
66.133300000000006
 20
127.5
 30
42.533299999999997
 70
   192
  0
VERTEX
  5
198E
  8
LAYER1
 10
66.133300000000006
 20
127.5
 30
25.466699999999999
 70
   192
  0
VERTEX
  5
198F
  8
LAYER1
 10
66.799999999999983
 20
155.0
 30
42.799999999999997
 70
   192
  0
VERTEX
  5
1990
  8
LAYER1
 10
66.799999999999983
 20
155.0
 30
25.199999999999999
 70
   192
  0
VERTEX
  5
1991
  8
LAYER1
 10
66.799999999999983
 20
129.0
 30
42.799999999999997
 70
   192
  0
VERTEX
  5
1992
  8
LAYER1
 10
66.799999999999983
 20
129.0
 30
25.199999999999999
 70
   192
  0
VERTEX
  5
1993
  8
LAYER1
 10
67.333299999999994
 20
127.5
 30
34.000100000000003
 70
   192
  0
VERTEX
  5
1994
  8
LAYER1
 10
67.333299999999994
 20
127.5
 30
33.99989999999999
 70
   192
  0
VERTEX
  5
1995
  8
LAYER1
 10
68.0
 20
155.0
 30
34.000100000000003
 70
   192
  0
VERTEX
  5
1996
  8
LAYER1
 10
68.0
 20
155.0
 30
33.99989999999999
 70
   192
  0
VERTEX
  5
1997
  8
LAYER1
 10
68.0
 20
129.0
 30
34.000100000000003
 70
   192
  0
VERTEX
  5
1998
  8
LAYER1
 10
68.0
 20
129.0
 30
33.99989999999999
 70
   192
  0
VERTEX
  5
1999
  8
LAYER1
 10
0.0
 20
0.0
 30
0.0
 70
   128
 71
    56
 72
    56
 73
    48
 74
    58
  0
VERTEX
  5
199A
  8
LAYER1
 10
0.0
 20
0.0
 30
0.0
 70
   128
 71
    48
 72
    40
 73
    56
 74
    56
  0
VERTEX
  5
199B
  8
LAYER1
 10
0.0
 20
0.0
 30
0.0
 70
   128
 71
    40
 72
    32
 73
    56
 74
    56
  0
VERTEX
  5
199C
  8
LAYER1
 10
0.0
 20
0.0
 30
0.0
 70
   128
 71
    32
 72
    24
 73
    56
 74
    56
  0
VERTEX
  5
199D
  8
LAYER1
 10
0.0
 20
0.0
 30
0.0
 70
   128
 71
    24
 72
    16
 73
    56
 74
    56
  0
VERTEX
  5
199E
  8
LAYER1
 10
0.0
 20
0.0
 30
0.0
 70
   128
 71
    16
 72
    13
 73
    56
 74
    56
  0
VERTEX
  5
199F
  8
LAYER1
 10
0.0
 20
0.0
 30
0.0
 70
   128
 71
    58
 72
    48
 73
    46
 74
    54
  0
VERTEX
  5
19A0
  8
LAYER1
 10
0.0
 20
0.0
 30
0.0
 70
   128
 71
    46
 72
    38
 73
    40
 74
    48
  0
VERTEX
  5
19A1
  8
LAYER1
 10
0.0
 20
0.0
 30
0.0
 70
   128
 71
    38
 72
    30
 73
    32
 74
    40
  0
VERTEX
  5
19A2
  8
LAYER1
 10
0.0
 20
0.0
 30
0.0
 70
   128
 71
    30
 72
    22
 73
    24
 74
    32
  0
VERTEX
  5
19A3
  8
LAYER1
 10
0.0
 20
0.0
 30
0.0
 70
   128
 71
    22
 72
    12
 73
    16
 74
    24
  0
VERTEX
  5
19A4
  8
LAYER1
 10
0.0
 20
0.0
 30
0.0
 70
   128
 71
    12
 72
     5
 73
    13
 74
    16
  0
VERTEX
  5
19A5
  8
LAYER1
 10
0.0
 20
0.0
 30
0.0
 70
   128
 71
    54
 72
    46
 73
    44
 74
    52
  0
VERTEX
  5
19A6
  8
LAYER1
 10
0.0
 20
0.0
 30
0.0
 70
   128
 71
    44
 72
    36
 73
    38
 74
    46
  0
VERTEX
  5
19A7
  8
LAYER1
 10
0.0
 20
0.0
 30
0.0
 70
   128
 71
    36
 72
    28
 73
    30
 74
    38
  0
VERTEX
  5
19A8
  8
LAYER1
 10
0.0
 20
0.0
 30
0.0
 70
   128
 71
    28
 72
    20
 73
    22
 74
    30
  0
VERTEX
  5
19A9
  8
LAYER1
 10
0.0
 20
0.0
 30
0.0
 70
   128
 71
    20
 72
    10
 73
    12
 74
    22
  0
VERTEX
  5
19AA
  8
LAYER1
 10
0.0
 20
0.0
 30
0.0
 70
   128
 71
    10
 72
     3
 73
     5
 74
    12
  0
VERTEX
  5
19AB
  8
LAYER1
 10
0.0
 20
0.0
 30
0.0
 70
   128
 71
    50
 72
    52
 73
    44
 74
    42
  0
VERTEX
  5
19AC
  8
LAYER1
 10
0.0
 20
0.0
 30
0.0
 70
   128
 71
    34
 72
    36
 73
    44
 74
    42
  0
VERTEX
  5
19AD
  8
LAYER1
 10
0.0
 20
0.0
 30
0.0
 70
   128
 71
    26
 72
    28
 73
    36
 74
    34
  0
VERTEX
  5
19AE
  8
LAYER1
 10
0.0
 20
0.0
 30
0.0
 70
   128
 71
    18
 72
    20
 73
    28
 74
    26
  0
VERTEX
  5
19AF
  8
LAYER1
 10
0.0
 20
0.0
 30
0.0
 70
   128
 71
     8
 72
    10
 73
    20
 74
    18
  0
VERTEX
  5
19B0
  8
LAYER1
 10
0.0
 20
0.0
 30
0.0
 70
   128
 71
     1
 72
     3
 73
    10
 74
     8
  0
VERTEX
  5
19B1
  8
LAYER1
 10
0.0
 20
0.0
 30
0.0
 70
   128
 71
    58
 72
    60
 73
    56
 74
    56
  0
VERTEX
  5
19B2
  8
LAYER1
 10
0.0
 20
0.0
 30
0.0
 70
   128
 71
    60
 72
    68
 73
    56
 74
    56
  0
VERTEX
  5
19B3
  8
LAYER1
 10
0.0
 20
0.0
 30
0.0
 70
   128
 71
    68
 72
    76
 73
    56
 74
    56
  0
VERTEX
  5
19B4
  8
LAYER1
 10
0.0
 20
0.0
 30
0.0
 70
   128
 71
    76
 72
    84
 73
    56
 74
    56
  0
VERTEX
  5
19B5
  8
LAYER1
 10
0.0
 20
0.0
 30
0.0
 70
   128
 71
    84
 72
    92
 73
    56
 74
    56
  0
VERTEX
  5
19B6
  8
LAYER1
 10
0.0
 20
0.0
 30
0.0
 70
   128
 71
    92
 72
    93
 73
    56
 74
    56
  0
VERTEX
  5
19B7
  8
LAYER1
 10
0.0
 20
0.0
 30
0.0
 70
   128
 71
    54
 72
    62
 73
    60
 74
    58
  0
VERTEX
  5
19B8
  8
LAYER1
 10
0.0
 20
0.0
 30
0.0
 70
   128
 71
    62
 72
    70
 73
    68
 74
    60
  0
VERTEX
  5
19B9
  8
LAYER1
 10
0.0
 20
0.0
 30
0.0
 70
   128
 71
    70
 72
    78
 73
    76
 74
    68
  0
VERTEX
  5
19BA
  8
LAYER1
 10
0.0
 20
0.0
 30
0.0
 70
   128
 71
    78
 72
    86
 73
    84
 74
    76
  0
VERTEX
  5
19BB
  8
LAYER1
 10
0.0
 20
0.0
 30
0.0
 70
   128
 71
    86
 72
    96
 73
    92
 74
    84
  0
VERTEX
  5
19BC
  8
LAYER1
 10
0.0
 20
0.0
 30
0.0
 70
   128
 71
    96
 72
   101
 73
    93
 74
    92
  0
VERTEX
  5
19BD
  8
LAYER1
 10
0.0
 20
0.0
 30
0.0
 70
   128
 71
    52
 72
    66
 73
    62
 74
    54
  0
VERTEX
  5
19BE
  8
LAYER1
 10
0.0
 20
0.0
 30
0.0
 70
   128
 71
    66
 72
    74
 73
    70
 74
    62
  0
VERTEX
  5
19BF
  8
LAYER1
 10
0.0
 20
0.0
 30
0.0
 70
   128
 71
    74
 72
    82
 73
    78
 74
    70
  0
VERTEX
  5
19C0
  8
LAYER1
 10
0.0
 20
0.0
 30
0.0
 70
   128
 71
    82
 72
    90
 73
    86
 74
    78
  0
VERTEX
  5
19C1
  8
LAYER1
 10
0.0
 20
0.0
 30
0.0
 70
   128
 71
    90
 72
   100
 73
    96
 74
    86
  0
VERTEX
  5
19C2
  8
LAYER1
 10
0.0
 20
0.0
 30
0.0
 70
   128
 71
   100
 72
   105
 73
   101
 74
    96
  0
VERTEX
  5
19C3
  8
LAYER1
 10
0.0
 20
0.0
 30
0.0
 70
   128
 71
    64
 72
    66
 73
    52
 74
    50
  0
VERTEX
  5
19C4
  8
LAYER1
 10
0.0
 20
0.0
 30
0.0
 70
   128
 71
    72
 72
    74
 73
    66
 74
    64
  0
VERTEX
  5
19C5
  8
LAYER1
 10
0.0
 20
0.0
 30
0.0
 70
   128
 71
    80
 72
    82
 73
    74
 74
    72
  0
VERTEX
  5
19C6
  8
LAYER1
 10
0.0
 20
0.0
 30
0.0
 70
   128
 71
    88
 72
    90
 73
    82
 74
    80
  0
VERTEX
  5
19C7
  8
LAYER1
 10
0.0
 20
0.0
 30
0.0
 70
   128
 71
    98
 72
   100
 73
    90
 74
    88
  0
VERTEX
  5
19C8
  8
LAYER1
 10
0.0
 20
0.0
 30
0.0
 70
   128
 71
   103
 72
   105
 73
   100
 74
    98
  0
VERTEX
  5
19C9
  8
LAYER1
 10
0.0
 20
0.0
 30
0.0
 70
   128
 71
    57
 72
    57
 73
    59
 74
    55
  0
VERTEX
  5
19CA
  8
LAYER1
 10
0.0
 20
0.0
 30
0.0
 70
   128
 71
    59
 72
    67
 73
    57
 74
    57
  0
VERTEX
  5
19CB
  8
LAYER1
 10
0.0
 20
0.0
 30
0.0
 70
   128
 71
    67
 72
    75
 73
    57
 74
    57
  0
VERTEX
  5
19CC
  8
LAYER1
 10
0.0
 20
0.0
 30
0.0
 70
   128
 71
    75
 72
    83
 73
    57
 74
    57
  0
VERTEX
  5
19CD
  8
LAYER1
 10
0.0
 20
0.0
 30
0.0
 70
   128
 71
    83
 72
    91
 73
    57
 74
    57
  0
VERTEX
  5
19CE
  8
LAYER1
 10
0.0
 20
0.0
 30
0.0
 70
   128
 71
    91
 72
    94
 73
    57
 74
    57
  0
VERTEX
  5
19CF
  8
LAYER1
 10
0.0
 20
0.0
 30
0.0
 70
   128
 71
    55
 72
    59
 73
    61
 74
    53
  0
VERTEX
  5
19D0
  8
LAYER1
 10
0.0
 20
0.0
 30
0.0
 70
   128
 71
    61
 72
    69
 73
    67
 74
    59
  0
VERTEX
  5
19D1
  8
LAYER1
 10
0.0
 20
0.0
 30
0.0
 70
   128
 71
    69
 72
    77
 73
    75
 74
    67
  0
VERTEX
  5
19D2
  8
LAYER1
 10
0.0
 20
0.0
 30
0.0
 70
   128
 71
    77
 72
    85
 73
    83
 74
    75
  0
VERTEX
  5
19D3
  8
LAYER1
 10
0.0
 20
0.0
 30
0.0
 70
   128
 71
    85
 72
    95
 73
    91
 74
    83
  0
VERTEX
  5
19D4
  8
LAYER1
 10
0.0
 20
0.0
 30
0.0
 70
   128
 71
    95
 72
   102
 73
    94
 74
    91
  0
VERTEX
  5
19D5
  8
LAYER1
 10
0.0
 20
0.0
 30
0.0
 70
   128
 71
    53
 72
    61
 73
    65
 74
    51
  0
VERTEX
  5
19D6
  8
LAYER1
 10
0.0
 20
0.0
 30
0.0
 70
   128
 71
    65
 72
    73
 73
    69
 74
    61
  0
VERTEX
  5
19D7
  8
LAYER1
 10
0.0
 20
0.0
 30
0.0
 70
   128
 71
    73
 72
    81
 73
    77
 74
    69
  0
VERTEX
  5
19D8
  8
LAYER1
 10
0.0
 20
0.0
 30
0.0
 70
   128
 71
    81
 72
    89
 73
    85
 74
    77
  0
VERTEX
  5
19D9
  8
LAYER1
 10
0.0
 20
0.0
 30
0.0
 70
   128
 71
    89
 72
    99
 73
    95
 74
    85
  0
VERTEX
  5
19DA
  8
LAYER1
 10
0.0
 20
0.0
 30
0.0
 70
   128
 71
    99
 72
   106
 73
   102
 74
    95
  0
VERTEX
  5
19DB
  8
LAYER1
 10
0.0
 20
0.0
 30
0.0
 70
   128
 71
    49
 72
    51
 73
    65
 74
    63
  0
VERTEX
  5
19DC
  8
LAYER1
 10
0.0
 20
0.0
 30
0.0
 70
   128
 71
    71
 72
    73
 73
    65
 74
    63
  0
VERTEX
  5
19DD
  8
LAYER1
 10
0.0
 20
0.0
 30
0.0
 70
   128
 71
    79
 72
    81
 73
    73
 74
    71
  0
VERTEX
  5
19DE
  8
LAYER1
 10
0.0
 20
0.0
 30
0.0
 70
   128
 71
    87
 72
    89
 73
    81
 74
    79
  0
VERTEX
  5
19DF
  8
LAYER1
 10
0.0
 20
0.0
 30
0.0
 70
   128
 71
    97
 72
    99
 73
    89
 74
    87
  0
VERTEX
  5
19E0
  8
LAYER1
 10
0.0
 20
0.0
 30
0.0
 70
   128
 71
   104
 72
   106
 73
    99
 74
    97
  0
VERTEX
  5
19E1
  8
LAYER1
 10
0.0
 20
0.0
 30
0.0
 70
   128
 71
    55
 72
    47
 73
    57
 74
    57
  0
VERTEX
  5
19E2
  8
LAYER1
 10
0.0
 20
0.0
 30
0.0
 70
   128
 71
    47
 72
    39
 73
    57
 74
    57
  0
VERTEX
  5
19E3
  8
LAYER1
 10
0.0
 20
0.0
 30
0.0
 70
   128
 71
    39
 72
    31
 73
    57
 74
    57
  0
VERTEX
  5
19E4
  8
LAYER1
 10
0.0
 20
0.0
 30
0.0
 70
   128
 71
    31
 72
    23
 73
    57
 74
    57
  0
VERTEX
  5
19E5
  8
LAYER1
 10
0.0
 20
0.0
 30
0.0
 70
   128
 71
    23
 72
    15
 73
    57
 74
    57
  0
VERTEX
  5
19E6
  8
LAYER1
 10
0.0
 20
0.0
 30
0.0
 70
   128
 71
    15
 72
    14
 73
    57
 74
    57
  0
VERTEX
  5
19E7
  8
LAYER1
 10
0.0
 20
0.0
 30
0.0
 70
   128
 71
    53
 72
    45
 73
    47
 74
    55
  0
VERTEX
  5
19E8
  8
LAYER1
 10
0.0
 20
0.0
 30
0.0
 70
   128
 71
    45
 72
    37
 73
    39
 74
    47
  0
VERTEX
  5
19E9
  8
LAYER1
 10
0.0
 20
0.0
 30
0.0
 70
   128
 71
    37
 72
    29
 73
    31
 74
    39
  0
VERTEX
  5
19EA
  8
LAYER1
 10
0.0
 20
0.0
 30
0.0
 70
   128
 71
    29
 72
    21
 73
    23
 74
    31
  0
VERTEX
  5
19EB
  8
LAYER1
 10
0.0
 20
0.0
 30
0.0
 70
   128
 71
    21
 72
    11
 73
    15
 74
    23
  0
VERTEX
  5
19EC
  8
LAYER1
 10
0.0
 20
0.0
 30
0.0
 70
   128
 71
    11
 72
     6
 73
    14
 74
    15
  0
VERTEX
  5
19ED
  8
LAYER1
 10
0.0
 20
0.0
 30
0.0
 70
   128
 71
    51
 72
    43
 73
    45
 74
    53
  0
VERTEX
  5
19EE
  8
LAYER1
 10
0.0
 20
0.0
 30
0.0
 70
   128
 71
    43
 72
    35
 73
    37
 74
    45
  0
VERTEX
  5
19EF
  8
LAYER1
 10
0.0
 20
0.0
 30
0.0
 70
   128
 71
    35
 72
    27
 73
    29
 74
    37
  0
VERTEX
  5
19F0
  8
LAYER1
 10
0.0
 20
0.0
 30
0.0
 70
   128
 71
    27
 72
    19
 73
    21
 74
    29
  0
VERTEX
  5
19F1
  8
LAYER1
 10
0.0
 20
0.0
 30
0.0
 70
   128
 71
    19
 72
     9
 73
    11
 74
    21
  0
VERTEX
  5
19F2
  8
LAYER1
 10
0.0
 20
0.0
 30
0.0
 70
   128
 71
     9
 72
     4
 73
     6
 74
    11
  0
VERTEX
  5
19F3
  8
LAYER1
 10
0.0
 20
0.0
 30
0.0
 70
   128
 71
    41
 72
    43
 73
    51
 74
    49
  0
VERTEX
  5
19F4
  8
LAYER1
 10
0.0
 20
0.0
 30
0.0
 70
   128
 71
    33
 72
    35
 73
    43
 74
    41
  0
VERTEX
  5
19F5
  8
LAYER1
 10
0.0
 20
0.0
 30
0.0
 70
   128
 71
    25
 72
    27
 73
    35
 74
    33
  0
VERTEX
  5
19F6
  8
LAYER1
 10
0.0
 20
0.0
 30
0.0
 70
   128
 71
    17
 72
    19
 73
    27
 74
    25
  0
VERTEX
  5
19F7
  8
LAYER1
 10
0.0
 20
0.0
 30
0.0
 70
   128
 71
     7
 72
     9
 73
    19
 74
    17
  0
VERTEX
  5
19F8
  8
LAYER1
 10
0.0
 20
0.0
 30
0.0
 70
   128
 71
     2
 72
     4
 73
     9
 74
     7
  0
SEQEND
  5
19F9
  8
LAYER1
  0
POLYLINE
  5
1B6A
  8
0
 66
     1
 10
0.0
 20
0.0
 30
0.0
 70
    16
 71
     2
 72
     7
  0
VERTEX
  5
1B6B
  8
0
 10
34.0
 20
155.0
 30
68.0
 70
    64
  0
VERTEX
  5
1B6C
  8
0
 10
42.799999999999997
 20
155.0
 30
66.799999999999983
 70
    64
  0
VERTEX
  5
1B6D
  8
0
 10
50.933300000000003
 20
155.0
 30
63.466700000000003
 70
    64
  0
VERTEX
  5
1B6E
  8
0
 10
58.0
 20
155.0
 30
58.0
 70
    64
  0
VERTEX
  5
1B6F
  8
0
 10
63.466700000000003
 20
155.0
 30
50.933300000000003
 70
    64
  0
VERTEX
  5
1B70
  8
0
 10
66.799999999999983
 20
155.0
 30
42.799999999999997
 70
    64
  0
VERTEX
  5
1B71
  8
0
 10
68.0
 20
155.0
 30
33.99989999999999
 70
    64
  0
VERTEX
  5
1B72
  8
0
 10
34.0
 20
155.0
 30
34.0
 70
    64
  0
VERTEX
  5
1B73
  8
0
 10
34.0
 20
155.0
 30
34.0
 70
    64
  0
VERTEX
  5
1B74
  8
0
 10
34.0
 20
155.0
 30
34.0
 70
    64
  0
VERTEX
  5
1B75
  8
0
 10
34.0
 20
155.0
 30
34.0
 70
    64
  0
VERTEX
  5
1B76
  8
0
 10
34.0
 20
155.0
 30
34.0
 70
    64
  0
VERTEX
  5
1B77
  8
0
 10
34.0
 20
155.0
 30
34.0
 70
    64
  0
VERTEX
  5
1B78
  8
0
 10
34.0
 20
155.0
 30
34.0
 70
    64
  0
SEQEND
  5
1B79
  8
0
  0
POLYLINE
  5
1B7A
  8
0
 66
     1
 10
0.0
 20
0.0
 30
0.0
 70
    16
 71
     2
 72
     7
  0
VERTEX
  5
1B7B
  8
0
 10
34.0
 20
155.0
 30
68.0
 70
    64
  0
VERTEX
  5
1B7C
  8
0
 10
25.199999999999999
 20
155.0
 30
66.799999999999983
 70
    64
  0
VERTEX
  5
1B7D
  8
0
 10
17.06669999999999
 20
155.0
 30
63.466700000000003
 70
    64
  0
VERTEX
  5
1B7E
  8
0
 10
10.0
 20
155.0
 30
58.0
 70
    64
  0
VERTEX
  5
1B7F
  8
0
 10
4.5332999999999961
 20
155.0
 30
50.933300000000003
 70
    64
  0
VERTEX
  5
1B80
  8
0
 10
1.200000000000002
 20
155.0
 30
42.799999999999997
 70
    64
  0
VERTEX
  5
1B81
  8
0
 10
0.0
 20
155.0
 30
33.99989999999999
 70
    64
  0
VERTEX
  5
1B82
  8
0
 10
34.0
 20
155.0
 30
34.0
 70
    64
  0
VERTEX
  5
1B83
  8
0
 10
34.0
 20
155.0
 30
34.0
 70
    64
  0
VERTEX
  5
1B84
  8
0
 10
34.0
 20
155.0
 30
34.0
 70
    64
  0
VERTEX
  5
1B85
  8
0
 10
34.0
 20
155.0
 30
34.0
 70
    64
  0
VERTEX
  5
1B86
  8
0
 10
34.0
 20
155.0
 30
34.0
 70
    64
  0
VERTEX
  5
1B87
  8
0
 10
34.0
 20
155.0
 30
34.0
 70
    64
  0
VERTEX
  5
1B88
  8
0
 10
34.0
 20
155.0
 30
34.0
 70
    64
  0
SEQEND
  5
1B89
  8
0
  0
POLYLINE
  5
1B8A
  8
0
 66
     1
 10
0.0
 20
0.0
 30
0.0
 70
    16
 71
     2
 72
     7
  0
VERTEX
  5
1B8B
  8
0
 10
34.0
 20
155.0
 30
0.0000000000000711
 70
    64
  0
VERTEX
  5
1B8C
  8
0
 10
25.199999999999999
 20
155.0
 30
1.200000000000073
 70
    64
  0
VERTEX
  5
1B8D
  8
0
 10
17.06669999999999
 20
155.0
 30
4.5333000000000601
 70
    64
  0
VERTEX
  5
1B8E
  8
0
 10
10.0
 20
155.0
 30
10.00000000000006
 70
    64
  0
VERTEX
  5
1B8F
  8
0
 10
4.5332999999999961
 20
155.0
 30
17.066700000000061
 70
    64
  0
VERTEX
  5
1B90
  8
0
 10
1.200000000000002
 20
155.0
 30
25.20000000000006
 70
    64
  0
VERTEX
  5
1B91
  8
0
 10
0.0
 20
155.0
 30
34.000100000000067
 70
    64
  0
VERTEX
  5
1B92
  8
0
 10
34.0
 20
155.0
 30
34.000000000000057
 70
    64
  0
VERTEX
  5
1B93
  8
0
 10
34.0
 20
155.0
 30
34.000000000000057
 70
    64
  0
VERTEX
  5
1B94
  8
0
 10
34.0
 20
155.0
 30
34.000000000000057
 70
    64
  0
VERTEX
  5
1B95
  8
0
 10
34.0
 20
155.0
 30
34.000000000000057
 70
    64
  0
VERTEX
  5
1B96
  8
0
 10
34.0
 20
155.0
 30
34.000000000000057
 70
    64
  0
VERTEX
  5
1B97
  8
0
 10
34.0
 20
155.0
 30
34.000000000000057
 70
    64
  0
VERTEX
  5
1B98
  8
0
 10
34.0
 20
155.0
 30
34.000000000000057
 70
    64
  0
SEQEND
  5
1B99
  8
0
  0
POLYLINE
  5
1B9A
  8
0
 66
     1
 10
0.0
 20
0.0
 30
0.0
 70
    16
 71
     2
 72
     7
  0
VERTEX
  5
1B9B
  8
0
 10
34.0
 20
155.0
 30
0.0000000000000711
 70
    64
  0
VERTEX
  5
1B9C
  8
0
 10
42.799999999999997
 20
155.0
 30
1.200000000000073
 70
    64
  0
VERTEX
  5
1B9D
  8
0
 10
50.933300000000003
 20
155.0
 30
4.5333000000000601
 70
    64
  0
VERTEX
  5
1B9E
  8
0
 10
58.0
 20
155.0
 30
10.00000000000006
 70
    64
  0
VERTEX
  5
1B9F
  8
0
 10
63.466700000000003
 20
155.0
 30
17.066700000000061
 70
    64
  0
VERTEX
  5
1BA0
  8
0
 10
66.799999999999983
 20
155.0
 30
25.20000000000006
 70
    64
  0
VERTEX
  5
1BA1
  8
0
 10
68.0
 20
155.0
 30
34.000100000000067
 70
    64
  0
VERTEX
  5
1BA2
  8
0
 10
34.0
 20
155.0
 30
34.000000000000057
 70
    64
  0
VERTEX
  5
1BA3
  8
0
 10
34.0
 20
155.0
 30
34.000000000000057
 70
    64
  0
VERTEX
  5
1BA4
  8
0
 10
34.0
 20
155.0
 30
34.000000000000057
 70
    64
  0
VERTEX
  5
1BA5
  8
0
 10
34.0
 20
155.0
 30
34.000000000000057
 70
    64
  0
VERTEX
  5
1BA6
  8
0
 10
34.0
 20
155.0
 30
34.000000000000057
 70
    64
  0
VERTEX
  5
1BA7
  8
0
 10
34.0
 20
155.0
 30
34.000000000000057
 70
    64
  0
VERTEX
  5
1BA8
  8
0
 10
34.0
 20
155.0
 30
34.000000000000057
 70
    64
  0
SEQEND
  5
1BA9
  8
0
  0
POLYLINE
  5
1E5D
  8
0
 66
     1
 10
0.0
 20
0.0
 30
0.0
 70
    16
 71
     4
 72
     7
  0
VERTEX
  5
1E5E
  8
0
 10
109.0
 20
51.0
 30
8.5000000000000213
 70
    64
  0
VERTEX
  5
1E5F
  8
0
 10
103.0
 20
51.0
 30
9.4000000000000181
 70
    64
  0
VERTEX
  5
1E60
  8
0
 10
97.299999999999997
 20
51.0
 30
11.600000000000019
 70
    64
  0
VERTEX
  5
1E61
  8
0
 10
92.400000000000006
 20
51.0
 30
15.400000000000009
 70
    64
  0
VERTEX
  5
1E62
  8
0
 10
88.599999999999994
 20
51.0
 30
20.300000000000018
 70
    64
  0
VERTEX
  5
1E63
  8
0
 10
86.400000000000006
 20
51.0
 30
26.000000000000021
 70
    64
  0
VERTEX
  5
1E64
  8
0
 10
85.5
 20
51.0
 30
32.000000000000021
 70
    64
  0
VERTEX
  5
1E65
  8
0
 10
109.0
 20
47.492991000000032
 30
8.4999580000000066
 70
    64
  0
VERTEX
  5
1E66
  8
0
 10
103.0
 20
47.492991000000032
 30
9.3999580000000122
 70
    64
  0
VERTEX
  5
1E67
  8
0
 10
97.299999999999997
 20
47.492991000000032
 30
11.59995800000001
 70
    64
  0
VERTEX
  5
1E68
  8
0
 10
92.400000000000006
 20
47.492991000000032
 30
15.39995800000001
 70
    64
  0
VERTEX
  5
1E69
  8
0
 10
88.599999999999994
 20
47.492991000000011
 30
20.29995799999999
 70
    64
  0
VERTEX
  5
1E6A
  8
0
 10
86.400000000000006
 20
47.492991000000011
 30
25.999957999999989
 70
    64
  0
VERTEX
  5
1E6B
  8
0
 10
85.5
 20
47.492991000000032
 30
31.999957999999989
 70
    64
  0
VERTEX
  5
1E6C
  8
0
 10
109.0
 20
44.492991000000032
 30
8.9999580000000066
 70
    64
  0
VERTEX
  5
1E6D
  8
0
 10
103.09999999999989
 20
44.492991000000032
 30
9.7999580000000037
 70
    64
  0
VERTEX
  5
1E6E
  8
0
 10
97.599999999999994
 20
44.492991000000032
 30
12.09995800000001
 70
    64
  0
VERTEX
  5
1E6F
  8
0
 10
92.799999999999983
 20
44.492991000000032
 30
15.799958
 70
    64
  0
VERTEX
  5
1E70
  8
0
 10
89.099999999999994
 20
44.492991000000011
 30
20.599958000000001
 70
    64
  0
VERTEX
  5
1E71
  8
0
 10
86.799999999999983
 20
44.492991000000011
 30
26.099958000000001
 70
    64
  0
VERTEX
  5
1E72
  8
0
 10
86.0
 20
44.492991000000032
 30
31.999957999999989
 70
    64
  0
VERTEX
  5
1E73
  8
0
 10
109.0
 20
40.492991000000032
 30
9.9999580000000066
 70
    64
  0
VERTEX
  5
1E74
  8
0
 10
103.2999999999999
 20
40.492991000000032
 30
10.799958
 70
    64
  0
VERTEX
  5
1E75
  8
0
 10
98.099999999999994
 20
40.492991000000032
 30
12.89995800000001
 70
    64
  0
VERTEX
  5
1E76
  8
0
 10
93.499999999999986
 20
40.492991000000032
 30
16.499957999999989
 70
    64
  0
VERTEX
  5
1E77
  8
0
 10
89.900000000000006
 20
40.492991000000011
 30
21.099958000000001
 70
    64
  0
VERTEX
  5
1E78
  8
0
 10
87.799999999999983
 20
40.492991000000011
 30
26.29995799999999
 70
    64
  0
VERTEX
  5
1E79
  8
0
 10
87.0
 20
40.492991000000032
 30
31.999957999999989
 70
    64
  0
SEQEND
  5
1E7A
  8
0
  0
POLYLINE
  5
1E7F
  8
LAYER1
 62
   252
 66
     1
 10
0.0
 20
0.0
 30
0.0
 70
    64
 71
   192
 72
   168
  0
VERTEX
  5
1E80
  8
LAYER1
 10
21.0
 20
119.0
 30
29.199999999999989
 70
   192
  0
VERTEX
  5
1E81
  8
LAYER1
 10
21.0
 20
116.0
 30
29.199999999999989
 70
   192
  0
VERTEX
  5
1E82
  8
LAYER1
 10
21.0
 20
113.0
 30
29.199999999999989
 70
   192
  0
VERTEX
  5
1E83
  8
LAYER1
 10
21.0
 20
121.0
 30
34.0
 70
   192
  0
VERTEX
  5
1E84
  8
LAYER1
 10
21.0
 20
119.0
 30
34.0
 70
   192
  0
VERTEX
  5
1E85
  8
LAYER1
 10
21.0
 20
116.0
 30
34.0
 70
   192
  0
VERTEX
  5
1E86
  8
LAYER1
 10
21.0
 20
113.0
 30
34.0
 70
   192
  0
VERTEX
  5
1E87
  8
LAYER1
 10
21.0
 20
111.0
 30
34.0
 70
   192
  0
VERTEX
  5
1E88
  8
LAYER1
 10
21.0
 20
119.0
 30
38.79999999999999
 70
   192
  0
VERTEX
  5
1E89
  8
LAYER1
 10
21.0
 20
116.0
 30
38.79999999999999
 70
   192
  0
VERTEX
  5
1E8A
  8
LAYER1
 10
21.0
 20
113.0
 30
38.79999999999999
 70
   192
  0
VERTEX
  5
1E8B
  8
LAYER1
 10
21.499999999999989
 20
121.0
 30
30.600000000000001
 70
   192
  0
VERTEX
  5
1E8C
  8
LAYER1
 10
21.499999999999989
 20
111.0
 30
30.600000000000001
 70
   192
  0
VERTEX
  5
1E8D
  8
LAYER1
 10
21.499999999999989
 20
121.0
 30
37.399999999999999
 70
   192
  0
VERTEX
  5
1E8E
  8
LAYER1
 10
21.499999999999989
 20
111.0
 30
37.399999999999999
 70
   192
  0
VERTEX
  5
1E8F
  8
LAYER1
 10
21.899999999999999
 20
119.0
 30
27.0
 70
   192
  0
VERTEX
  5
1E90
  8
LAYER1
 10
21.899999999999999
 20
116.0
 30
27.0
 70
   192
  0
VERTEX
  5
1E91
  8
LAYER1
 10
21.899999999999999
 20
113.0
 30
27.0
 70
   192
  0
VERTEX
  5
1E92
  8
LAYER1
 10
21.899999999999999
 20
119.0
 30
41.0
 70
   192
  0
VERTEX
  5
1E93
  8
LAYER1
 10
21.899999999999999
 20
116.0
 30
41.0
 70
   192
  0
VERTEX
  5
1E94
  8
LAYER1
 10
21.899999999999999
 20
113.0
 30
41.0
 70
   192
  0
VERTEX
  5
1E95
  8
LAYER1
 10
22.699999999999989
 20
121.0
 30
27.5
 70
   192
  0
VERTEX
  5
1E96
  8
LAYER1
 10
22.699999999999989
 20
111.0
 30
27.5
 70
   192
  0
VERTEX
  5
1E97
  8
LAYER1
 10
22.699999999999989
 20
121.0
 30
40.499999999999993
 70
   192
  0
VERTEX
  5
1E98
  8
LAYER1
 10
22.699999999999989
 20
111.0
 30
40.499999999999993
 70
   192
  0
VERTEX
  5
1E99
  8
LAYER1
 10
23.0
 20
130.0
 30
34.0
 70
   192
  0
VERTEX
  5
1E9A
  8
LAYER1
 10
23.0
 20
123.0
 30
34.0
 70
   192
  0
VERTEX
  5
1E9B
  8
LAYER1
 10
23.0
 20
109.0
 30
34.0
 70
   192
  0
VERTEX
  5
1E9C
  8
LAYER1
 10
23.399999999999999
 20
130.0
 30
31.199999999999999
 70
   192
  0
VERTEX
  5
1E9D
  8
LAYER1
 10
23.399999999999999
 20
123.0
 30
31.199999999999999
 70
   192
  0
VERTEX
  5
1E9E
  8
LAYER1
 10
23.399999999999999
 20
109.0
 30
31.199999999999999
 70
   192
  0
VERTEX
  5
1E9F
  8
LAYER1
 10
23.399999999999999
 20
130.0
 30
36.79999999999999
 70
   192
  0
VERTEX
  5
1EA0
  8
LAYER1
 10
23.399999999999999
 20
123.0
 30
36.79999999999999
 70
   192
  0
VERTEX
  5
1EA1
  8
LAYER1
 10
23.399999999999999
 20
109.0
 30
36.79999999999999
 70
   192
  0
VERTEX
  5
1EA2
  8
LAYER1
 10
23.599999999999991
 20
119.0
 30
24.800000000000001
 70
   192
  0
VERTEX
  5
1EA3
  8
LAYER1
 10
23.599999999999991
 20
116.0
 30
24.800000000000001
 70
   192
  0
VERTEX
  5
1EA4
  8
LAYER1
 10
23.599999999999991
 20
113.0
 30
24.800000000000001
 70
   192
  0
VERTEX
  5
1EA5
  8
LAYER1
 10
23.599999999999991
 20
119.0
 30
43.200000000000003
 70
   192
  0
VERTEX
  5
1EA6
  8
LAYER1
 10
23.599999999999991
 20
116.0
 30
43.200000000000003
 70
   192
  0
VERTEX
  5
1EA7
  8
LAYER1
 10
23.599999999999991
 20
113.0
 30
43.200000000000003
 70
   192
  0
VERTEX
  5
1EA8
  8
LAYER1
 10
24.5
 20
130.0
 30
28.5
 70
   192
  0
VERTEX
  5
1EA9
  8
LAYER1
 10
24.5
 20
123.0
 30
28.5
 70
   192
  0
VERTEX
  5
1EAA
  8
LAYER1
 10
24.5
 20
109.0
 30
28.5
 70
   192
  0
VERTEX
  5
1EAB
  8
LAYER1
 10
24.5
 20
130.0
 30
39.5
 70
   192
  0
VERTEX
  5
1EAC
  8
LAYER1
 10
24.5
 20
123.0
 30
39.5
 70
   192
  0
VERTEX
  5
1EAD
  8
LAYER1
 10
24.5
 20
109.0
 30
39.5
 70
   192
  0
VERTEX
  5
1EAE
  8
LAYER1
 10
24.800000000000011
 20
121.0
 30
24.800000000000001
 70
   192
  0
VERTEX
  5
1EAF
  8
LAYER1
 10
24.800000000000011
 20
111.0
 30
24.800000000000001
 70
   192
  0
VERTEX
  5
1EB0
  8
LAYER1
 10
24.800000000000011
 20
121.0
 30
43.200000000000003
 70
   192
  0
VERTEX
  5
1EB1
  8
LAYER1
 10
24.800000000000011
 20
111.0
 30
43.200000000000003
 70
   192
  0
VERTEX
  5
1EB2
  8
LAYER1
 10
26.199999999999989
 20
130.0
 30
26.199999999999999
 70
   192
  0
VERTEX
  5
1EB3
  8
LAYER1
 10
26.199999999999989
 20
123.0
 30
26.199999999999999
 70
   192
  0
VERTEX
  5
1EB4
  8
LAYER1
 10
26.199999999999989
 20
109.0
 30
26.199999999999999
 70
   192
  0
VERTEX
  5
1EB5
  8
LAYER1
 10
26.199999999999989
 20
130.0
 30
41.79999999999999
 70
   192
  0
VERTEX
  5
1EB6
  8
LAYER1
 10
26.199999999999989
 20
123.0
 30
41.79999999999999
 70
   192
  0
VERTEX
  5
1EB7
  8
LAYER1
 10
26.199999999999989
 20
109.0
 30
41.79999999999999
 70
   192
  0
VERTEX
  5
1EB8
  8
LAYER1
 10
27.5
 20
119.0
 30
22.600000000000001
 70
   192
  0
VERTEX
  5
1EB9
  8
LAYER1
 10
27.5
 20
116.0
 30
22.600000000000001
 70
   192
  0
VERTEX
  5
1EBA
  8
LAYER1
 10
27.5
 20
113.0
 30
22.600000000000001
 70
   192
  0
VERTEX
  5
1EBB
  8
LAYER1
 10
27.5
 20
121.0
 30
22.699999999999999
 70
   192
  0
VERTEX
  5
1EBC
  8
LAYER1
 10
27.5
 20
111.0
 30
22.699999999999999
 70
   192
  0
VERTEX
  5
1EBD
  8
LAYER1
 10
27.5
 20
121.0
 30
45.299999999999997
 70
   192
  0
VERTEX
  5
1EBE
  8
LAYER1
 10
27.5
 20
111.0
 30
45.299999999999997
 70
   192
  0
VERTEX
  5
1EBF
  8
LAYER1
 10
27.5
 20
119.0
 30
45.399999999999999
 70
   192
  0
VERTEX
  5
1EC0
  8
LAYER1
 10
27.5
 20
116.0
 30
45.399999999999999
 70
   192
  0
VERTEX
  5
1EC1
  8
LAYER1
 10
27.5
 20
113.0
 30
45.399999999999999
 70
   192
  0
VERTEX
  5
1EC2
  8
LAYER1
 10
28.5
 20
130.0
 30
24.5
 70
   192
  0
VERTEX
  5
1EC3
  8
LAYER1
 10
28.5
 20
123.0
 30
24.5
 70
   192
  0
VERTEX
  5
1EC4
  8
LAYER1
 10
28.5
 20
109.0
 30
24.5
 70
   192
  0
VERTEX
  5
1EC5
  8
LAYER1
 10
28.5
 20
130.0
 30
43.5
 70
   192
  0
VERTEX
  5
1EC6
  8
LAYER1
 10
28.5
 20
123.0
 30
43.5
 70
   192
  0
VERTEX
  5
1EC7
  8
LAYER1
 10
28.5
 20
109.0
 30
43.5
 70
   192
  0
VERTEX
  5
1EC8
  8
LAYER1
 10
30.599999999999991
 20
121.0
 30
21.499999999999989
 70
   192
  0
VERTEX
  5
1EC9
  8
LAYER1
 10
30.599999999999991
 20
111.0
 30
21.499999999999989
 70
   192
  0
VERTEX
  5
1ECA
  8
LAYER1
 10
30.599999999999991
 20
121.0
 30
46.5
 70
   192
  0
VERTEX
  5
1ECB
  8
LAYER1
 10
30.599999999999991
 20
111.0
 30
46.5
 70
   192
  0
VERTEX
  5
1ECC
  8
LAYER1
 10
31.199999999999989
 20
130.0
 30
23.399999999999991
 70
   192
  0
VERTEX
  5
1ECD
  8
LAYER1
 10
31.199999999999989
 20
123.0
 30
23.399999999999991
 70
   192
  0
VERTEX
  5
1ECE
  8
LAYER1
 10
31.199999999999989
 20
109.0
 30
23.399999999999991
 70
   192
  0
VERTEX
  5
1ECF
  8
LAYER1
 10
31.199999999999989
 20
130.0
 30
44.599999999999987
 70
   192
  0
VERTEX
  5
1ED0
  8
LAYER1
 10
31.199999999999989
 20
123.0
 30
44.599999999999987
 70
   192
  0
VERTEX
  5
1ED1
  8
LAYER1
 10
31.199999999999989
 20
109.0
 30
44.599999999999987
 70
   192
  0
VERTEX
  5
1ED2
  8
LAYER1
 10
31.599999999999991
 20
119.0
 30
20.300000000000001
 70
   192
  0
VERTEX
  5
1ED3
  8
LAYER1
 10
31.599999999999991
 20
116.0
 30
20.300000000000001
 70
   192
  0
VERTEX
  5
1ED4
  8
LAYER1
 10
31.599999999999991
 20
113.0
 30
20.300000000000001
 70
   192
  0
VERTEX
  5
1ED5
  8
LAYER1
 10
31.599999999999991
 20
119.0
 30
47.700000000000003
 70
   192
  0
VERTEX
  5
1ED6
  8
LAYER1
 10
31.599999999999991
 20
116.0
 30
47.700000000000003
 70
   192
  0
VERTEX
  5
1ED7
  8
LAYER1
 10
31.599999999999991
 20
113.0
 30
47.700000000000003
 70
   192
  0
VERTEX
  5
1ED8
  8
LAYER1
 10
34.0
 20
119.0
 30
20.0
 70
   192
  0
VERTEX
  5
1ED9
  8
LAYER1
 10
34.0
 20
116.0
 30
20.0
 70
   192
  0
VERTEX
  5
1EDA
  8
LAYER1
 10
34.0
 20
113.0
 30
20.0
 70
   192
  0
VERTEX
  5
1EDB
  8
LAYER1
 10
34.0
 20
121.0
 30
21.0
 70
   192
  0
VERTEX
  5
1EDC
  8
LAYER1
 10
34.0
 20
111.0
 30
21.0
 70
   192
  0
VERTEX
  5
1EDD
  8
LAYER1
 10
34.0
 20
130.0
 30
23.0
 70
   192
  0
VERTEX
  5
1EDE
  8
LAYER1
 10
34.0
 20
123.0
 30
23.0
 70
   192
  0
VERTEX
  5
1EDF
  8
LAYER1
 10
34.0
 20
109.0
 30
23.0
 70
   192
  0
VERTEX
  5
1EE0
  8
LAYER1
 10
34.0
 20
130.0
 30
45.0
 70
   192
  0
VERTEX
  5
1EE1
  8
LAYER1
 10
34.0
 20
123.0
 30
45.0
 70
   192
  0
VERTEX
  5
1EE2
  8
LAYER1
 10
34.0
 20
109.0
 30
45.0
 70
   192
  0
VERTEX
  5
1EE3
  8
LAYER1
 10
34.0
 20
121.0
 30
47.0
 70
   192
  0
VERTEX
  5
1EE4
  8
LAYER1
 10
34.0
 20
111.0
 30
47.0
 70
   192
  0
VERTEX
  5
1EE5
  8
LAYER1
 10
34.0
 20
119.0
 30
48.0
 70
   192
  0
VERTEX
  5
1EE6
  8
LAYER1
 10
34.0
 20
116.0
 30
48.0
 70
   192
  0
VERTEX
  5
1EE7
  8
LAYER1
 10
34.0
 20
113.0
 30
48.0
 70
   192
  0
VERTEX
  5
1EE8
  8
LAYER1
 10
36.399999999999999
 20
119.0
 30
20.300000000000001
 70
   192
  0
VERTEX
  5
1EE9
  8
LAYER1
 10
36.399999999999999
 20
116.0
 30
20.300000000000001
 70
   192
  0
VERTEX
  5
1EEA
  8
LAYER1
 10
36.399999999999999
 20
113.0
 30
20.300000000000001
 70
   192
  0
VERTEX
  5
1EEB
  8
LAYER1
 10
36.399999999999999
 20
119.0
 30
47.700000000000003
 70
   192
  0
VERTEX
  5
1EEC
  8
LAYER1
 10
36.399999999999999
 20
116.0
 30
47.700000000000003
 70
   192
  0
VERTEX
  5
1EED
  8
LAYER1
 10
36.399999999999999
 20
113.0
 30
47.700000000000003
 70
   192
  0
VERTEX
  5
1EEE
  8
LAYER1
 10
36.800000000000011
 20
130.0
 30
23.399999999999991
 70
   192
  0
VERTEX
  5
1EEF
  8
LAYER1
 10
36.800000000000011
 20
123.0
 30
23.399999999999991
 70
   192
  0
VERTEX
  5
1EF0
  8
LAYER1
 10
36.800000000000011
 20
109.0
 30
23.399999999999991
 70
   192
  0
VERTEX
  5
1EF1
  8
LAYER1
 10
36.800000000000011
 20
130.0
 30
44.599999999999987
 70
   192
  0
VERTEX
  5
1EF2
  8
LAYER1
 10
36.800000000000011
 20
123.0
 30
44.599999999999987
 70
   192
  0
VERTEX
  5
1EF3
  8
LAYER1
 10
36.800000000000011
 20
109.0
 30
44.599999999999987
 70
   192
  0
VERTEX
  5
1EF4
  8
LAYER1
 10
37.399999999999999
 20
121.0
 30
21.499999999999989
 70
   192
  0
VERTEX
  5
1EF5
  8
LAYER1
 10
37.399999999999999
 20
111.0
 30
21.499999999999989
 70
   192
  0
VERTEX
  5
1EF6
  8
LAYER1
 10
37.399999999999999
 20
121.0
 30
46.5
 70
   192
  0
VERTEX
  5
1EF7
  8
LAYER1
 10
37.399999999999999
 20
111.0
 30
46.5
 70
   192
  0
VERTEX
  5
1EF8
  8
LAYER1
 10
39.5
 20
130.0
 30
24.5
 70
   192
  0
VERTEX
  5
1EF9
  8
LAYER1
 10
39.5
 20
123.0
 30
24.5
 70
   192
  0
VERTEX
  5
1EFA
  8
LAYER1
 10
39.5
 20
109.0
 30
24.5
 70
   192
  0
VERTEX
  5
1EFB
  8
LAYER1
 10
39.5
 20
130.0
 30
43.5
 70
   192
  0
VERTEX
  5
1EFC
  8
LAYER1
 10
39.5
 20
123.0
 30
43.5
 70
   192
  0
VERTEX
  5
1EFD
  8
LAYER1
 10
39.5
 20
109.0
 30
43.5
 70
   192
  0
VERTEX
  5
1EFE
  8
LAYER1
 10
40.499999999999993
 20
119.0
 30
22.600000000000001
 70
   192
  0
VERTEX
  5
1EFF
  8
LAYER1
 10
40.499999999999993
 20
116.0
 30
22.600000000000001
 70
   192
  0
VERTEX
  5
1F00
  8
LAYER1
 10
40.499999999999993
 20
113.0
 30
22.600000000000001
 70
   192
  0
VERTEX
  5
1F01
  8
LAYER1
 10
40.499999999999993
 20
121.0
 30
22.699999999999999
 70
   192
  0
VERTEX
  5
1F02
  8
LAYER1
 10
40.499999999999993
 20
111.0
 30
22.699999999999999
 70
   192
  0
VERTEX
  5
1F03
  8
LAYER1
 10
40.499999999999993
 20
121.0
 30
45.299999999999997
 70
   192
  0
VERTEX
  5
1F04
  8
LAYER1
 10
40.499999999999993
 20
111.0
 30
45.299999999999997
 70
   192
  0
VERTEX
  5
1F05
  8
LAYER1
 10
40.499999999999993
 20
119.0
 30
45.399999999999999
 70
   192
  0
VERTEX
  5
1F06
  8
LAYER1
 10
40.499999999999993
 20
116.0
 30
45.399999999999999
 70
   192
  0
VERTEX
  5
1F07
  8
LAYER1
 10
40.499999999999993
 20
113.0
 30
45.399999999999999
 70
   192
  0
VERTEX
  5
1F08
  8
LAYER1
 10
41.800000000000011
 20
130.0
 30
26.199999999999999
 70
   192
  0
VERTEX
  5
1F09
  8
LAYER1
 10
41.800000000000011
 20
123.0
 30
26.199999999999999
 70
   192
  0
VERTEX
  5
1F0A
  8
LAYER1
 10
41.800000000000011
 20
109.0
 30
26.199999999999999
 70
   192
  0
VERTEX
  5
1F0B
  8
LAYER1
 10
41.800000000000011
 20
130.0
 30
41.79999999999999
 70
   192
  0
VERTEX
  5
1F0C
  8
LAYER1
 10
41.800000000000011
 20
123.0
 30
41.79999999999999
 70
   192
  0
VERTEX
  5
1F0D
  8
LAYER1
 10
41.800000000000011
 20
109.0
 30
41.79999999999999
 70
   192
  0
VERTEX
  5
1F0E
  8
LAYER1
 10
43.199999999999989
 20
121.0
 30
24.800000000000001
 70
   192
  0
VERTEX
  5
1F0F
  8
LAYER1
 10
43.199999999999989
 20
111.0
 30
24.800000000000001
 70
   192
  0
VERTEX
  5
1F10
  8
LAYER1
 10
43.199999999999989
 20
121.0
 30
43.200000000000003
 70
   192
  0
VERTEX
  5
1F11
  8
LAYER1
 10
43.199999999999989
 20
111.0
 30
43.200000000000003
 70
   192
  0
VERTEX
  5
1F12
  8
LAYER1
 10
43.5
 20
130.0
 30
28.5
 70
   192
  0
VERTEX
  5
1F13
  8
LAYER1
 10
43.5
 20
123.0
 30
28.5
 70
   192
  0
VERTEX
  5
1F14
  8
LAYER1
 10
43.5
 20
109.0
 30
28.5
 70
   192
  0
VERTEX
  5
1F15
  8
LAYER1
 10
43.5
 20
130.0
 30
39.5
 70
   192
  0
VERTEX
  5
1F16
  8
LAYER1
 10
43.5
 20
123.0
 30
39.5
 70
   192
  0
VERTEX
  5
1F17
  8
LAYER1
 10
43.5
 20
109.0
 30
39.5
 70
   192
  0
VERTEX
  5
1F18
  8
LAYER1
 10
44.399999999999999
 20
119.0
 30
24.800000000000001
 70
   192
  0
VERTEX
  5
1F19
  8
LAYER1
 10
44.399999999999999
 20
116.0
 30
24.800000000000001
 70
   192
  0
VERTEX
  5
1F1A
  8
LAYER1
 10
44.399999999999999
 20
113.0
 30
24.800000000000001
 70
   192
  0
VERTEX
  5
1F1B
  8
LAYER1
 10
44.399999999999999
 20
119.0
 30
43.200000000000003
 70
   192
  0
VERTEX
  5
1F1C
  8
LAYER1
 10
44.399999999999999
 20
116.0
 30
43.200000000000003
 70
   192
  0
VERTEX
  5
1F1D
  8
LAYER1
 10
44.399999999999999
 20
113.0
 30
43.200000000000003
 70
   192
  0
VERTEX
  5
1F1E
  8
LAYER1
 10
44.599999999999987
 20
130.0
 30
31.199999999999999
 70
   192
  0
VERTEX
  5
1F1F
  8
LAYER1
 10
44.599999999999987
 20
123.0
 30
31.199999999999999
 70
   192
  0
VERTEX
  5
1F20
  8
LAYER1
 10
44.599999999999987
 20
109.0
 30
31.199999999999999
 70
   192
  0
VERTEX
  5
1F21
  8
LAYER1
 10
44.599999999999987
 20
130.0
 30
36.79999999999999
 70
   192
  0
VERTEX
  5
1F22
  8
LAYER1
 10
44.599999999999987
 20
123.0
 30
36.79999999999999
 70
   192
  0
VERTEX
  5
1F23
  8
LAYER1
 10
44.599999999999987
 20
109.0
 30
36.79999999999999
 70
   192
  0
VERTEX
  5
1F24
  8
LAYER1
 10
45.0
 20
130.0
 30
34.0
 70
   192
  0
VERTEX
  5
1F25
  8
LAYER1
 10
45.0
 20
123.0
 30
34.0
 70
   192
  0
VERTEX
  5
1F26
  8
LAYER1
 10
45.0
 20
109.0
 30
34.0
 70
   192
  0
VERTEX
  5
1F27
  8
LAYER1
 10
45.300000000000011
 20
121.0
 30
27.5
 70
   192
  0
VERTEX
  5
1F28
  8
LAYER1
 10
45.300000000000011
 20
111.0
 30
27.5
 70
   192
  0
VERTEX
  5
1F29
  8
LAYER1
 10
45.300000000000011
 20
121.0
 30
40.499999999999993
 70
   192
  0
VERTEX
  5
1F2A
  8
LAYER1
 10
45.300000000000011
 20
111.0
 30
40.499999999999993
 70
   192
  0
VERTEX
  5
1F2B
  8
LAYER1
 10
46.099999999999987
 20
119.0
 30
27.0
 70
   192
  0
VERTEX
  5
1F2C
  8
LAYER1
 10
46.099999999999987
 20
116.0
 30
27.0
 70
   192
  0
VERTEX
  5
1F2D
  8
LAYER1
 10
46.099999999999987
 20
113.0
 30
27.0
 70
   192
  0
VERTEX
  5
1F2E
  8
LAYER1
 10
46.099999999999987
 20
119.0
 30
41.0
 70
   192
  0
VERTEX
  5
1F2F
  8
LAYER1
 10
46.099999999999987
 20
116.0
 30
41.0
 70
   192
  0
VERTEX
  5
1F30
  8
LAYER1
 10
46.099999999999987
 20
113.0
 30
41.0
 70
   192
  0
VERTEX
  5
1F31
  8
LAYER1
 10
46.5
 20
121.0
 30
30.600000000000001
 70
   192
  0
VERTEX
  5
1F32
  8
LAYER1
 10
46.5
 20
111.0
 30
30.600000000000001
 70
   192
  0
VERTEX
  5
1F33
  8
LAYER1
 10
46.5
 20
121.0
 30
37.399999999999999
 70
   192
  0
VERTEX
  5
1F34
  8
LAYER1
 10
46.5
 20
111.0
 30
37.399999999999999
 70
   192
  0
VERTEX
  5
1F35
  8
LAYER1
 10
47.0
 20
119.0
 30
29.199999999999989
 70
   192
  0
VERTEX
  5
1F36
  8
LAYER1
 10
47.0
 20
116.0
 30
29.199999999999989
 70
   192
  0
VERTEX
  5
1F37
  8
LAYER1
 10
47.0
 20
113.0
 30
29.199999999999989
 70
   192
  0
VERTEX
  5
1F38
  8
LAYER1
 10
47.0
 20
121.0
 30
34.0
 70
   192
  0
VERTEX
  5
1F39
  8
LAYER1
 10
47.0
 20
119.0
 30
34.0
 70
   192
  0
VERTEX
  5
1F3A
  8
LAYER1
 10
47.0
 20
116.0
 30
34.0
 70
   192
  0
VERTEX
  5
1F3B
  8
LAYER1
 10
47.0
 20
113.0
 30
34.0
 70
   192
  0
VERTEX
  5
1F3C
  8
LAYER1
 10
47.0
 20
111.0
 30
34.0
 70
   192
  0
VERTEX
  5
1F3D
  8
LAYER1
 10
47.0
 20
119.0
 30
38.79999999999999
 70
   192
  0
VERTEX
  5
1F3E
  8
LAYER1
 10
47.0
 20
116.0
 30
38.79999999999999
 70
   192
  0
VERTEX
  5
1F3F
  8
LAYER1
 10
47.0
 20
113.0
 30
38.79999999999999
 70
   192
  0
VERTEX
  5
1F40
  8
LAYER1
 10
0.0
 20
0.0
 30
0.0
 70
   128
 71
    79
 72
    74
 73
    93
 74
    96
  0
VERTEX
  5
1F41
  8
LAYER1
 10
0.0
 20
0.0
 30
0.0
 70
   128
 71
    69
 72
    61
 73
    74
 74
    79
  0
VERTEX
  5
1F42
  8
LAYER1
 10
0.0
 20
0.0
 30
0.0
 70
   128
 71
    53
 72
    48
 73
    61
 74
    69
  0
VERTEX
  5
1F43
  8
LAYER1
 10
0.0
 20
0.0
 30
0.0
 70
   128
 71
    43
 72
    23
 73
    48
 74
    53
  0
VERTEX
  5
1F44
  8
LAYER1
 10
0.0
 20
0.0
 30
0.0
 70
   128
 71
    31
 72
    13
 73
    23
 74
    43
  0
VERTEX
  5
1F45
  8
LAYER1
 10
0.0
 20
0.0
 30
0.0
 70
   128
 71
    28
 72
     8
 73
    13
 74
    31
  0
VERTEX
  5
1F46
  8
LAYER1
 10
0.0
 20
0.0
 30
0.0
 70
   128
 71
    74
 72
    85
 73
    91
 74
    93
  0
VERTEX
  5
1F47
  8
LAYER1
 10
0.0
 20
0.0
 30
0.0
 70
   128
 71
    61
 72
    59
 73
    85
 74
    74
  0
VERTEX
  5
1F48
  8
LAYER1
 10
0.0
 20
0.0
 30
0.0
 70
   128
 71
    48
 72
    37
 73
    59
 74
    61
  0
VERTEX
  5
1F49
  8
LAYER1
 10
0.0
 20
0.0
 30
0.0
 70
   128
 71
    23
 72
    18
 73
    37
 74
    48
  0
VERTEX
  5
1F4A
  8
LAYER1
 10
0.0
 20
0.0
 30
0.0
 70
   128
 71
    13
 72
     3
 73
    18
 74
    23
  0
VERTEX
  5
1F4B
  8
LAYER1
 10
0.0
 20
0.0
 30
0.0
 70
   128
 71
     8
 72
     7
 73
     3
 74
    13
  0
VERTEX
  5
1F4C
  8
LAYER1
 10
0.0
 20
0.0
 30
0.0
 70
   128
 71
    85
 72
    84
 73
    90
 74
    91
  0
VERTEX
  5
1F4D
  8
LAYER1
 10
0.0
 20
0.0
 30
0.0
 70
   128
 71
    59
 72
    58
 73
    84
 74
    85
  0
VERTEX
  5
1F4E
  8
LAYER1
 10
0.0
 20
0.0
 30
0.0
 70
   128
 71
    37
 72
    36
 73
    58
 74
    59
  0
VERTEX
  5
1F4F
  8
LAYER1
 10
0.0
 20
0.0
 30
0.0
 70
   128
 71
    18
 72
    17
 73
    36
 74
    37
  0
VERTEX
  5
1F50
  8
LAYER1
 10
0.0
 20
0.0
 30
0.0
 70
   128
 71
     3
 72
     2
 73
    17
 74
    18
  0
VERTEX
  5
1F51
  8
LAYER1
 10
0.0
 20
0.0
 30
0.0
 70
   128
 71
     7
 72
     6
 73
     2
 74
     3
  0
VERTEX
  5
1F52
  8
LAYER1
 10
0.0
 20
0.0
 30
0.0
 70
   128
 71
    99
 72
   101
 73
    76
 74
    82
  0
VERTEX
  5
1F53
  8
LAYER1
 10
0.0
 20
0.0
 30
0.0
 70
   128
 71
    82
 72
    76
 73
    63
 74
    72
  0
VERTEX
  5
1F54
  8
LAYER1
 10
0.0
 20
0.0
 30
0.0
 70
   128
 71
    72
 72
    63
 73
    50
 74
    56
  0
VERTEX
  5
1F55
  8
LAYER1
 10
0.0
 20
0.0
 30
0.0
 70
   128
 71
    56
 72
    50
 73
    25
 74
    46
  0
VERTEX
  5
1F56
  8
LAYER1
 10
0.0
 20
0.0
 30
0.0
 70
   128
 71
    46
 72
    25
 73
    15
 74
    34
  0
VERTEX
  5
1F57
  8
LAYER1
 10
0.0
 20
0.0
 30
0.0
 70
   128
 71
    34
 72
    15
 73
     8
 74
    28
  0
VERTEX
  5
1F58
  8
LAYER1
 10
0.0
 20
0.0
 30
0.0
 70
   128
 71
   101
 72
   104
 73
    88
 74
    76
  0
VERTEX
  5
1F59
  8
LAYER1
 10
0.0
 20
0.0
 30
0.0
 70
   128
 71
    76
 72
    88
 73
    66
 74
    63
  0
VERTEX
  5
1F5A
  8
LAYER1
 10
0.0
 20
0.0
 30
0.0
 70
   128
 71
    63
 72
    66
 73
    40
 74
    50
  0
VERTEX
  5
1F5B
  8
LAYER1
 10
0.0
 20
0.0
 30
0.0
 70
   128
 71
    50
 72
    40
 73
    21
 74
    25
  0
VERTEX
  5
1F5C
  8
LAYER1
 10
0.0
 20
0.0
 30
0.0
 70
   128
 71
    25
 72
    21
 73
    11
 74
    15
  0
VERTEX
  5
1F5D
  8
LAYER1
 10
0.0
 20
0.0
 30
0.0
 70
   128
 71
    15
 72
    11
 73
     7
 74
     8
  0
VERTEX
  5
1F5E
  8
LAYER1
 10
0.0
 20
0.0
 30
0.0
 70
   128
 71
   104
 72
   103
 73
    87
 74
    88
  0
VERTEX
  5
1F5F
  8
LAYER1
 10
0.0
 20
0.0
 30
0.0
 70
   128
 71
    88
 72
    87
 73
    65
 74
    66
  0
VERTEX
  5
1F60
  8
LAYER1
 10
0.0
 20
0.0
 30
0.0
 70
   128
 71
    66
 72
    65
 73
    39
 74
    40
  0
VERTEX
  5
1F61
  8
LAYER1
 10
0.0
 20
0.0
 30
0.0
 70
   128
 71
    40
 72
    39
 73
    20
 74
    21
  0
VERTEX
  5
1F62
  8
LAYER1
 10
0.0
 20
0.0
 30
0.0
 70
   128
 71
    21
 72
    20
 73
    10
 74
    11
  0
VERTEX
  5
1F63
  8
LAYER1
 10
0.0
 20
0.0
 30
0.0
 70
   128
 71
    11
 72
    10
 73
     6
 74
     7
  0
VERTEX
  5
1F64
  8
LAYER1
 10
0.0
 20
0.0
 30
0.0
 70
   128
 71
    81
 72
    75
 73
   100
 74
    98
  0
VERTEX
  5
1F65
  8
LAYER1
 10
0.0
 20
0.0
 30
0.0
 70
   128
 71
    71
 72
    62
 73
    75
 74
    81
  0
VERTEX
  5
1F66
  8
LAYER1
 10
0.0
 20
0.0
 30
0.0
 70
   128
 71
    55
 72
    49
 73
    62
 74
    71
  0
VERTEX
  5
1F67
  8
LAYER1
 10
0.0
 20
0.0
 30
0.0
 70
   128
 71
    45
 72
    24
 73
    49
 74
    55
  0
VERTEX
  5
1F68
  8
LAYER1
 10
0.0
 20
0.0
 30
0.0
 70
   128
 71
    33
 72
    14
 73
    24
 74
    45
  0
VERTEX
  5
1F69
  8
LAYER1
 10
0.0
 20
0.0
 30
0.0
 70
   128
 71
    27
 72
     4
 73
    14
 74
    33
  0
VERTEX
  5
1F6A
  8
LAYER1
 10
0.0
 20
0.0
 30
0.0
 70
   128
 71
    75
 72
    86
 73
   102
 74
   100
  0
VERTEX
  5
1F6B
  8
LAYER1
 10
0.0
 20
0.0
 30
0.0
 70
   128
 71
    62
 72
    64
 73
    86
 74
    75
  0
VERTEX
  5
1F6C
  8
LAYER1
 10
0.0
 20
0.0
 30
0.0
 70
   128
 71
    49
 72
    38
 73
    64
 74
    62
  0
VERTEX
  5
1F6D
  8
LAYER1
 10
0.0
 20
0.0
 30
0.0
 70
   128
 71
    24
 72
    19
 73
    38
 74
    49
  0
VERTEX
  5
1F6E
  8
LAYER1
 10
0.0
 20
0.0
 30
0.0
 70
   128
 71
    14
 72
     9
 73
    19
 74
    24
  0
VERTEX
  5
1F6F
  8
LAYER1
 10
0.0
 20
0.0
 30
0.0
 70
   128
 71
     4
 72
     5
 73
     9
 74
    14
  0
VERTEX
  5
1F70
  8
LAYER1
 10
0.0
 20
0.0
 30
0.0
 70
   128
 71
    86
 72
    87
 73
   103
 74
   102
  0
VERTEX
  5
1F71
  8
LAYER1
 10
0.0
 20
0.0
 30
0.0
 70
   128
 71
    64
 72
    65
 73
    87
 74
    86
  0
VERTEX
  5
1F72
  8
LAYER1
 10
0.0
 20
0.0
 30
0.0
 70
   128
 71
    38
 72
    39
 73
    65
 74
    64
  0
VERTEX
  5
1F73
  8
LAYER1
 10
0.0
 20
0.0
 30
0.0
 70
   128
 71
    19
 72
    20
 73
    39
 74
    38
  0
VERTEX
  5
1F74
  8
LAYER1
 10
0.0
 20
0.0
 30
0.0
 70
   128
 71
     9
 72
    10
 73
    20
 74
    19
  0
VERTEX
  5
1F75
  8
LAYER1
 10
0.0
 20
0.0
 30
0.0
 70
   128
 71
     5
 72
     6
 73
    10
 74
     9
  0
VERTEX
  5
1F76
  8
LAYER1
 10
0.0
 20
0.0
 30
0.0
 70
   128
 71
    95
 72
    92
 73
    73
 74
    78
  0
VERTEX
  5
1F77
  8
LAYER1
 10
0.0
 20
0.0
 30
0.0
 70
   128
 71
    78
 72
    73
 73
    60
 74
    68
  0
VERTEX
  5
1F78
  8
LAYER1
 10
0.0
 20
0.0
 30
0.0
 70
   128
 71
    68
 72
    60
 73
    47
 74
    52
  0
VERTEX
  5
1F79
  8
LAYER1
 10
0.0
 20
0.0
 30
0.0
 70
   128
 71
    52
 72
    47
 73
    22
 74
    42
  0
VERTEX
  5
1F7A
  8
LAYER1
 10
0.0
 20
0.0
 30
0.0
 70
   128
 71
    42
 72
    22
 73
    12
 74
    30
  0
VERTEX
  5
1F7B
  8
LAYER1
 10
0.0
 20
0.0
 30
0.0
 70
   128
 71
    30
 72
    12
 73
     4
 74
    27
  0
VERTEX
  5
1F7C
  8
LAYER1
 10
0.0
 20
0.0
 30
0.0
 70
   128
 71
    92
 72
    89
 73
    83
 74
    73
  0
VERTEX
  5
1F7D
  8
LAYER1
 10
0.0
 20
0.0
 30
0.0
 70
   128
 71
    73
 72
    83
 73
    57
 74
    60
  0
VERTEX
  5
1F7E
  8
LAYER1
 10
0.0
 20
0.0
 30
0.0
 70
   128
 71
    60
 72
    57
 73
    35
 74
    47
  0
VERTEX
  5
1F7F
  8
LAYER1
 10
0.0
 20
0.0
 30
0.0
 70
   128
 71
    47
 72
    35
 73
    16
 74
    22
  0
VERTEX
  5
1F80
  8
LAYER1
 10
0.0
 20
0.0
 30
0.0
 70
   128
 71
    22
 72
    16
 73
     1
 74
    12
  0
VERTEX
  5
1F81
  8
LAYER1
 10
0.0
 20
0.0
 30
0.0
 70
   128
 71
    12
 72
     1
 73
     5
 74
     4
  0
VERTEX
  5
1F82
  8
LAYER1
 10
0.0
 20
0.0
 30
0.0
 70
   128
 71
    89
 72
    90
 73
    84
 74
    83
  0
VERTEX
  5
1F83
  8
LAYER1
 10
0.0
 20
0.0
 30
0.0
 70
   128
 71
    83
 72
    84
 73
    58
 74
    57
  0
VERTEX
  5
1F84
  8
LAYER1
 10
0.0
 20
0.0
 30
0.0
 70
   128
 71
    57
 72
    58
 73
    36
 74
    35
  0
VERTEX
  5
1F85
  8
LAYER1
 10
0.0
 20
0.0
 30
0.0
 70
   128
 71
    35
 72
    36
 73
    17
 74
    16
  0
VERTEX
  5
1F86
  8
LAYER1
 10
0.0
 20
0.0
 30
0.0
 70
   128
 71
    16
 72
    17
 73
     2
 74
     1
  0
VERTEX
  5
1F87
  8
LAYER1
 10
0.0
 20
0.0
 30
0.0
 70
   128
 71
     1
 72
     2
 73
     6
 74
     5
  0
VERTEX
  5
1F88
  8
LAYER1
 10
0.0
 20
0.0
 30
0.0
 70
   128
 71
    78
 72
    77
 73
    94
 74
    95
  0
VERTEX
  5
1F89
  8
LAYER1
 10
0.0
 20
0.0
 30
0.0
 70
   128
 71
    68
 72
    67
 73
    77
 74
    78
  0
VERTEX
  5
1F8A
  8
LAYER1
 10
0.0
 20
0.0
 30
0.0
 70
   128
 71
    52
 72
    51
 73
    67
 74
    68
  0
VERTEX
  5
1F8B
  8
LAYER1
 10
0.0
 20
0.0
 30
0.0
 70
   128
 71
    42
 72
    41
 73
    51
 74
    52
  0
VERTEX
  5
1F8C
  8
LAYER1
 10
0.0
 20
0.0
 30
0.0
 70
   128
 71
    30
 72
    29
 73
    41
 74
    42
  0
VERTEX
  5
1F8D
  8
LAYER1
 10
0.0
 20
0.0
 30
0.0
 70
   128
 71
    27
 72
    26
 73
    29
 74
    30
  0
VERTEX
  5
1F8E
  8
LAYER1
 10
0.0
 20
0.0
 30
0.0
 70
   128
 71
    98
 72
    97
 73
    80
 74
    81
  0
VERTEX
  5
1F8F
  8
LAYER1
 10
0.0
 20
0.0
 30
0.0
 70
   128
 71
    81
 72
    80
 73
    70
 74
    71
  0
VERTEX
  5
1F90
  8
LAYER1
 10
0.0
 20
0.0
 30
0.0
 70
   128
 71
    71
 72
    70
 73
    54
 74
    55
  0
VERTEX
  5
1F91
  8
LAYER1
 10
0.0
 20
0.0
 30
0.0
 70
   128
 71
    55
 72
    54
 73
    44
 74
    45
  0
VERTEX
  5
1F92
  8
LAYER1
 10
0.0
 20
0.0
 30
0.0
 70
   128
 71
    45
 72
    44
 73
    32
 74
    33
  0
VERTEX
  5
1F93
  8
LAYER1
 10
0.0
 20
0.0
 30
0.0
 70
   128
 71
    33
 72
    32
 73
    26
 74
    27
  0
VERTEX
  5
1F94
  8
LAYER1
 10
0.0
 20
0.0
 30
0.0
 70
   128
 71
    96
 72
    93
 73
   118
 74
   113
  0
VERTEX
  5
1F95
  8
LAYER1
 10
0.0
 20
0.0
 30
0.0
 70
   128
 71
   113
 72
   118
 73
   131
 74
   123
  0
VERTEX
  5
1F96
  8
LAYER1
 10
0.0
 20
0.0
 30
0.0
 70
   128
 71
   123
 72
   131
 73
   144
 74
   139
  0
VERTEX
  5
1F97
  8
LAYER1
 10
0.0
 20
0.0
 30
0.0
 70
   128
 71
   139
 72
   144
 73
   169
 74
   149
  0
VERTEX
  5
1F98
  8
LAYER1
 10
0.0
 20
0.0
 30
0.0
 70
   128
 71
   149
 72
   169
 73
   179
 74
   161
  0
VERTEX
  5
1F99
  8
LAYER1
 10
0.0
 20
0.0
 30
0.0
 70
   128
 71
   161
 72
   179
 73
   189
 74
   167
  0
VERTEX
  5
1F9A
  8
LAYER1
 10
0.0
 20
0.0
 30
0.0
 70
   128
 71
    93
 72
    91
 73
   107
 74
   118
  0
VERTEX
  5
1F9B
  8
LAYER1
 10
0.0
 20
0.0
 30
0.0
 70
   128
 71
   118
 72
   107
 73
   129
 74
   131
  0
VERTEX
  5
1F9C
  8
LAYER1
 10
0.0
 20
0.0
 30
0.0
 70
   128
 71
   131
 72
   129
 73
   155
 74
   144
  0
VERTEX
  5
1F9D
  8
LAYER1
 10
0.0
 20
0.0
 30
0.0
 70
   128
 71
   144
 72
   155
 73
   174
 74
   169
  0
VERTEX
  5
1F9E
  8
LAYER1
 10
0.0
 20
0.0
 30
0.0
 70
   128
 71
   169
 72
   174
 73
   184
 74
   179
  0
VERTEX
  5
1F9F
  8
LAYER1
 10
0.0
 20
0.0
 30
0.0
 70
   128
 71
   179
 72
   184
 73
   188
 74
   189
  0
VERTEX
  5
1FA0
  8
LAYER1
 10
0.0
 20
0.0
 30
0.0
 70
   128
 71
    91
 72
    90
 73
   106
 74
   107
  0
VERTEX
  5
1FA1
  8
LAYER1
 10
0.0
 20
0.0
 30
0.0
 70
   128
 71
   107
 72
   106
 73
   128
 74
   129
  0
VERTEX
  5
1FA2
  8
LAYER1
 10
0.0
 20
0.0
 30
0.0
 70
   128
 71
   129
 72
   128
 73
   154
 74
   155
  0
VERTEX
  5
1FA3
  8
LAYER1
 10
0.0
 20
0.0
 30
0.0
 70
   128
 71
   155
 72
   154
 73
   173
 74
   174
  0
VERTEX
  5
1FA4
  8
LAYER1
 10
0.0
 20
0.0
 30
0.0
 70
   128
 71
   174
 72
   173
 73
   183
 74
   184
  0
VERTEX
  5
1FA5
  8
LAYER1
 10
0.0
 20
0.0
 30
0.0
 70
   128
 71
   184
 72
   183
 73
   187
 74
   188
  0
VERTEX
  5
1FA6
  8
LAYER1
 10
0.0
 20
0.0
 30
0.0
 70
   128
 71
   112
 72
   117
 73
    92
 74
    95
  0
VERTEX
  5
1FA7
  8
LAYER1
 10
0.0
 20
0.0
 30
0.0
 70
   128
 71
   122
 72
   130
 73
   117
 74
   112
  0
VERTEX
  5
1FA8
  8
LAYER1
 10
0.0
 20
0.0
 30
0.0
 70
   128
 71
   138
 72
   143
 73
   130
 74
   122
  0
VERTEX
  5
1FA9
  8
LAYER1
 10
0.0
 20
0.0
 30
0.0
 70
   128
 71
   148
 72
   168
 73
   143
 74
   138
  0
VERTEX
  5
1FAA
  8
LAYER1
 10
0.0
 20
0.0
 30
0.0
 70
   128
 71
   160
 72
   178
 73
   168
 74
   148
  0
VERTEX
  5
1FAB
  8
LAYER1
 10
0.0
 20
0.0
 30
0.0
 70
   128
 71
   166
 72
   185
 73
   178
 74
   160
  0
VERTEX
  5
1FAC
  8
LAYER1
 10
0.0
 20
0.0
 30
0.0
 70
   128
 71
   117
 72
   105
 73
    89
 74
    92
  0
VERTEX
  5
1FAD
  8
LAYER1
 10
0.0
 20
0.0
 30
0.0
 70
   128
 71
   130
 72
   127
 73
   105
 74
   117
  0
VERTEX
  5
1FAE
  8
LAYER1
 10
0.0
 20
0.0
 30
0.0
 70
   128
 71
   143
 72
   153
 73
   127
 74
   130
  0
VERTEX
  5
1FAF
  8
LAYER1
 10
0.0
 20
0.0
 30
0.0
 70
   128
 71
   168
 72
   172
 73
   153
 74
   143
  0
VERTEX
  5
1FB0
  8
LAYER1
 10
0.0
 20
0.0
 30
0.0
 70
   128
 71
   178
 72
   182
 73
   172
 74
   168
  0
VERTEX
  5
1FB1
  8
LAYER1
 10
0.0
 20
0.0
 30
0.0
 70
   128
 71
   185
 72
   186
 73
   182
 74
   178
  0
VERTEX
  5
1FB2
  8
LAYER1
 10
0.0
 20
0.0
 30
0.0
 70
   128
 71
   105
 72
   106
 73
    90
 74
    89
  0
VERTEX
  5
1FB3
  8
LAYER1
 10
0.0
 20
0.0
 30
0.0
 70
   128
 71
   127
 72
   128
 73
   106
 74
   105
  0
VERTEX
  5
1FB4
  8
LAYER1
 10
0.0
 20
0.0
 30
0.0
 70
   128
 71
   153
 72
   154
 73
   128
 74
   127
  0
VERTEX
  5
1FB5
  8
LAYER1
 10
0.0
 20
0.0
 30
0.0
 70
   128
 71
   172
 72
   173
 73
   154
 74
   153
  0
VERTEX
  5
1FB6
  8
LAYER1
 10
0.0
 20
0.0
 30
0.0
 70
   128
 71
   182
 72
   183
 73
   173
 74
   172
  0
VERTEX
  5
1FB7
  8
LAYER1
 10
0.0
 20
0.0
 30
0.0
 70
   128
 71
   186
 72
   187
 73
   183
 74
   182
  0
VERTEX
  5
1FB8
  8
LAYER1
 10
0.0
 20
0.0
 30
0.0
 70
   128
 71
    95
 72
    94
 73
   111
 74
   112
  0
VERTEX
  5
1FB9
  8
LAYER1
 10
0.0
 20
0.0
 30
0.0
 70
   128
 71
   112
 72
   111
 73
   121
 74
   122
  0
VERTEX
  5
1FBA
  8
LAYER1
 10
0.0
 20
0.0
 30
0.0
 70
   128
 71
   122
 72
   121
 73
   137
 74
   138
  0
VERTEX
  5
1FBB
  8
LAYER1
 10
0.0
 20
0.0
 30
0.0
 70
   128
 71
   138
 72
   137
 73
   147
 74
   148
  0
VERTEX
  5
1FBC
  8
LAYER1
 10
0.0
 20
0.0
 30
0.0
 70
   128
 71
   148
 72
   147
 73
   159
 74
   160
  0
VERTEX
  5
1FBD
  8
LAYER1
 10
0.0
 20
0.0
 30
0.0
 70
   128
 71
   160
 72
   159
 73
   165
 74
   166
  0
VERTEX
  5
1FBE
  8
LAYER1
 10
0.0
 20
0.0
 30
0.0
 70
   128
 71
   116
 72
   120
 73
   101
 74
    99
  0
VERTEX
  5
1FBF
  8
LAYER1
 10
0.0
 20
0.0
 30
0.0
 70
   128
 71
   126
 72
   133
 73
   120
 74
   116
  0
VERTEX
  5
1FC0
  8
LAYER1
 10
0.0
 20
0.0
 30
0.0
 70
   128
 71
   142
 72
   146
 73
   133
 74
   126
  0
VERTEX
  5
1FC1
  8
LAYER1
 10
0.0
 20
0.0
 30
0.0
 70
   128
 71
   152
 72
   171
 73
   146
 74
   142
  0
VERTEX
  5
1FC2
  8
LAYER1
 10
0.0
 20
0.0
 30
0.0
 70
   128
 71
   164
 72
   181
 73
   171
 74
   152
  0
VERTEX
  5
1FC3
  8
LAYER1
 10
0.0
 20
0.0
 30
0.0
 70
   128
 71
   167
 72
   189
 73
   181
 74
   164
  0
VERTEX
  5
1FC4
  8
LAYER1
 10
0.0
 20
0.0
 30
0.0
 70
   128
 71
   120
 72
   110
 73
   104
 74
   101
  0
VERTEX
  5
1FC5
  8
LAYER1
 10
0.0
 20
0.0
 30
0.0
 70
   128
 71
   133
 72
   136
 73
   110
 74
   120
  0
VERTEX
  5
1FC6
  8
LAYER1
 10
0.0
 20
0.0
 30
0.0
 70
   128
 71
   146
 72
   158
 73
   136
 74
   133
  0
VERTEX
  5
1FC7
  8
LAYER1
 10
0.0
 20
0.0
 30
0.0
 70
   128
 71
   171
 72
   177
 73
   158
 74
   146
  0
VERTEX
  5
1FC8
  8
LAYER1
 10
0.0
 20
0.0
 30
0.0
 70
   128
 71
   181
 72
   192
 73
   177
 74
   171
  0
VERTEX
  5
1FC9
  8
LAYER1
 10
0.0
 20
0.0
 30
0.0
 70
   128
 71
   189
 72
   188
 73
   192
 74
   181
  0
VERTEX
  5
1FCA
  8
LAYER1
 10
0.0
 20
0.0
 30
0.0
 70
   128
 71
   110
 72
   109
 73
   103
 74
   104
  0
VERTEX
  5
1FCB
  8
LAYER1
 10
0.0
 20
0.0
 30
0.0
 70
   128
 71
   136
 72
   135
 73
   109
 74
   110
  0
VERTEX
  5
1FCC
  8
LAYER1
 10
0.0
 20
0.0
 30
0.0
 70
   128
 71
   158
 72
   157
 73
   135
 74
   136
  0
VERTEX
  5
1FCD
  8
LAYER1
 10
0.0
 20
0.0
 30
0.0
 70
   128
 71
   177
 72
   176
 73
   157
 74
   158
  0
VERTEX
  5
1FCE
  8
LAYER1
 10
0.0
 20
0.0
 30
0.0
 70
   128
 71
   192
 72
   191
 73
   176
 74
   177
  0
VERTEX
  5
1FCF
  8
LAYER1
 10
0.0
 20
0.0
 30
0.0
 70
   128
 71
   188
 72
   187
 73
   191
 74
   192
  0
VERTEX
  5
1FD0
  8
LAYER1
 10
0.0
 20
0.0
 30
0.0
 70
   128
 71
    98
 72
   100
 73
   119
 74
   115
  0
VERTEX
  5
1FD1
  8
LAYER1
 10
0.0
 20
0.0
 30
0.0
 70
   128
 71
   115
 72
   119
 73
   132
 74
   125
  0
VERTEX
  5
1FD2
  8
LAYER1
 10
0.0
 20
0.0
 30
0.0
 70
   128
 71
   125
 72
   132
 73
   145
 74
   141
  0
VERTEX
  5
1FD3
  8
LAYER1
 10
0.0
 20
0.0
 30
0.0
 70
   128
 71
   141
 72
   145
 73
   170
 74
   151
  0
VERTEX
  5
1FD4
  8
LAYER1
 10
0.0
 20
0.0
 30
0.0
 70
   128
 71
   151
 72
   170
 73
   180
 74
   163
  0
VERTEX
  5
1FD5
  8
LAYER1
 10
0.0
 20
0.0
 30
0.0
 70
   128
 71
   163
 72
   180
 73
   185
 74
   166
  0
VERTEX
  5
1FD6
  8
LAYER1
 10
0.0
 20
0.0
 30
0.0
 70
   128
 71
   100
 72
   102
 73
   108
 74
   119
  0
VERTEX
  5
1FD7
  8
LAYER1
 10
0.0
 20
0.0
 30
0.0
 70
   128
 71
   119
 72
   108
 73
   134
 74
   132
  0
VERTEX
  5
1FD8
  8
LAYER1
 10
0.0
 20
0.0
 30
0.0
 70
   128
 71
   132
 72
   134
 73
   156
 74
   145
  0
VERTEX
  5
1FD9
  8
LAYER1
 10
0.0
 20
0.0
 30
0.0
 70
   128
 71
   145
 72
   156
 73
   175
 74
   170
  0
VERTEX
  5
1FDA
  8
LAYER1
 10
0.0
 20
0.0
 30
0.0
 70
   128
 71
   170
 72
   175
 73
   190
 74
   180
  0
VERTEX
  5
1FDB
  8
LAYER1
 10
0.0
 20
0.0
 30
0.0
 70
   128
 71
   180
 72
   190
 73
   186
 74
   185
  0
VERTEX
  5
1FDC
  8
LAYER1
 10
0.0
 20
0.0
 30
0.0
 70
   128
 71
   102
 72
   103
 73
   109
 74
   108
  0
VERTEX
  5
1FDD
  8
LAYER1
 10
0.0
 20
0.0
 30
0.0
 70
   128
 71
   108
 72
   109
 73
   135
 74
   134
  0
VERTEX
  5
1FDE
  8
LAYER1
 10
0.0
 20
0.0
 30
0.0
 70
   128
 71
   134
 72
   135
 73
   157
 74
   156
  0
VERTEX
  5
1FDF
  8
LAYER1
 10
0.0
 20
0.0
 30
0.0
 70
   128
 71
   156
 72
   157
 73
   176
 74
   175
  0
VERTEX
  5
1FE0
  8
LAYER1
 10
0.0
 20
0.0
 30
0.0
 70
   128
 71
   175
 72
   176
 73
   191
 74
   190
  0
VERTEX
  5
1FE1
  8
LAYER1
 10
0.0
 20
0.0
 30
0.0
 70
   128
 71
   190
 72
   191
 73
   187
 74
   186
  0
VERTEX
  5
1FE2
  8
LAYER1
 10
0.0
 20
0.0
 30
0.0
 70
   128
 71
   115
 72
   114
 73
    97
 74
    98
  0
VERTEX
  5
1FE3
  8
LAYER1
 10
0.0
 20
0.0
 30
0.0
 70
   128
 71
   125
 72
   124
 73
   114
 74
   115
  0
VERTEX
  5
1FE4
  8
LAYER1
 10
0.0
 20
0.0
 30
0.0
 70
   128
 71
   141
 72
   140
 73
   124
 74
   125
  0
VERTEX
  5
1FE5
  8
LAYER1
 10
0.0
 20
0.0
 30
0.0
 70
   128
 71
   151
 72
   150
 73
   140
 74
   141
  0
VERTEX
  5
1FE6
  8
LAYER1
 10
0.0
 20
0.0
 30
0.0
 70
   128
 71
   163
 72
   162
 73
   150
 74
   151
  0
VERTEX
  5
1FE7
  8
LAYER1
 10
0.0
 20
0.0
 30
0.0
 70
   128
 71
   166
 72
   165
 73
   162
 74
   163
  0
SEQEND
  5
1FE8
  8
LAYER1
  0
POLYLINE
  5
1FED
  8
0
 66
     1
 10
0.0
 20
0.0
 30
0.0
 70
    16
 71
     4
 72
     7
  0
VERTEX
  5
1FEE
  8
0
 10
109.0
 20
51.0
 30
32.0
 70
    64
  0
VERTEX
  5
1FEF
  8
0
 10
109.0
 20
51.0
 30
32.0
 70
    64
  0
VERTEX
  5
1FF0
  8
0
 10
109.0
 20
51.0
 30
32.0
 70
    64
  0
VERTEX
  5
1FF1
  8
0
 10
109.0
 20
51.0
 30
32.0
 70
    64
  0
VERTEX
  5
1FF2
  8
0
 10
109.0
 20
51.0
 30
32.0
 70
    64
  0
VERTEX
  5
1FF3
  8
0
 10
109.0
 20
51.0
 30
32.0
 70
    64
  0
VERTEX
  5
1FF4
  8
0
 10
109.0
 20
51.0
 30
32.0
 70
    64
  0
VERTEX
  5
1FF5
  8
0
 10
85.5
 20
51.0
 30
32.0
 70
    64
  0
VERTEX
  5
1FF6
  8
0
 10
86.299999999999997
 20
51.0
 30
25.899999999999991
 70
    64
  0
VERTEX
  5
1FF7
  8
0
 10
88.599999999999994
 20
51.0
 30
20.300000000000001
 70
    64
  0
VERTEX
  5
1FF8
  8
0
 10
92.299999999999997
 20
51.0
 30
15.300000000000001
 70
    64
  0
VERTEX
  5
1FF9
  8
0
 10
97.299999999999997
 20
51.0
 30
11.6
 70
    64
  0
VERTEX
  5
1FFA
  8
0
 10
102.90000000000001
 20
51.0
 30
9.3000000000000007
 70
    64
  0
VERTEX
  5
1FFB
  8
0
 10
109.0
 20
51.0
 30
8.5
 70
    64
  0
VERTEX
  5
1FFC
  8
0
 10
84.500000000000014
 20
52.0
 30
32.0
 70
    64
  0
VERTEX
  5
1FFD
  8
0
 10
85.299999999999983
 20
52.0
 30
25.699999999999999
 70
    64
  0
VERTEX
  5
1FFE
  8
0
 10
87.700000000000017
 20
52.0
 30
19.800000000000001
 70
    64
  0
VERTEX
  5
1FFF
  8
0
 10
91.699999999999989
 20
52.0
 30
14.69999999999999
 70
    64
  0
VERTEX
  5
2000
  8
0
 10
96.799999999999983
 20
52.0
 30
10.699999999999999
 70
    64
  0
VERTEX
  5
2001
  8
0
 10
102.7
 20
52.0
 30
8.3000000000000007
 70
    64
  0
VERTEX
  5
2002
  8
0
 10
109.0
 20
52.0
 30
7.5
 70
    64
  0
VERTEX
  5
2003
  8
0
 10
84.500000000000014
 20
86.5
 30
32.0
 70
    64
  0
VERTEX
  5
2004
  8
0
 10
85.268688780489583
 20
84.609574263494608
 30
25.699999999999999
 70
    64
  0
VERTEX
  5
2005
  8
0
 10
87.623692346132074
 20
81.472805843134537
 30
19.800000000000001
 70
    64
  0
VERTEX
  5
2006
  8
0
 10
91.679533236587758
 20
77.747893397289261
 30
14.69999999999999
 70
    64
  0
VERTEX
  5
2007
  8
0
 10
96.651207713980625
 20
73.826933085168378
 30
10.699999999999999
 70
    64
  0
VERTEX
  5
2008
  8
0
 10
102.6041349517222
 20
69.840623199849972
 30
8.3000000000000007
 70
    64
  0
VERTEX
  5
2009
  8
0
 10
109.0
 20
66.0
 30
7.5
 70
    64
  0
SEQEND
  5
200A
  8
0
  0
POLYLINE
  5
200B
  8
0
 66
     1
 10
0.0
 20
0.0
 30
0.0
 70
    16
 71
     4
 72
     7
  0
VERTEX
  5
200C
  8
0
 10
109.0
 20
51.0
 30
32.0
 70
    64
  0
VERTEX
  5
200D
  8
0
 10
109.0
 20
51.0
 30
32.0
 70
    64
  0
VERTEX
  5
200E
  8
0
 10
109.0
 20
51.0
 30
32.0
 70
    64
  0
VERTEX
  5
200F
  8
0
 10
109.0
 20
51.0
 30
32.0
 70
    64
  0
VERTEX
  5
2010
  8
0
 10
109.0
 20
51.0
 30
32.0
 70
    64
  0
VERTEX
  5
2011
  8
0
 10
109.0
 20
51.0
 30
32.0
 70
    64
  0
VERTEX
  5
2012
  8
0
 10
109.0
 20
51.0
 30
32.0
 70
    64
  0
VERTEX
  5
2013
  8
0
 10
85.5
 20
51.0
 30
32.0
 70
    64
  0
VERTEX
  5
2014
  8
0
 10
86.299999999999997
 20
51.0
 30
38.099999999999987
 70
    64
  0
VERTEX
  5
2015
  8
0
 10
88.599999999999994
 20
50.999999999999979
 30
43.700000000000003
 70
    64
  0
VERTEX
  5
2016
  8
0
 10
92.299999999999997
 20
50.999999999999979
 30
48.700000000000003
 70
    64
  0
VERTEX
  5
2017
  8
0
 10
97.299999999999997
 20
50.999999999999979
 30
52.400000000000013
 70
    64
  0
VERTEX
  5
2018
  8
0
 10
102.90000000000001
 20
50.999999999999979
 30
54.700000000000003
 70
    64
  0
VERTEX
  5
2019
  8
0
 10
109.0
 20
50.999999999999979
 30
55.5
 70
    64
  0
VERTEX
  5
201A
  8
0
 10
84.500000000000014
 20
52.0
 30
32.0
 70
    64
  0
VERTEX
  5
201B
  8
0
 10
85.299999999999983
 20
52.0
 30
38.299999999999997
 70
    64
  0
VERTEX
  5
201C
  8
0
 10
87.700000000000017
 20
51.999999999999993
 30
44.200000000000003
 70
    64
  0
VERTEX
  5
201D
  8
0
 10
91.699999999999989
 20
51.999999999999993
 30
49.29999999999999
 70
    64
  0
VERTEX
  5
201E
  8
0
 10
96.799999999999983
 20
51.999999999999993
 30
53.299999999999997
 70
    64
  0
VERTEX
  5
201F
  8
0
 10
102.7
 20
51.999999999999993
 30
55.700000000000003
 70
    64
  0
VERTEX
  5
2020
  8
0
 10
109.0
 20
51.999999999999993
 30
56.5
 70
    64
  0
VERTEX
  5
2021
  8
0
 10
84.500000000000014
 20
86.5
 30
32.0
 70
    64
  0
VERTEX
  5
2022
  8
0
 10
85.299999999999983
 20
86.5
 30
38.299999999999997
 70
    64
  0
VERTEX
  5
2023
  8
0
 10
87.700000000000017
 20
86.5
 30
44.200000000000003
 70
    64
  0
VERTEX
  5
2024
  8
0
 10
91.699999999999989
 20
86.5
 30
49.29999999999999
 70
    64
  0
VERTEX
  5
2025
  8
0
 10
96.799999999999983
 20
86.5
 30
53.299999999999997
 70
    64
  0
VERTEX
  5
2026
  8
0
 10
102.7
 20
86.5
 30
55.700000000000003
 70
    64
  0
VERTEX
  5
2027
  8
0
 10
109.0
 20
86.5
 30
56.5
 70
    64
  0
SEQEND
  5
2028
  8
0
  0
POLYLINE
  5
2067
  8
0
 66
     1
 10
0.0
 20
0.0
 30
0.0
 70
    16
 71
     5
 72
    12
  0
VERTEX
  5
2068
  8
0
 10
0.0
 20
86.5
 30
34.0
 70
    64
  0
VERTEX
  5
2069
  8
0
 10
0.0
 20
86.5
 30
34.0
 70
    64
  0
VERTEX
  5
206A
  8
0
 10
0.0
 20
86.5
 30
34.0
 70
    64
  0
VERTEX
  5
206B
  8
0
 10
0.0
 20
86.5
 30
34.0
 70
    64
  0
VERTEX
  5
206C
  8
0
 10
0.0
 20
86.5
 30
34.0
 70
    64
  0
VERTEX
  5
206D
  8
0
 10
0.0
 20
86.5
 30
34.0
 70
    64
  0
VERTEX
  5
206E
  8
0
 10
0.0
 20
86.5
 30
34.0
 70
    64
  0
VERTEX
  5
206F
  8
0
 10
0.0
 20
86.5
 30
34.0
 70
    64
  0
VERTEX
  5
2070
  8
0
 10
0.0
 20
86.5
 30
34.0
 70
    64
  0
VERTEX
  5
2071
  8
0
 10
0.0
 20
86.5
 30
34.0
 70
    64
  0
VERTEX
  5
2072
  8
0
 10
0.0
 20
86.5
 30
34.0
 70
    64
  0
VERTEX
  5
2073
  8
0
 10
0.0
 20
86.5
 30
34.0
 70
    64
  0
VERTEX
  5
2074
  8
0
 10
0.0
 20
66.0
 30
34.0
 70
    64
  0
VERTEX
  5
2075
  8
0
 10
0.0
 20
66.700000000000003
 30
39.29999999999999
 70
    64
  0
VERTEX
  5
2076
  8
0
 10
0.0
 20
68.799999999999983
 30
44.200000000000003
 70
    64
  0
VERTEX
  5
2077
  8
0
 10
0.0
 20
72.0
 30
48.5
 70
    64
  0
VERTEX
  5
2078
  8
0
 10
0.0
 20
76.299999999999983
 30
51.79999999999999
 70
    64
  0
VERTEX
  5
2079
  8
0
 10
0.0
 20
81.200000000000003
 30
53.79999999999999
 70
    64
  0
VERTEX
  5
207A
  8
0
 10
0.0
 20
86.5
 30
54.5
 70
    64
  0
VERTEX
  5
207B
  8
0
 10
0.0
 20
93.0
 30
53.79999999999999
 70
    64
  0
VERTEX
  5
207C
  8
0
 10
0.0
 20
99.200000000000017
 30
51.79999999999999
 70
    64
  0
VERTEX
  5
207D
  8
0
 10
0.0
 20
104.4999999999999
 30
48.5
 70
    64
  0
VERTEX
  5
207E
  8
0
 10
0.0
 20
107.0
 30
45.799999999999997
 70
    64
  0
VERTEX
  5
207F
  8
0
 10
0.0
 20
107.0
 30
34.0
 70
    64
  0
VERTEX
  5
2080
  8
0
 10
0.5
 20
64.5
 30
34.0
 70
    64
  0
VERTEX
  5
2081
  8
0
 10
0.5
 20
65.299999999999997
 30
39.700000000000003
 70
    64
  0
VERTEX
  5
2082
  8
0
 10
0.5
 20
67.5
 30
45.0
 70
    64
  0
VERTEX
  5
2083
  8
0
 10
0.5
 20
71.0
 30
49.5
 70
    64
  0
VERTEX
  5
2084
  8
0
 10
0.5
 20
75.599999999999994
 30
53.100000000000001
 70
    64
  0
VERTEX
  5
2085
  8
0
 10
0.5
 20
80.799999999999997
 30
55.200000000000003
 70
    64
  0
VERTEX
  5
2086
  8
0
 10
0.5
 20
86.5
 30
56.0
 70
    64
  0
VERTEX
  5
2087
  8
0
 10
0.5
 20
93.499999999999986
 30
55.200000000000003
 70
    64
  0
VERTEX
  5
2088
  8
0
 10
0.5
 20
100.09999999999989
 30
53.100000000000001
 70
    64
  0
VERTEX
  5
2089
  8
0
 10
0.5
 20
105.8
 30
49.5
 70
    64
  0
VERTEX
  5
208A
  8
0
 10
0.5
 20
108.4999999999999
 30
46.700000000000003
 70
    64
  0
VERTEX
  5
208B
  8
0
 10
0.5
 20
108.4999999999999
 30
34.0
 70
    64
  0
VERTEX
  5
208C
  8
0
 10
2.0
 20
64.0
 30
34.0
 70
    64
  0
VERTEX
  5
208D
  8
0
 10
2.0
 20
64.799999999999997
 30
39.799999999999997
 70
    64
  0
VERTEX
  5
208E
  8
0
 10
2.0
 20
67.0
 30
45.200000000000003
 70
    64
  0
VERTEX
  5
208F
  8
0
 10
2.0
 20
70.599999999999994
 30
49.899999999999999
 70
    64
  0
VERTEX
  5
2090
  8
0
 10
2.0
 20
75.299999999999997
 30
53.5
 70
    64
  0
VERTEX
  5
2091
  8
0
 10
2.0
 20
80.700000000000003
 30
55.700000000000003
 70
    64
  0
VERTEX
  5
2092
  8
0
 10
2.0
 20
86.5
 30
56.5
 70
    64
  0
VERTEX
  5
2093
  8
0
 10
2.0
 20
93.700000000000003
 30
55.700000000000003
 70
    64
  0
VERTEX
  5
2094
  8
0
 10
2.0
 20
100.40000000000001
 30
53.5
 70
    64
  0
VERTEX
  5
2095
  8
0
 10
2.0
 20
106.1999999999999
 30
49.899999999999999
 70
    64
  0
VERTEX
  5
2096
  8
0
 10
2.0
 20
109.0
 30
47.0
 70
    64
  0
VERTEX
  5
2097
  8
0
 10
2.0
 20
109.0
 30
34.0
 70
    64
  0
VERTEX
  5
2098
  8
0
 10
109.0
 20
64.0
 30
34.0
 70
    64
  0
VERTEX
  5
2099
  8
0
 10
109.0
 20
64.799999999999997
 30
39.799999999999997
 70
    64
  0
VERTEX
  5
209A
  8
0
 10
109.0
 20
67.0
 30
45.200000000000003
 70
    64
  0
VERTEX
  5
209B
  8
0
 10
109.0
 20
70.599999999999994
 30
49.899999999999999
 70
    64
  0
VERTEX
  5
209C
  8
0
 10
109.0
 20
75.299999999999997
 30
53.5
 70
    64
  0
VERTEX
  5
209D
  8
0
 10
109.0
 20
80.700000000000003
 30
55.700000000000003
 70
    64
  0
VERTEX
  5
209E
  8
0
 10
109.0
 20
86.5
 30
56.5
 70
    64
  0
VERTEX
  5
209F
  8
0
 10
109.0
 20
93.700000000000003
 30
55.700000000000003
 70
    64
  0
VERTEX
  5
20A0
  8
0
 10
109.0
 20
100.40000000000001
 30
53.5
 70
    64
  0
VERTEX
  5
20A1
  8
0
 10
109.0
 20
106.1999999999999
 30
49.899999999999999
 70
    64
  0
VERTEX
  5
20A2
  8
0
 10
109.0
 20
109.0
 30
47.0
 70
    64
  0
VERTEX
  5
20A3
  8
0
 10
109.0
 20
109.0
 30
34.0
 70
    64
  0
SEQEND
  5
20A4
  8
0
  0
POLYLINE
  5
20E3
  8
0
 66
     1
 10
0.0
 20
0.0
 30
0.0
 70
    16
 71
     4
 72
     7
  0
VERTEX
  5
20E4
  8
0
 10
109.0
 20
109.0
 30
32.0
 70
    64
  0
VERTEX
  5
20E5
  8
0
 10
109.0
 20
109.0
 30
32.0
 70
    64
  0
VERTEX
  5
20E6
  8
0
 10
109.0
 20
109.0
 30
32.0
 70
    64
  0
VERTEX
  5
20E7
  8
0
 10
109.0
 20
109.0
 30
32.0
 70
    64
  0
VERTEX
  5
20E8
  8
0
 10
109.0
 20
109.0
 30
32.0
 70
    64
  0
VERTEX
  5
20E9
  8
0
 10
109.0
 20
109.0
 30
32.0
 70
    64
  0
VERTEX
  5
20EA
  8
0
 10
109.0
 20
109.0
 30
32.0
 70
    64
  0
VERTEX
  5
20EB
  8
0
 10
85.5
 20
109.0
 30
32.0
 70
    64
  0
VERTEX
  5
20EC
  8
0
 10
86.299999999999997
 20
109.0
 30
25.899999999999991
 70
    64
  0
VERTEX
  5
20ED
  8
0
 10
88.599999999999994
 20
109.0
 30
20.300000000000001
 70
    64
  0
VERTEX
  5
20EE
  8
0
 10
92.299999999999997
 20
109.0
 30
15.300000000000001
 70
    64
  0
VERTEX
  5
20EF
  8
0
 10
97.299999999999997
 20
109.0
 30
11.6
 70
    64
  0
VERTEX
  5
20F0
  8
0
 10
102.90000000000001
 20
109.0
 30
9.3000000000000007
 70
    64
  0
VERTEX
  5
20F1
  8
0
 10
109.0
 20
109.0
 30
8.5
 70
    64
  0
VERTEX
  5
20F2
  8
0
 10
84.500000000000014
 20
108.0
 30
32.0
 70
    64
  0
VERTEX
  5
20F3
  8
0
 10
85.299999999999983
 20
108.0
 30
25.699999999999999
 70
    64
  0
VERTEX
  5
20F4
  8
0
 10
87.700000000000017
 20
108.0
 30
19.800000000000001
 70
    64
  0
VERTEX
  5
20F5
  8
0
 10
91.699999999999989
 20
108.0
 30
14.69999999999999
 70
    64
  0
VERTEX
  5
20F6
  8
0
 10
96.799999999999983
 20
108.0
 30
10.699999999999999
 70
    64
  0
VERTEX
  5
20F7
  8
0
 10
102.7
 20
108.0
 30
8.3000000000000007
 70
    64
  0
VERTEX
  5
20F8
  8
0
 10
109.0
 20
108.0
 30
7.5
 70
    64
  0
VERTEX
  5
20F9
  8
0
 10
84.500000000000014
 20
86.5
 30
32.0
 70
    64
  0
VERTEX
  5
20FA
  8
0
 10
85.268688780489583
 20
84.609574263494608
 30
25.699999999999999
 70
    64
  0
VERTEX
  5
20FB
  8
0
 10
87.623692346132074
 20
81.472805843134537
 30
19.800000000000001
 70
    64
  0
VERTEX
  5
20FC
  8
0
 10
91.679533236587758
 20
77.747893397289261
 30
14.69999999999999
 70
    64
  0
VERTEX
  5
20FD
  8
0
 10
96.651207713980625
 20
73.826933085168378
 30
10.699999999999999
 70
    64
  0
VERTEX
  5
20FE
  8
0
 10
102.6041349517222
 20
69.840623199849972
 30
8.3000000000000007
 70
    64
  0
VERTEX
  5
20FF
  8
0
 10
109.0
 20
66.0
 30
7.5
 70
    64
  0
SEQEND
  5
2100
  8
0
  0
POLYLINE
  5
211F
  8
0
 66
     1
 10
0.0
 20
0.0
 30
0.0
 70
    16
 71
     5
 72
    12
  0
VERTEX
  5
2120
  8
0
 10
0.0
 20
86.5
 30
34.000000000000043
 70
    64
  0
VERTEX
  5
2121
  8
0
 10
0.0
 20
86.5
 30
34.000000000000043
 70
    64
  0
VERTEX
  5
2122
  8
0
 10
0.0
 20
86.5
 30
34.000000000000043
 70
    64
  0
VERTEX
  5
2123
  8
0
 10
0.0
 20
86.5
 30
34.000000000000043
 70
    64
  0
VERTEX
  5
2124
  8
0
 10
0.0
 20
86.5
 30
34.000000000000043
 70
    64
  0
VERTEX
  5
2125
  8
0
 10
0.0
 20
86.5
 30
34.000000000000043
 70
    64
  0
VERTEX
  5
2126
  8
0
 10
0.0
 20
86.5
 30
34.000000000000043
 70
    64
  0
VERTEX
  5
2127
  8
0
 10
0.0
 20
86.5
 30
34.000000000000043
 70
    64
  0
VERTEX
  5
2128
  8
0
 10
0.0
 20
86.5
 30
34.000000000000043
 70
    64
  0
VERTEX
  5
2129
  8
0
 10
0.0
 20
86.5
 30
34.000000000000043
 70
    64
  0
VERTEX
  5
212A
  8
0
 10
0.0
 20
86.5
 30
34.000000000000043
 70
    64
  0
VERTEX
  5
212B
  8
0
 10
0.0
 20
86.5
 30
34.000000000000043
 70
    64
  0
VERTEX
  5
212C
  8
0
 10
0.0
 20
66.0
 30
34.000000000000028
 70
    64
  0
VERTEX
  5
212D
  8
0
 10
0.0
 20
66.700000000000003
 30
28.700000000000038
 70
    64
  0
VERTEX
  5
212E
  8
0
 10
0.0
 20
68.799999999999983
 30
23.800000000000029
 70
    64
  0
VERTEX
  5
212F
  8
0
 10
0.0
 20
72.0
 30
19.500000000000028
 70
    64
  0
VERTEX
  5
2130
  8
0
 10
0.0
 20
76.299999999999983
 30
16.200000000000031
 70
    64
  0
VERTEX
  5
2131
  8
0
 10
0.0
 20
81.200000000000003
 30
14.20000000000004
 70
    64
  0
VERTEX
  5
2132
  8
0
 10
0.0
 20
86.5
 30
13.500000000000041
 70
    64
  0
VERTEX
  5
2133
  8
0
 10
0.0
 20
93.0
 30
14.20000000000004
 70
    64
  0
VERTEX
  5
2134
  8
0
 10
0.0
 20
99.200000000000017
 30
16.200000000000049
 70
    64
  0
VERTEX
  5
2135
  8
0
 10
0.0
 20
104.5
 30
19.500000000000039
 70
    64
  0
VERTEX
  5
2136
  8
0
 10
0.0
 20
107.0
 30
22.200000000000049
 70
    64
  0
VERTEX
  5
2137
  8
0
 10
0.0
 20
107.0
 30
34.00000000000005
 70
    64
  0
VERTEX
  5
2138
  8
0
 10
0.5
 20
64.5
 30
34.000000000000028
 70
    64
  0
VERTEX
  5
2139
  8
0
 10
0.5
 20
65.299999999999997
 30
28.300000000000029
 70
    64
  0
VERTEX
  5
213A
  8
0
 10
0.5
 20
67.5
 30
23.000000000000028
 70
    64
  0
VERTEX
  5
213B
  8
0
 10
0.5
 20
71.0
 30
18.500000000000028
 70
    64
  0
VERTEX
  5
213C
  8
0
 10
0.5
 20
75.599999999999994
 30
14.900000000000031
 70
    64
  0
VERTEX
  5
213D
  8
0
 10
0.5
 20
80.799999999999997
 30
12.80000000000004
 70
    64
  0
VERTEX
  5
213E
  8
0
 10
0.5
 20
86.5
 30
12.000000000000041
 70
    64
  0
VERTEX
  5
213F
  8
0
 10
0.5
 20
93.499999999999986
 30
12.80000000000004
 70
    64
  0
VERTEX
  5
2140
  8
0
 10
0.5
 20
100.09999999999999
 30
14.900000000000039
 70
    64
  0
VERTEX
  5
2141
  8
0
 10
0.5
 20
105.8
 30
18.500000000000039
 70
    64
  0
VERTEX
  5
2142
  8
0
 10
0.5
 20
108.5
 30
21.30000000000004
 70
    64
  0
VERTEX
  5
2143
  8
0
 10
0.5
 20
108.4999999999999
 30
34.00000000000005
 70
    64
  0
VERTEX
  5
2144
  8
0
 10
2.0
 20
64.0
 30
34.000000000000028
 70
    64
  0
VERTEX
  5
2145
  8
0
 10
2.0
 20
64.799999999999997
 30
28.200000000000031
 70
    64
  0
VERTEX
  5
2146
  8
0
 10
2.0
 20
67.0
 30
22.800000000000029
 70
    64
  0
VERTEX
  5
2147
  8
0
 10
2.0
 20
70.599999999999994
 30
18.10000000000003
 70
    64
  0
VERTEX
  5
2148
  8
0
 10
2.0
 20
75.299999999999997
 30
14.50000000000003
 70
    64
  0
VERTEX
  5
2149
  8
0
 10
2.0
 20
80.700000000000003
 30
12.300000000000029
 70
    64
  0
VERTEX
  5
214A
  8
0
 10
2.0
 20
86.5
 30
11.500000000000041
 70
    64
  0
VERTEX
  5
214B
  8
0
 10
2.0
 20
93.700000000000003
 30
12.300000000000029
 70
    64
  0
VERTEX
  5
214C
  8
0
 10
2.0
 20
100.40000000000001
 30
14.50000000000005
 70
    64
  0
VERTEX
  5
214D
  8
0
 10
2.0
 20
106.2
 30
18.100000000000051
 70
    64
  0
VERTEX
  5
214E
  8
0
 10
2.0
 20
109.0
 30
21.000000000000039
 70
    64
  0
VERTEX
  5
214F
  8
0
 10
2.0
 20
109.0
 30
34.00000000000005
 70
    64
  0
VERTEX
  5
2150
  8
0
 10
109.0
 20
64.0
 30
34.000000000000028
 70
    64
  0
VERTEX
  5
2151
  8
0
 10
109.0
 20
64.799999999999997
 30
28.200000000000031
 70
    64
  0
VERTEX
  5
2152
  8
0
 10
109.0
 20
67.0
 30
22.800000000000029
 70
    64
  0
VERTEX
  5
2153
  8
0
 10
109.0
 20
70.599999999999994
 30
18.10000000000003
 70
    64
  0
VERTEX
  5
2154
  8
0
 10
109.0
 20
75.299999999999997
 30
14.50000000000003
 70
    64
  0
VERTEX
  5
2155
  8
0
 10
109.0
 20
80.700000000000003
 30
12.300000000000029
 70
    64
  0
VERTEX
  5
2156
  8
0
 10
109.0
 20
86.5
 30
11.500000000000041
 70
    64
  0
VERTEX
  5
2157
  8
0
 10
109.0
 20
93.700000000000003
 30
12.300000000000029
 70
    64
  0
VERTEX
  5
2158
  8
0
 10
109.0
 20
100.40000000000001
 30
14.50000000000005
 70
    64
  0
VERTEX
  5
2159
  8
0
 10
109.0
 20
106.2
 30
18.100000000000051
 70
    64
  0
VERTEX
  5
215A
  8
0
 10
109.0
 20
109.0
 30
21.000000000000039
 70
    64
  0
VERTEX
  5
215B
  8
0
 10
109.0
 20
109.0
 30
34.00000000000005
 70
    64
  0
SEQEND
  5
215C
  8
0
  0
POLYLINE
  5
2598
  8
LAYER1
 62
   252
 66
     1
 10
0.0
 20
0.0
 30
0.0
 70
    64
 71
    73
 72
    72
  0
VERTEX
  5
2599
  8
LAYER1
 10
99.0
 20
98.0
 30
0.26316
 70
   192
  0
VERTEX
  5
259A
  8
LAYER1
 10
99.0
 20
98.0
 30
20.0
 70
   192
  0
VERTEX
  5
259B
  8
LAYER1
 10
99.217391000000006
 20
98.0
 30
0.0
 70
   192
  0
VERTEX
  5
259C
  8
LAYER1
 10
99.347825999999998
 20
100.5651999999999
 30
0.26316
 70
   192
  0
VERTEX
  5
259D
  8
LAYER1
 10
99.347825999999998
 20
95.434780000000003
 30
0.26316
 70
   192
  0
VERTEX
  5
259E
  8
LAYER1
 10
99.347825999999998
 20
100.5651999999999
 30
20.0
 70
   192
  0
VERTEX
  5
259F
  8
LAYER1
 10
99.347825999999998
 20
95.434780000000003
 30
20.0
 70
   192
  0
VERTEX
  5
25A0
  8
LAYER1
 10
99.565217000000004
 20
100.5217
 30
0.0
 70
   192
  0
VERTEX
  5
25A1
  8
LAYER1
 10
99.565217000000004
 20
95.478260000000006
 30
0.0
 70
   192
  0
VERTEX
  5
25A2
  8
LAYER1
 10
100.34783
 20
102.95650000000001
 30
0.26316
 70
   192
  0
VERTEX
  5
25A3
  8
LAYER1
 10
100.34783
 20
93.043480000000002
 30
0.26316
 70
   192
  0
VERTEX
  5
25A4
  8
LAYER1
 10
100.34783
 20
102.95650000000001
 30
20.0
 70
   192
  0
VERTEX
  5
25A5
  8
LAYER1
 10
100.34783
 20
93.043480000000002
 30
20.0
 70
   192
  0
VERTEX
  5
25A6
  8
LAYER1
 10
100.52173999999999
 20
102.86959999999991
 30
0.0
 70
   192
  0
VERTEX
  5
25A7
  8
LAYER1
 10
100.52173999999999
 20
93.130430000000004
 30
0.0
 70
   192
  0
VERTEX
  5
25A8
  8
LAYER1
 10
101.9565199999999
 20
105.04349999999999
 30
0.26316
 70
   192
  0
VERTEX
  5
25A9
  8
LAYER1
 10
101.9565199999999
 20
90.956519999999983
 30
0.26316
 70
   192
  0
VERTEX
  5
25AA
  8
LAYER1
 10
101.9565199999999
 20
105.04349999999999
 30
20.0
 70
   192
  0
VERTEX
  5
25AB
  8
LAYER1
 10
101.9565199999999
 20
90.956519999999983
 30
20.0
 70
   192
  0
VERTEX
  5
25AC
  8
LAYER1
 10
102.08696
 20
104.9129999999999
 30
0.0
 70
   192
  0
VERTEX
  5
25AD
  8
LAYER1
 10
102.08696
 20
91.086960000000005
 30
0.0
 70
   192
  0
VERTEX
  5
25AE
  8
LAYER1
 10
104.04348
 20
106.65219999999989
 30
0.26316
 70
   192
  0
VERTEX
  5
25AF
  8
LAYER1
 10
104.04348
 20
89.347830000000016
 30
0.26316
 70
   192
  0
VERTEX
  5
25B0
  8
LAYER1
 10
104.04348
 20
106.65219999999989
 30
20.0
 70
   192
  0
VERTEX
  5
25B1
  8
LAYER1
 10
104.04348
 20
89.347830000000016
 30
20.0
 70
   192
  0
VERTEX
  5
25B2
  8
LAYER1
 10
104.1304299999999
 20
106.4783
 30
0.0
 70
   192
  0
VERTEX
  5
25B3
  8
LAYER1
 10
104.1304299999999
 20
89.521739999999994
 30
0.0
 70
   192
  0
VERTEX
  5
25B4
  8
LAYER1
 10
106.4347799999999
 20
107.65219999999989
 30
0.26316
 70
   192
  0
VERTEX
  5
25B5
  8
LAYER1
 10
106.4347799999999
 20
88.347825999999998
 30
0.26316
 70
   192
  0
VERTEX
  5
25B6
  8
LAYER1
 10
106.4347799999999
 20
107.65219999999989
 30
20.0
 70
   192
  0
VERTEX
  5
25B7
  8
LAYER1
 10
106.4347799999999
 20
88.347825999999998
 30
20.0
 70
   192
  0
VERTEX
  5
25B8
  8
LAYER1
 10
106.47826000000001
 20
107.4348
 30
0.0
 70
   192
  0
VERTEX
  5
25B9
  8
LAYER1
 10
106.47826000000001
 20
88.565217000000004
 30
0.0
 70
   192
  0
VERTEX
  5
25BA
  8
LAYER1
 10
109.0
 20
107.7825999999999
 30
0.0
 70
   192
  0
VERTEX
  5
25BB
  8
LAYER1
 10
109.0
 20
98.0
 30
0.0
 70
   192
  0
VERTEX
  5
25BC
  8
LAYER1
 10
109.0
 20
88.217391000000006
 30
0.0
 70
   192
  0
VERTEX
  5
25BD
  8
LAYER1
 10
109.0
 20
108.0
 30
0.26316
 70
   192
  0
VERTEX
  5
25BE
  8
LAYER1
 10
109.0
 20
88.0
 30
0.26316
 70
   192
  0
VERTEX
  5
25BF
  8
LAYER1
 10
109.0
 20
108.0
 30
20.0
 70
   192
  0
VERTEX
  5
25C0
  8
LAYER1
 10
109.0
 20
88.0
 30
20.0
 70
   192
  0
VERTEX
  5
25C1
  8
LAYER1
 10
111.5216999999999
 20
107.4348
 30
0.0
 70
   192
  0
VERTEX
  5
25C2
  8
LAYER1
 10
111.5216999999999
 20
88.565217000000004
 30
0.0
 70
   192
  0
VERTEX
  5
25C3
  8
LAYER1
 10
111.5652
 20
107.65219999999989
 30
0.26316
 70
   192
  0
VERTEX
  5
25C4
  8
LAYER1
 10
111.5652
 20
88.347825999999998
 30
0.26316
 70
   192
  0
VERTEX
  5
25C5
  8
LAYER1
 10
111.5652
 20
107.65219999999989
 30
20.0
 70
   192
  0
VERTEX
  5
25C6
  8
LAYER1
 10
111.5652
 20
88.347825999999998
 30
20.0
 70
   192
  0
VERTEX
  5
25C7
  8
LAYER1
 10
113.86960000000001
 20
106.4783
 30
0.0
 70
   192
  0
VERTEX
  5
25C8
  8
LAYER1
 10
113.86960000000001
 20
89.521739999999994
 30
0.0
 70
   192
  0
VERTEX
  5
25C9
  8
LAYER1
 10
113.95650000000001
 20
106.65219999999989
 30
0.26316
 70
   192
  0
VERTEX
  5
25CA
  8
LAYER1
 10
113.95650000000001
 20
89.347830000000016
 30
0.26316
 70
   192
  0
VERTEX
  5
25CB
  8
LAYER1
 10
113.95650000000001
 20
106.65219999999989
 30
20.0
 70
   192
  0
VERTEX
  5
25CC
  8
LAYER1
 10
113.95650000000001
 20
89.347830000000016
 30
20.0
 70
   192
  0
VERTEX
  5
25CD
  8
LAYER1
 10
115.9129999999999
 20
104.9129999999999
 30
0.0
 70
   192
  0
VERTEX
  5
25CE
  8
LAYER1
 10
115.9129999999999
 20
91.086960000000005
 30
0.0
 70
   192
  0
VERTEX
  5
25CF
  8
LAYER1
 10
116.0434999999999
 20
105.04349999999999
 30
0.26316
 70
   192
  0
VERTEX
  5
25D0
  8
LAYER1
 10
116.0434999999999
 20
90.956519999999983
 30
0.26316
 70
   192
  0
VERTEX
  5
25D1
  8
LAYER1
 10
116.0434999999999
 20
105.04349999999999
 30
20.0
 70
   192
  0
VERTEX
  5
25D2
  8
LAYER1
 10
116.0434999999999
 20
90.956519999999983
 30
20.0
 70
   192
  0
VERTEX
  5
25D3
  8
LAYER1
 10
117.4783
 20
102.86959999999991
 30
0.0
 70
   192
  0
VERTEX
  5
25D4
  8
LAYER1
 10
117.4783
 20
93.130430000000004
 30
0.0
 70
   192
  0
VERTEX
  5
25D5
  8
LAYER1
 10
117.65219999999999
 20
102.95650000000001
 30
0.26316
 70
   192
  0
VERTEX
  5
25D6
  8
LAYER1
 10
117.65219999999999
 20
93.043480000000002
 30
0.26316
 70
   192
  0
VERTEX
  5
25D7
  8
LAYER1
 10
117.65219999999999
 20
102.95650000000001
 30
20.0
 70
   192
  0
VERTEX
  5
25D8
  8
LAYER1
 10
117.65219999999999
 20
93.043480000000002
 30
20.0
 70
   192
  0
VERTEX
  5
25D9
  8
LAYER1
 10
118.4347999999999
 20
100.5217
 30
0.0
 70
   192
  0
VERTEX
  5
25DA
  8
LAYER1
 10
118.4347999999999
 20
95.478260000000006
 30
0.0
 70
   192
  0
VERTEX
  5
25DB
  8
LAYER1
 10
118.65219999999989
 20
100.5651999999999
 30
0.26316
 70
   192
  0
VERTEX
  5
25DC
  8
LAYER1
 10
118.65219999999989
 20
95.434780000000003
 30
0.26316
 70
   192
  0
VERTEX
  5
25DD
  8
LAYER1
 10
118.65219999999989
 20
100.5651999999999
 30
20.0
 70
   192
  0
VERTEX
  5
25DE
  8
LAYER1
 10
118.65219999999989
 20
95.434780000000003
 30
20.0
 70
   192
  0
VERTEX
  5
25DF
  8
LAYER1
 10
118.7826
 20
98.0
 30
0.0
 70
   192
  0
VERTEX
  5
25E0
  8
LAYER1
 10
119.0
 20
98.0
 30
0.26316
 70
   192
  0
VERTEX
  5
25E1
  8
LAYER1
 10
119.0
 20
98.0
 30
20.0
 70
   192
  0
VERTEX
  5
25E2
  8
LAYER1
 10
0.0
 20
0.0
 30
0.0
 70
   128
 71
    38
 72
    44
 73
    46
 74
    40
  0
VERTEX
  5
25E3
  8
LAYER1
 10
0.0
 20
0.0
 30
0.0
 70
   128
 71
    44
 72
    50
 73
    52
 74
    46
  0
VERTEX
  5
25E4
  8
LAYER1
 10
0.0
 20
0.0
 30
0.0
 70
   128
 71
    50
 72
    56
 73
    58
 74
    52
  0
VERTEX
  5
25E5
  8
LAYER1
 10
0.0
 20
0.0
 30
0.0
 70
   128
 71
    56
 72
    62
 73
    64
 74
    58
  0
VERTEX
  5
25E6
  8
LAYER1
 10
0.0
 20
0.0
 30
0.0
 70
   128
 71
    62
 72
    68
 73
    70
 74
    64
  0
VERTEX
  5
25E7
  8
LAYER1
 10
0.0
 20
0.0
 30
0.0
 70
   128
 71
    68
 72
    72
 73
    73
 74
    70
  0
VERTEX
  5
25E8
  8
LAYER1
 10
0.0
 20
0.0
 30
0.0
 70
   128
 71
    36
 72
    42
 73
    44
 74
    38
  0
VERTEX
  5
25E9
  8
LAYER1
 10
0.0
 20
0.0
 30
0.0
 70
   128
 71
    42
 72
    48
 73
    50
 74
    44
  0
VERTEX
  5
25EA
  8
LAYER1
 10
0.0
 20
0.0
 30
0.0
 70
   128
 71
    48
 72
    54
 73
    56
 74
    50
  0
VERTEX
  5
25EB
  8
LAYER1
 10
0.0
 20
0.0
 30
0.0
 70
   128
 71
    54
 72
    60
 73
    62
 74
    56
  0
VERTEX
  5
25EC
  8
LAYER1
 10
0.0
 20
0.0
 30
0.0
 70
   128
 71
    60
 72
    66
 73
    68
 74
    62
  0
VERTEX
  5
25ED
  8
LAYER1
 10
0.0
 20
0.0
 30
0.0
 70
   128
 71
    66
 72
    71
 73
    72
 74
    68
  0
VERTEX
  5
25EE
  8
LAYER1
 10
0.0
 20
0.0
 30
0.0
 70
   128
 71
    35
 72
    42
 73
    36
  0
VERTEX
  5
25EF
  8
LAYER1
 10
0.0
 20
0.0
 30
0.0
 70
   128
 71
    35
 72
    48
 73
    42
  0
VERTEX
  5
25F0
  8
LAYER1
 10
0.0
 20
0.0
 30
0.0
 70
   128
 71
    35
 72
    54
 73
    48
  0
VERTEX
  5
25F1
  8
LAYER1
 10
0.0
 20
0.0
 30
0.0
 70
   128
 71
    35
 72
    60
 73
    54
  0
VERTEX
  5
25F2
  8
LAYER1
 10
0.0
 20
0.0
 30
0.0
 70
   128
 71
    35
 72
    66
 73
    60
  0
VERTEX
  5
25F3
  8
LAYER1
 10
0.0
 20
0.0
 30
0.0
 70
   128
 71
    35
 72
    71
 73
    66
  0
VERTEX
  5
25F4
  8
LAYER1
 10
0.0
 20
0.0
 30
0.0
 70
   128
 71
    40
 72
    31
 73
    29
 74
    38
  0
VERTEX
  5
25F5
  8
LAYER1
 10
0.0
 20
0.0
 30
0.0
 70
   128
 71
    31
 72
    25
 73
    23
 74
    29
  0
VERTEX
  5
25F6
  8
LAYER1
 10
0.0
 20
0.0
 30
0.0
 70
   128
 71
    25
 72
    19
 73
    17
 74
    23
  0
VERTEX
  5
25F7
  8
LAYER1
 10
0.0
 20
0.0
 30
0.0
 70
   128
 71
    19
 72
    13
 73
    11
 74
    17
  0
VERTEX
  5
25F8
  8
LAYER1
 10
0.0
 20
0.0
 30
0.0
 70
   128
 71
    13
 72
     7
 73
     5
 74
    11
  0
VERTEX
  5
25F9
  8
LAYER1
 10
0.0
 20
0.0
 30
0.0
 70
   128
 71
     7
 72
     2
 73
     1
 74
     5
  0
VERTEX
  5
25FA
  8
LAYER1
 10
0.0
 20
0.0
 30
0.0
 70
   128
 71
    38
 72
    29
 73
    33
 74
    36
  0
VERTEX
  5
25FB
  8
LAYER1
 10
0.0
 20
0.0
 30
0.0
 70
   128
 71
    29
 72
    23
 73
    27
 74
    33
  0
VERTEX
  5
25FC
  8
LAYER1
 10
0.0
 20
0.0
 30
0.0
 70
   128
 71
    23
 72
    17
 73
    21
 74
    27
  0
VERTEX
  5
25FD
  8
LAYER1
 10
0.0
 20
0.0
 30
0.0
 70
   128
 71
    17
 72
    11
 73
    15
 74
    21
  0
VERTEX
  5
25FE
  8
LAYER1
 10
0.0
 20
0.0
 30
0.0
 70
   128
 71
    11
 72
     5
 73
     9
 74
    15
  0
VERTEX
  5
25FF
  8
LAYER1
 10
0.0
 20
0.0
 30
0.0
 70
   128
 71
     5
 72
     1
 73
     3
 74
     9
  0
VERTEX
  5
2600
  8
LAYER1
 10
0.0
 20
0.0
 30
0.0
 70
   128
 71
    36
 72
    33
 73
    35
  0
VERTEX
  5
2601
  8
LAYER1
 10
0.0
 20
0.0
 30
0.0
 70
   128
 71
    33
 72
    27
 73
    35
  0
VERTEX
  5
2602
  8
LAYER1
 10
0.0
 20
0.0
 30
0.0
 70
   128
 71
    27
 72
    21
 73
    35
  0
VERTEX
  5
2603
  8
LAYER1
 10
0.0
 20
0.0
 30
0.0
 70
   128
 71
    21
 72
    15
 73
    35
  0
VERTEX
  5
2604
  8
LAYER1
 10
0.0
 20
0.0
 30
0.0
 70
   128
 71
    15
 72
     9
 73
    35
  0
VERTEX
  5
2605
  8
LAYER1
 10
0.0
 20
0.0
 30
0.0
 70
   128
 71
     9
 72
     3
 73
    35
  0
VERTEX
  5
2606
  8
LAYER1
 10
0.0
 20
0.0
 30
0.0
 70
   128
 71
    37
 72
    28
 73
    30
 74
    39
  0
VERTEX
  5
2607
  8
LAYER1
 10
0.0
 20
0.0
 30
0.0
 70
   128
 71
    28
 72
    22
 73
    24
 74
    30
  0
VERTEX
  5
2608
  8
LAYER1
 10
0.0
 20
0.0
 30
0.0
 70
   128
 71
    22
 72
    16
 73
    18
 74
    24
  0
VERTEX
  5
2609
  8
LAYER1
 10
0.0
 20
0.0
 30
0.0
 70
   128
 71
    16
 72
    10
 73
    12
 74
    18
  0
VERTEX
  5
260A
  8
LAYER1
 10
0.0
 20
0.0
 30
0.0
 70
   128
 71
    10
 72
     4
 73
     6
 74
    12
  0
VERTEX
  5
260B
  8
LAYER1
 10
0.0
 20
0.0
 30
0.0
 70
   128
 71
     4
 72
     1
 73
     2
 74
     6
  0
VERTEX
  5
260C
  8
LAYER1
 10
0.0
 20
0.0
 30
0.0
 70
   128
 71
    34
 72
    32
 73
    28
 74
    37
  0
VERTEX
  5
260D
  8
LAYER1
 10
0.0
 20
0.0
 30
0.0
 70
   128
 71
    32
 72
    26
 73
    22
 74
    28
  0
VERTEX
  5
260E
  8
LAYER1
 10
0.0
 20
0.0
 30
0.0
 70
   128
 71
    26
 72
    20
 73
    16
 74
    22
  0
VERTEX
  5
260F
  8
LAYER1
 10
0.0
 20
0.0
 30
0.0
 70
   128
 71
    20
 72
    14
 73
    10
 74
    16
  0
VERTEX
  5
2610
  8
LAYER1
 10
0.0
 20
0.0
 30
0.0
 70
   128
 71
    14
 72
     8
 73
     4
 74
    10
  0
VERTEX
  5
2611
  8
LAYER1
 10
0.0
 20
0.0
 30
0.0
 70
   128
 71
     8
 72
     3
 73
     1
 74
     4
  0
VERTEX
  5
2612
  8
LAYER1
 10
0.0
 20
0.0
 30
0.0
 70
   128
 71
    35
 72
    32
 73
    34
  0
VERTEX
  5
2613
  8
LAYER1
 10
0.0
 20
0.0
 30
0.0
 70
   128
 71
    35
 72
    26
 73
    32
  0
VERTEX
  5
2614
  8
LAYER1
 10
0.0
 20
0.0
 30
0.0
 70
   128
 71
    35
 72
    20
 73
    26
  0
VERTEX
  5
2615
  8
LAYER1
 10
0.0
 20
0.0
 30
0.0
 70
   128
 71
    35
 72
    14
 73
    20
  0
VERTEX
  5
2616
  8
LAYER1
 10
0.0
 20
0.0
 30
0.0
 70
   128
 71
    35
 72
     8
 73
    14
  0
VERTEX
  5
2617
  8
LAYER1
 10
0.0
 20
0.0
 30
0.0
 70
   128
 71
    35
 72
     3
 73
     8
  0
VERTEX
  5
2618
  8
LAYER1
 10
0.0
 20
0.0
 30
0.0
 70
   128
 71
    39
 72
    45
 73
    43
 74
    37
  0
VERTEX
  5
2619
  8
LAYER1
 10
0.0
 20
0.0
 30
0.0
 70
   128
 71
    45
 72
    51
 73
    49
 74
    43
  0
VERTEX
  5
261A
  8
LAYER1
 10
0.0
 20
0.0
 30
0.0
 70
   128
 71
    51
 72
    57
 73
    55
 74
    49
  0
VERTEX
  5
261B
  8
LAYER1
 10
0.0
 20
0.0
 30
0.0
 70
   128
 71
    57
 72
    63
 73
    61
 74
    55
  0
VERTEX
  5
261C
  8
LAYER1
 10
0.0
 20
0.0
 30
0.0
 70
   128
 71
    63
 72
    69
 73
    67
 74
    61
  0
VERTEX
  5
261D
  8
LAYER1
 10
0.0
 20
0.0
 30
0.0
 70
   128
 71
    69
 72
    73
 73
    72
 74
    67
  0
VERTEX
  5
261E
  8
LAYER1
 10
0.0
 20
0.0
 30
0.0
 70
   128
 71
    37
 72
    43
 73
    41
 74
    34
  0
VERTEX
  5
261F
  8
LAYER1
 10
0.0
 20
0.0
 30
0.0
 70
   128
 71
    43
 72
    49
 73
    47
 74
    41
  0
VERTEX
  5
2620
  8
LAYER1
 10
0.0
 20
0.0
 30
0.0
 70
   128
 71
    49
 72
    55
 73
    53
 74
    47
  0
VERTEX
  5
2621
  8
LAYER1
 10
0.0
 20
0.0
 30
0.0
 70
   128
 71
    55
 72
    61
 73
    59
 74
    53
  0
VERTEX
  5
2622
  8
LAYER1
 10
0.0
 20
0.0
 30
0.0
 70
   128
 71
    61
 72
    67
 73
    65
 74
    59
  0
VERTEX
  5
2623
  8
LAYER1
 10
0.0
 20
0.0
 30
0.0
 70
   128
 71
    67
 72
    72
 73
    71
 74
    65
  0
VERTEX
  5
2624
  8
LAYER1
 10
0.0
 20
0.0
 30
0.0
 70
   128
 71
    34
 72
    41
 73
    35
  0
VERTEX
  5
2625
  8
LAYER1
 10
0.0
 20
0.0
 30
0.0
 70
   128
 71
    41
 72
    47
 73
    35
  0
VERTEX
  5
2626
  8
LAYER1
 10
0.0
 20
0.0
 30
0.0
 70
   128
 71
    47
 72
    53
 73
    35
  0
VERTEX
  5
2627
  8
LAYER1
 10
0.0
 20
0.0
 30
0.0
 70
   128
 71
    53
 72
    59
 73
    35
  0
VERTEX
  5
2628
  8
LAYER1
 10
0.0
 20
0.0
 30
0.0
 70
   128
 71
    59
 72
    65
 73
    35
  0
VERTEX
  5
2629
  8
LAYER1
 10
0.0
 20
0.0
 30
0.0
 70
   128
 71
    65
 72
    71
 73
    35
  0
SEQEND
  5
262A
  8
LAYER1
  0
POLYLINE
  5
262B
  8
LAYER1
 62
   252
 66
     1
 10
0.0
 20
0.0
 30
0.0
 70
    64
 71
   106
 72
    96
  0
VERTEX
  5
262C
  8
LAYER1
 10
218.0
 20
155.0
 30
34.000100000000003
 70
   192
  0
VERTEX
  5
262D
  8
LAYER1
 10
218.0
 20
155.0
 30
33.99989999999999
 70
   192
  0
VERTEX
  5
262E
  8
LAYER1
 10
218.0
 20
129.0
 30
34.000100000000003
 70
   192
  0
VERTEX
  5
262F
  8
LAYER1
 10
218.0
 20
129.0
 30
33.99989999999999
 70
   192
  0
VERTEX
  5
2630
  8
LAYER1
 10
217.33333300000001
 20
127.5
 30
34.000100000000003
 70
   192
  0
VERTEX
  5
2631
  8
LAYER1
 10
217.33333300000001
 20
127.5
 30
33.99989999999999
 70
   192
  0
VERTEX
  5
2632
  8
LAYER1
 10
216.80000000000001
 20
155.0
 30
42.799999999999997
 70
   192
  0
VERTEX
  5
2633
  8
LAYER1
 10
216.80000000000001
 20
155.0
 30
25.199999999999999
 70
   192
  0
VERTEX
  5
2634
  8
LAYER1
 10
216.80000000000001
 20
129.0
 30
42.799999999999997
 70
   192
  0
VERTEX
  5
2635
  8
LAYER1
 10
216.80000000000001
 20
129.0
 30
25.199999999999999
 70
   192
  0
VERTEX
  5
2636
  8
LAYER1
 10
216.13332999999989
 20
127.5
 30
42.533299999999997
 70
   192
  0
VERTEX
  5
2637
  8
LAYER1
 10
216.13332999999989
 20
127.5
 30
25.466699999999999
 70
   192
  0
VERTEX
  5
2638
  8
LAYER1
 10
215.3333299999999
 20
127.0
 30
34.000100000000003
 70
   192
  0
VERTEX
  5
2639
  8
LAYER1
 10
215.3333299999999
 20
127.0
 30
33.99989999999999
 70
   192
  0
VERTEX
  5
263A
  8
LAYER1
 10
214.13332999999989
 20
127.0
 30
42.0
 70
   192
  0
VERTEX
  5
263B
  8
LAYER1
 10
214.13332999999989
 20
127.0
 30
26.0
 70
   192
  0
VERTEX
  5
263C
  8
LAYER1
 10
213.46666999999991
 20
155.0
 30
50.933300000000003
 70
   192
  0
VERTEX
  5
263D
  8
LAYER1
 10
213.46666999999991
 20
155.0
 30
17.066700000000001
 70
   192
  0
VERTEX
  5
263E
  8
LAYER1
 10
213.46666999999991
 20
129.0
 30
50.933300000000003
 70
   192
  0
VERTEX
  5
263F
  8
LAYER1
 10
213.46666999999991
 20
129.0
 30
17.066700000000001
 70
   192
  0
VERTEX
  5
2640
  8
LAYER1
 10
212.80000000000001
 20
127.5
 30
50.53329999999999
 70
   192
  0
VERTEX
  5
2641
  8
LAYER1
 10
212.80000000000001
 20
127.5
 30
17.466699999999999
 70
   192
  0
VERTEX
  5
2642
  8
LAYER1
 10
211.19999999999999
 20
127.0
 30
49.600000000000001
 70
   192
  0
VERTEX
  5
2643
  8
LAYER1
 10
211.19999999999999
 20
127.0
 30
18.399999999999999
 70
   192
  0
VERTEX
  5
2644
  8
LAYER1
 10
208.0
 20
155.0
 30
58.0
 70
   192
  0
VERTEX
  5
2645
  8
LAYER1
 10
208.0
 20
155.0
 30
10.0
 70
   192
  0
VERTEX
  5
2646
  8
LAYER1
 10
208.0
 20
129.0
 30
58.0
 70
   192
  0
VERTEX
  5
2647
  8
LAYER1
 10
208.0
 20
129.0
 30
10.0
 70
   192
  0
VERTEX
  5
2648
  8
LAYER1
 10
207.59999999999999
 20
127.5
 30
57.600000000000001
 70
   192
  0
VERTEX
  5
2649
  8
LAYER1
 10
207.59999999999999
 20
127.5
 30
10.4
 70
   192
  0
VERTEX
  5
264A
  8
LAYER1
 10
206.13329999999991
 20
127.0
 30
56.133299999999998
 70
   192
  0
VERTEX
  5
264B
  8
LAYER1
 10
206.13329999999991
 20
127.0
 30
11.8667
 70
   192
  0
VERTEX
  5
264C
  8
LAYER1
 10
200.9333
 20
155.0
 30
63.466700000000003
 70
   192
  0
VERTEX
  5
264D
  8
LAYER1
 10
200.9333
 20
155.0
 30
4.5333399999999999
 70
   192
  0
VERTEX
  5
264E
  8
LAYER1
 10
200.9333
 20
129.0
 30
63.466700000000003
 70
   192
  0
VERTEX
  5
264F
  8
LAYER1
 10
200.9333
 20
129.0
 30
4.5333400000000008
 70
   192
  0
VERTEX
  5
2650
  8
LAYER1
 10
200.53329999999991
 20
127.5
 30
62.799999999999997
 70
   192
  0
VERTEX
  5
2651
  8
LAYER1
 10
200.53329999999991
 20
127.5
 30
5.2000100000000007
 70
   192
  0
VERTEX
  5
2652
  8
LAYER1
 10
199.59999999999999
 20
127.0
 30
61.200000000000003
 70
   192
  0
VERTEX
  5
2653
  8
LAYER1
 10
199.59999999999999
 20
127.0
 30
6.8000100000000021
 70
   192
  0
VERTEX
  5
2654
  8
LAYER1
 10
192.80000000000001
 20
155.0
 30
66.799999999999983
 70
   192
  0
VERTEX
  5
2655
  8
LAYER1
 10
192.80000000000001
 20
155.0
 30
1.2
 70
   192
  0
VERTEX
  5
2656
  8
LAYER1
 10
192.80000000000001
 20
129.0
 30
66.799999999999983
 70
   192
  0
VERTEX
  5
2657
  8
LAYER1
 10
192.80000000000001
 20
129.0
 30
1.2000000000000011
 70
   192
  0
VERTEX
  5
2658
  8
LAYER1
 10
192.5333
 20
127.5
 30
66.133300000000006
 70
   192
  0
VERTEX
  5
2659
  8
LAYER1
 10
192.5333
 20
127.5
 30
1.866670000000002
 70
   192
  0
VERTEX
  5
265A
  8
LAYER1
 10
192.0
 20
127.0
 30
64.133300000000006
 70
   192
  0
VERTEX
  5
265B
  8
LAYER1
 10
192.0
 20
127.0
 30
3.8666700000000009
 70
   192
  0
VERTEX
  5
265C
  8
LAYER1
 10
184.0
 20
155.0
 30
68.0
 70
   192
  0
VERTEX
  5
265D
  8
LAYER1
 10
184.0
 20
155.0
 30
0.0000000000000005
 70
   192
  0
VERTEX
  5
265E
  8
LAYER1
 10
184.0
 20
129.0
 30
68.0
 70
   192
  0
VERTEX
  5
265F
  8
LAYER1
 10
184.0
 20
129.0
 30
0.0000000000000021
 70
   192
  0
VERTEX
  5
2660
  8
LAYER1
 10
184.0
 20
127.5
 30
67.333299999999994
 70
   192
  0
VERTEX
  5
2661
  8
LAYER1
 10
184.0
 20
127.5
 30
0.6666680000000023
 70
   192
  0
VERTEX
  5
2662
  8
LAYER1
 10
184.0
 20
127.0
 30
65.333299999999994
 70
   192
  0
VERTEX
  5
2663
  8
LAYER1
 10
184.0
 20
127.0
 30
34.000100000000003
 70
   192
  0
VERTEX
  5
2664
  8
LAYER1
 10
184.0
 20
127.0
 30
33.99989999999999
 70
   192
  0
VERTEX
  5
2665
  8
LAYER1
 10
184.0
 20
127.0
 30
2.6666700000000021
 70
   192
  0
VERTEX
  5
2666
  8
LAYER1
 10
176.0
 20
127.0
 30
64.133300000000006
 70
   192
  0
VERTEX
  5
2667
  8
LAYER1
 10
176.0
 20
127.0
 30
3.8666700000000009
 70
   192
  0
VERTEX
  5
2668
  8
LAYER1
 10
175.46669999999989
 20
127.5
 30
66.133300000000006
 70
   192
  0
VERTEX
  5
2669
  8
LAYER1
 10
175.46669999999989
 20
127.5
 30
1.866670000000002
 70
   192
  0
VERTEX
  5
266A
  8
LAYER1
 10
175.1999999999999
 20
155.0
 30
66.799999999999983
 70
   192
  0
VERTEX
  5
266B
  8
LAYER1
 10
175.1999999999999
 20
155.0
 30
1.2
 70
   192
  0
VERTEX
  5
266C
  8
LAYER1
 10
175.1999999999999
 20
129.0
 30
66.799999999999983
 70
   192
  0
VERTEX
  5
266D
  8
LAYER1
 10
175.1999999999999
 20
129.0
 30
1.2000000000000011
 70
   192
  0
VERTEX
  5
266E
  8
LAYER1
 10
168.40000000000001
 20
127.0
 30
61.200000000000003
 70
   192
  0
VERTEX
  5
266F
  8
LAYER1
 10
168.40000000000001
 20
127.0
 30
6.8000100000000021
 70
   192
  0
VERTEX
  5
2670
  8
LAYER1
 10
167.4667
 20
127.5
 30
62.799999999999997
 70
   192
  0
VERTEX
  5
2671
  8
LAYER1
 10
167.4667
 20
127.5
 30
5.2000100000000007
 70
   192
  0
VERTEX
  5
2672
  8
LAYER1
 10
167.06669999999991
 20
155.0
 30
63.466700000000003
 70
   192
  0
VERTEX
  5
2673
  8
LAYER1
 10
167.06669999999991
 20
155.0
 30
4.5333399999999999
 70
   192
  0
VERTEX
  5
2674
  8
LAYER1
 10
167.06669999999991
 20
129.0
 30
63.466700000000003
 70
   192
  0
VERTEX
  5
2675
  8
LAYER1
 10
167.06669999999991
 20
129.0
 30
4.5333400000000008
 70
   192
  0
VERTEX
  5
2676
  8
LAYER1
 10
161.86670000000001
 20
127.0
 30
56.133299999999998
 70
   192
  0
VERTEX
  5
2677
  8
LAYER1
 10
161.86670000000001
 20
127.0
 30
11.8667
 70
   192
  0
VERTEX
  5
2678
  8
LAYER1
 10
160.40000000000001
 20
127.5
 30
57.600000000000001
 70
   192
  0
VERTEX
  5
2679
  8
LAYER1
 10
160.40000000000001
 20
127.5
 30
10.4
 70
   192
  0
VERTEX
  5
267A
  8
LAYER1
 10
160.0
 20
155.0
 30
58.0
 70
   192
  0
VERTEX
  5
267B
  8
LAYER1
 10
160.0
 20
155.0
 30
10.0
 70
   192
  0
VERTEX
  5
267C
  8
LAYER1
 10
160.0
 20
129.0
 30
58.0
 70
   192
  0
VERTEX
  5
267D
  8
LAYER1
 10
160.0
 20
129.0
 30
10.0
 70
   192
  0
VERTEX
  5
267E
  8
LAYER1
 10
156.80000000000001
 20
127.0
 30
49.600000000000001
 70
   192
  0
VERTEX
  5
267F
  8
LAYER1
 10
156.80000000000001
 20
127.0
 30
18.399999999999999
 70
   192
  0
VERTEX
  5
2680
  8
LAYER1
 10
155.1999999999999
 20
127.5
 30
50.53329999999999
 70
   192
  0
VERTEX
  5
2681
  8
LAYER1
 10
155.1999999999999
 20
127.5
 30
17.466699999999999
 70
   192
  0
VERTEX
  5
2682
  8
LAYER1
 10
154.5333
 20
155.0
 30
50.933300000000003
 70
   192
  0
VERTEX
  5
2683
  8
LAYER1
 10
154.5333
 20
155.0
 30
17.066700000000001
 70
   192
  0
VERTEX
  5
2684
  8
LAYER1
 10
154.5333
 20
129.0
 30
50.933300000000003
 70
   192
  0
VERTEX
  5
2685
  8
LAYER1
 10
154.5333
 20
129.0
 30
17.066700000000001
 70
   192
  0
VERTEX
  5
2686
  8
LAYER1
 10
153.86669999999989
 20
127.0
 30
42.0
 70
   192
  0
VERTEX
  5
2687
  8
LAYER1
 10
153.86669999999989
 20
127.0
 30
26.0
 70
   192
  0
VERTEX
  5
2688
  8
LAYER1
 10
152.66669999999991
 20
127.0
 30
34.000100000000003
 70
   192
  0
VERTEX
  5
2689
  8
LAYER1
 10
152.66669999999991
 20
127.0
 30
33.99989999999999
 70
   192
  0
VERTEX
  5
268A
  8
LAYER1
 10
151.86669999999989
 20
127.5
 30
42.533299999999997
 70
   192
  0
VERTEX
  5
268B
  8
LAYER1
 10
151.86669999999989
 20
127.5
 30
25.466699999999999
 70
   192
  0
VERTEX
  5
268C
  8
LAYER1
 10
151.19999999999999
 20
155.0
 30
42.799999999999997
 70
   192
  0
VERTEX
  5
268D
  8
LAYER1
 10
151.19999999999999
 20
155.0
 30
25.199999999999999
 70
   192
  0
VERTEX
  5
268E
  8
LAYER1
 10
151.19999999999999
 20
129.0
 30
42.799999999999997
 70
   192
  0
VERTEX
  5
268F
  8
LAYER1
 10
151.19999999999999
 20
129.0
 30
25.199999999999999
 70
   192
  0
VERTEX
  5
2690
  8
LAYER1
 10
150.66669999999999
 20
127.5
 30
34.000100000000003
 70
   192
  0
VERTEX
  5
2691
  8
LAYER1
 10
150.66669999999999
 20
127.5
 30
33.99989999999999
 70
   192
  0
VERTEX
  5
2692
  8
LAYER1
 10
150.0
 20
155.0
 30
34.000100000000003
 70
   192
  0
VERTEX
  5
2693
  8
LAYER1
 10
150.0
 20
155.0
 30
33.99989999999999
 70
   192
  0
VERTEX
  5
2694
  8
LAYER1
 10
150.0
 20
129.0
 30
34.000100000000003
 70
   192
  0
VERTEX
  5
2695
  8
LAYER1
 10
150.0
 20
129.0
 30
33.99989999999999
 70
   192
  0
VERTEX
  5
2696
  8
LAYER1
 10
0.0
 20
0.0
 30
0.0
 70
   128
 71
    56
 72
    56
 73
    48
 74
    58
  0
VERTEX
  5
2697
  8
LAYER1
 10
0.0
 20
0.0
 30
0.0
 70
   128
 71
    48
 72
    40
 73
    56
 74
    56
  0
VERTEX
  5
2698
  8
LAYER1
 10
0.0
 20
0.0
 30
0.0
 70
   128
 71
    40
 72
    32
 73
    56
 74
    56
  0
VERTEX
  5
2699
  8
LAYER1
 10
0.0
 20
0.0
 30
0.0
 70
   128
 71
    32
 72
    24
 73
    56
 74
    56
  0
VERTEX
  5
269A
  8
LAYER1
 10
0.0
 20
0.0
 30
0.0
 70
   128
 71
    24
 72
    16
 73
    56
 74
    56
  0
VERTEX
  5
269B
  8
LAYER1
 10
0.0
 20
0.0
 30
0.0
 70
   128
 71
    16
 72
    13
 73
    56
 74
    56
  0
VERTEX
  5
269C
  8
LAYER1
 10
0.0
 20
0.0
 30
0.0
 70
   128
 71
    58
 72
    48
 73
    46
 74
    54
  0
VERTEX
  5
269D
  8
LAYER1
 10
0.0
 20
0.0
 30
0.0
 70
   128
 71
    46
 72
    38
 73
    40
 74
    48
  0
VERTEX
  5
269E
  8
LAYER1
 10
0.0
 20
0.0
 30
0.0
 70
   128
 71
    38
 72
    30
 73
    32
 74
    40
  0
VERTEX
  5
269F
  8
LAYER1
 10
0.0
 20
0.0
 30
0.0
 70
   128
 71
    30
 72
    22
 73
    24
 74
    32
  0
VERTEX
  5
26A0
  8
LAYER1
 10
0.0
 20
0.0
 30
0.0
 70
   128
 71
    22
 72
    12
 73
    16
 74
    24
  0
VERTEX
  5
26A1
  8
LAYER1
 10
0.0
 20
0.0
 30
0.0
 70
   128
 71
    12
 72
     5
 73
    13
 74
    16
  0
VERTEX
  5
26A2
  8
LAYER1
 10
0.0
 20
0.0
 30
0.0
 70
   128
 71
    54
 72
    46
 73
    44
 74
    52
  0
VERTEX
  5
26A3
  8
LAYER1
 10
0.0
 20
0.0
 30
0.0
 70
   128
 71
    44
 72
    36
 73
    38
 74
    46
  0
VERTEX
  5
26A4
  8
LAYER1
 10
0.0
 20
0.0
 30
0.0
 70
   128
 71
    36
 72
    28
 73
    30
 74
    38
  0
VERTEX
  5
26A5
  8
LAYER1
 10
0.0
 20
0.0
 30
0.0
 70
   128
 71
    28
 72
    20
 73
    22
 74
    30
  0
VERTEX
  5
26A6
  8
LAYER1
 10
0.0
 20
0.0
 30
0.0
 70
   128
 71
    20
 72
    10
 73
    12
 74
    22
  0
VERTEX
  5
26A7
  8
LAYER1
 10
0.0
 20
0.0
 30
0.0
 70
   128
 71
    10
 72
     3
 73
     5
 74
    12
  0
VERTEX
  5
26A8
  8
LAYER1
 10
0.0
 20
0.0
 30
0.0
 70
   128
 71
    50
 72
    52
 73
    44
 74
    42
  0
VERTEX
  5
26A9
  8
LAYER1
 10
0.0
 20
0.0
 30
0.0
 70
   128
 71
    34
 72
    36
 73
    44
 74
    42
  0
VERTEX
  5
26AA
  8
LAYER1
 10
0.0
 20
0.0
 30
0.0
 70
   128
 71
    26
 72
    28
 73
    36
 74
    34
  0
VERTEX
  5
26AB
  8
LAYER1
 10
0.0
 20
0.0
 30
0.0
 70
   128
 71
    18
 72
    20
 73
    28
 74
    26
  0
VERTEX
  5
26AC
  8
LAYER1
 10
0.0
 20
0.0
 30
0.0
 70
   128
 71
     8
 72
    10
 73
    20
 74
    18
  0
VERTEX
  5
26AD
  8
LAYER1
 10
0.0
 20
0.0
 30
0.0
 70
   128
 71
     1
 72
     3
 73
    10
 74
     8
  0
VERTEX
  5
26AE
  8
LAYER1
 10
0.0
 20
0.0
 30
0.0
 70
   128
 71
    58
 72
    60
 73
    56
 74
    56
  0
VERTEX
  5
26AF
  8
LAYER1
 10
0.0
 20
0.0
 30
0.0
 70
   128
 71
    60
 72
    68
 73
    56
 74
    56
  0
VERTEX
  5
26B0
  8
LAYER1
 10
0.0
 20
0.0
 30
0.0
 70
   128
 71
    68
 72
    76
 73
    56
 74
    56
  0
VERTEX
  5
26B1
  8
LAYER1
 10
0.0
 20
0.0
 30
0.0
 70
   128
 71
    76
 72
    84
 73
    56
 74
    56
  0
VERTEX
  5
26B2
  8
LAYER1
 10
0.0
 20
0.0
 30
0.0
 70
   128
 71
    84
 72
    92
 73
    56
 74
    56
  0
VERTEX
  5
26B3
  8
LAYER1
 10
0.0
 20
0.0
 30
0.0
 70
   128
 71
    92
 72
    93
 73
    56
 74
    56
  0
VERTEX
  5
26B4
  8
LAYER1
 10
0.0
 20
0.0
 30
0.0
 70
   128
 71
    54
 72
    62
 73
    60
 74
    58
  0
VERTEX
  5
26B5
  8
LAYER1
 10
0.0
 20
0.0
 30
0.0
 70
   128
 71
    62
 72
    70
 73
    68
 74
    60
  0
VERTEX
  5
26B6
  8
LAYER1
 10
0.0
 20
0.0
 30
0.0
 70
   128
 71
    70
 72
    78
 73
    76
 74
    68
  0
VERTEX
  5
26B7
  8
LAYER1
 10
0.0
 20
0.0
 30
0.0
 70
   128
 71
    78
 72
    86
 73
    84
 74
    76
  0
VERTEX
  5
26B8
  8
LAYER1
 10
0.0
 20
0.0
 30
0.0
 70
   128
 71
    86
 72
    96
 73
    92
 74
    84
  0
VERTEX
  5
26B9
  8
LAYER1
 10
0.0
 20
0.0
 30
0.0
 70
   128
 71
    96
 72
   101
 73
    93
 74
    92
  0
VERTEX
  5
26BA
  8
LAYER1
 10
0.0
 20
0.0
 30
0.0
 70
   128
 71
    52
 72
    66
 73
    62
 74
    54
  0
VERTEX
  5
26BB
  8
LAYER1
 10
0.0
 20
0.0
 30
0.0
 70
   128
 71
    66
 72
    74
 73
    70
 74
    62
  0
VERTEX
  5
26BC
  8
LAYER1
 10
0.0
 20
0.0
 30
0.0
 70
   128
 71
    74
 72
    82
 73
    78
 74
    70
  0
VERTEX
  5
26BD
  8
LAYER1
 10
0.0
 20
0.0
 30
0.0
 70
   128
 71
    82
 72
    90
 73
    86
 74
    78
  0
VERTEX
  5
26BE
  8
LAYER1
 10
0.0
 20
0.0
 30
0.0
 70
   128
 71
    90
 72
   100
 73
    96
 74
    86
  0
VERTEX
  5
26BF
  8
LAYER1
 10
0.0
 20
0.0
 30
0.0
 70
   128
 71
   100
 72
   105
 73
   101
 74
    96
  0
VERTEX
  5
26C0
  8
LAYER1
 10
0.0
 20
0.0
 30
0.0
 70
   128
 71
    64
 72
    66
 73
    52
 74
    50
  0
VERTEX
  5
26C1
  8
LAYER1
 10
0.0
 20
0.0
 30
0.0
 70
   128
 71
    72
 72
    74
 73
    66
 74
    64
  0
VERTEX
  5
26C2
  8
LAYER1
 10
0.0
 20
0.0
 30
0.0
 70
   128
 71
    80
 72
    82
 73
    74
 74
    72
  0
VERTEX
  5
26C3
  8
LAYER1
 10
0.0
 20
0.0
 30
0.0
 70
   128
 71
    88
 72
    90
 73
    82
 74
    80
  0
VERTEX
  5
26C4
  8
LAYER1
 10
0.0
 20
0.0
 30
0.0
 70
   128
 71
    98
 72
   100
 73
    90
 74
    88
  0
VERTEX
  5
26C5
  8
LAYER1
 10
0.0
 20
0.0
 30
0.0
 70
   128
 71
   103
 72
   105
 73
   100
 74
    98
  0
VERTEX
  5
26C6
  8
LAYER1
 10
0.0
 20
0.0
 30
0.0
 70
   128
 71
    57
 72
    57
 73
    59
 74
    55
  0
VERTEX
  5
26C7
  8
LAYER1
 10
0.0
 20
0.0
 30
0.0
 70
   128
 71
    59
 72
    67
 73
    57
 74
    57
  0
VERTEX
  5
26C8
  8
LAYER1
 10
0.0
 20
0.0
 30
0.0
 70
   128
 71
    67
 72
    75
 73
    57
 74
    57
  0
VERTEX
  5
26C9
  8
LAYER1
 10
0.0
 20
0.0
 30
0.0
 70
   128
 71
    75
 72
    83
 73
    57
 74
    57
  0
VERTEX
  5
26CA
  8
LAYER1
 10
0.0
 20
0.0
 30
0.0
 70
   128
 71
    83
 72
    91
 73
    57
 74
    57
  0
VERTEX
  5
26CB
  8
LAYER1
 10
0.0
 20
0.0
 30
0.0
 70
   128
 71
    91
 72
    94
 73
    57
 74
    57
  0
VERTEX
  5
26CC
  8
LAYER1
 10
0.0
 20
0.0
 30
0.0
 70
   128
 71
    55
 72
    59
 73
    61
 74
    53
  0
VERTEX
  5
26CD
  8
LAYER1
 10
0.0
 20
0.0
 30
0.0
 70
   128
 71
    61
 72
    69
 73
    67
 74
    59
  0
VERTEX
  5
26CE
  8
LAYER1
 10
0.0
 20
0.0
 30
0.0
 70
   128
 71
    69
 72
    77
 73
    75
 74
    67
  0
VERTEX
  5
26CF
  8
LAYER1
 10
0.0
 20
0.0
 30
0.0
 70
   128
 71
    77
 72
    85
 73
    83
 74
    75
  0
VERTEX
  5
26D0
  8
LAYER1
 10
0.0
 20
0.0
 30
0.0
 70
   128
 71
    85
 72
    95
 73
    91
 74
    83
  0
VERTEX
  5
26D1
  8
LAYER1
 10
0.0
 20
0.0
 30
0.0
 70
   128
 71
    95
 72
   102
 73
    94
 74
    91
  0
VERTEX
  5
26D2
  8
LAYER1
 10
0.0
 20
0.0
 30
0.0
 70
   128
 71
    53
 72
    61
 73
    65
 74
    51
  0
VERTEX
  5
26D3
  8
LAYER1
 10
0.0
 20
0.0
 30
0.0
 70
   128
 71
    65
 72
    73
 73
    69
 74
    61
  0
VERTEX
  5
26D4
  8
LAYER1
 10
0.0
 20
0.0
 30
0.0
 70
   128
 71
    73
 72
    81
 73
    77
 74
    69
  0
VERTEX
  5
26D5
  8
LAYER1
 10
0.0
 20
0.0
 30
0.0
 70
   128
 71
    81
 72
    89
 73
    85
 74
    77
  0
VERTEX
  5
26D6
  8
LAYER1
 10
0.0
 20
0.0
 30
0.0
 70
   128
 71
    89
 72
    99
 73
    95
 74
    85
  0
VERTEX
  5
26D7
  8
LAYER1
 10
0.0
 20
0.0
 30
0.0
 70
   128
 71
    99
 72
   106
 73
   102
 74
    95
  0
VERTEX
  5
26D8
  8
LAYER1
 10
0.0
 20
0.0
 30
0.0
 70
   128
 71
    49
 72
    51
 73
    65
 74
    63
  0
VERTEX
  5
26D9
  8
LAYER1
 10
0.0
 20
0.0
 30
0.0
 70
   128
 71
    71
 72
    73
 73
    65
 74
    63
  0
VERTEX
  5
26DA
  8
LAYER1
 10
0.0
 20
0.0
 30
0.0
 70
   128
 71
    79
 72
    81
 73
    73
 74
    71
  0
VERTEX
  5
26DB
  8
LAYER1
 10
0.0
 20
0.0
 30
0.0
 70
   128
 71
    87
 72
    89
 73
    81
 74
    79
  0
VERTEX
  5
26DC
  8
LAYER1
 10
0.0
 20
0.0
 30
0.0
 70
   128
 71
    97
 72
    99
 73
    89
 74
    87
  0
VERTEX
  5
26DD
  8
LAYER1
 10
0.0
 20
0.0
 30
0.0
 70
   128
 71
   104
 72
   106
 73
    99
 74
    97
  0
VERTEX
  5
26DE
  8
LAYER1
 10
0.0
 20
0.0
 30
0.0
 70
   128
 71
    55
 72
    47
 73
    57
 74
    57
  0
VERTEX
  5
26DF
  8
LAYER1
 10
0.0
 20
0.0
 30
0.0
 70
   128
 71
    47
 72
    39
 73
    57
 74
    57
  0
VERTEX
  5
26E0
  8
LAYER1
 10
0.0
 20
0.0
 30
0.0
 70
   128
 71
    39
 72
    31
 73
    57
 74
    57
  0
VERTEX
  5
26E1
  8
LAYER1
 10
0.0
 20
0.0
 30
0.0
 70
   128
 71
    31
 72
    23
 73
    57
 74
    57
  0
VERTEX
  5
26E2
  8
LAYER1
 10
0.0
 20
0.0
 30
0.0
 70
   128
 71
    23
 72
    15
 73
    57
 74
    57
  0
VERTEX
  5
26E3
  8
LAYER1
 10
0.0
 20
0.0
 30
0.0
 70
   128
 71
    15
 72
    14
 73
    57
 74
    57
  0
VERTEX
  5
26E4
  8
LAYER1
 10
0.0
 20
0.0
 30
0.0
 70
   128
 71
    53
 72
    45
 73
    47
 74
    55
  0
VERTEX
  5
26E5
  8
LAYER1
 10
0.0
 20
0.0
 30
0.0
 70
   128
 71
    45
 72
    37
 73
    39
 74
    47
  0
VERTEX
  5
26E6
  8
LAYER1
 10
0.0
 20
0.0
 30
0.0
 70
   128
 71
    37
 72
    29
 73
    31
 74
    39
  0
VERTEX
  5
26E7
  8
LAYER1
 10
0.0
 20
0.0
 30
0.0
 70
   128
 71
    29
 72
    21
 73
    23
 74
    31
  0
VERTEX
  5
26E8
  8
LAYER1
 10
0.0
 20
0.0
 30
0.0
 70
   128
 71
    21
 72
    11
 73
    15
 74
    23
  0
VERTEX
  5
26E9
  8
LAYER1
 10
0.0
 20
0.0
 30
0.0
 70
   128
 71
    11
 72
     6
 73
    14
 74
    15
  0
VERTEX
  5
26EA
  8
LAYER1
 10
0.0
 20
0.0
 30
0.0
 70
   128
 71
    51
 72
    43
 73
    45
 74
    53
  0
VERTEX
  5
26EB
  8
LAYER1
 10
0.0
 20
0.0
 30
0.0
 70
   128
 71
    43
 72
    35
 73
    37
 74
    45
  0
VERTEX
  5
26EC
  8
LAYER1
 10
0.0
 20
0.0
 30
0.0
 70
   128
 71
    35
 72
    27
 73
    29
 74
    37
  0
VERTEX
  5
26ED
  8
LAYER1
 10
0.0
 20
0.0
 30
0.0
 70
   128
 71
    27
 72
    19
 73
    21
 74
    29
  0
VERTEX
  5
26EE
  8
LAYER1
 10
0.0
 20
0.0
 30
0.0
 70
   128
 71
    19
 72
     9
 73
    11
 74
    21
  0
VERTEX
  5
26EF
  8
LAYER1
 10
0.0
 20
0.0
 30
0.0
 70
   128
 71
     9
 72
     4
 73
     6
 74
    11
  0
VERTEX
  5
26F0
  8
LAYER1
 10
0.0
 20
0.0
 30
0.0
 70
   128
 71
    41
 72
    43
 73
    51
 74
    49
  0
VERTEX
  5
26F1
  8
LAYER1
 10
0.0
 20
0.0
 30
0.0
 70
   128
 71
    33
 72
    35
 73
    43
 74
    41
  0
VERTEX
  5
26F2
  8
LAYER1
 10
0.0
 20
0.0
 30
0.0
 70
   128
 71
    25
 72
    27
 73
    35
 74
    33
  0
VERTEX
  5
26F3
  8
LAYER1
 10
0.0
 20
0.0
 30
0.0
 70
   128
 71
    17
 72
    19
 73
    27
 74
    25
  0
VERTEX
  5
26F4
  8
LAYER1
 10
0.0
 20
0.0
 30
0.0
 70
   128
 71
     7
 72
     9
 73
    19
 74
    17
  0
VERTEX
  5
26F5
  8
LAYER1
 10
0.0
 20
0.0
 30
0.0
 70
   128
 71
     2
 72
     4
 73
     9
 74
     7
  0
SEQEND
  5
26F6
  8
LAYER1
  0
POLYLINE
  5
26F7
  8
0
 66
     1
 10
0.0
 20
0.0
 30
0.0
 70
    16
 71
     4
 72
     7
  0
VERTEX
  5
26F8
  8
0
 10
109.0
 20
51.0
 30
32.0
 70
    64
  0
VERTEX
  5
26F9
  8
0
 10
109.0
 20
51.0
 30
32.0
 70
    64
  0
VERTEX
  5
26FA
  8
0
 10
109.0
 20
51.0
 30
32.0
 70
    64
  0
VERTEX
  5
26FB
  8
0
 10
109.0
 20
51.0
 30
32.0
 70
    64
  0
VERTEX
  5
26FC
  8
0
 10
109.0
 20
51.0
 30
32.0
 70
    64
  0
VERTEX
  5
26FD
  8
0
 10
109.0
 20
51.0
 30
32.0
 70
    64
  0
VERTEX
  5
26FE
  8
0
 10
109.0
 20
51.0
 30
32.0
 70
    64
  0
VERTEX
  5
26FF
  8
0
 10
132.49999999999989
 20
51.0
 30
32.0
 70
    64
  0
VERTEX
  5
2700
  8
0
 10
131.6999999999999
 20
51.0
 30
25.899999999999991
 70
    64
  0
VERTEX
  5
2701
  8
0
 10
129.40000000000001
 20
51.0
 30
20.300000000000001
 70
    64
  0
VERTEX
  5
2702
  8
0
 10
125.7
 20
51.0
 30
15.300000000000001
 70
    64
  0
VERTEX
  5
2703
  8
0
 10
120.7
 20
51.0
 30
11.6
 70
    64
  0
VERTEX
  5
2704
  8
0
 10
115.09999999999999
 20
51.0
 30
9.3000000000000007
 70
    64
  0
VERTEX
  5
2705
  8
0
 10
109.0
 20
51.0
 30
8.5
 70
    64
  0
VERTEX
  5
2706
  8
0
 10
133.49999999999989
 20
52.0
 30
32.0
 70
    64
  0
VERTEX
  5
2707
  8
0
 10
132.6999999999999
 20
52.0
 30
25.699999999999999
 70
    64
  0
VERTEX
  5
2708
  8
0
 10
130.30000000000001
 20
52.0
 30
19.800000000000001
 70
    64
  0
VERTEX
  5
2709
  8
0
 10
126.2999999999999
 20
52.0
 30
14.69999999999999
 70
    64
  0
VERTEX
  5
270A
  8
0
 10
121.1999999999999
 20
52.0
 30
10.699999999999999
 70
    64
  0
VERTEX
  5
270B
  8
0
 10
115.3
 20
52.0
 30
8.3000000000000007
 70
    64
  0
VERTEX
  5
270C
  8
0
 10
109.0
 20
52.0
 30
7.5
 70
    64
  0
VERTEX
  5
270D
  8
0
 10
133.49999999999989
 20
86.5
 30
32.0
 70
    64
  0
VERTEX
  5
270E
  8
0
 10
132.73131121951039
 20
84.609574263494608
 30
25.699999999999999
 70
    64
  0
VERTEX
  5
270F
  8
0
 10
130.37630765386791
 20
81.472805843134537
 30
19.800000000000001
 70
    64
  0
VERTEX
  5
2710
  8
0
 10
126.3204667634122
 20
77.747893397289261
 30
14.69999999999999
 70
    64
  0
VERTEX
  5
2711
  8
0
 10
121.3487922860193
 20
73.826933085168378
 30
10.699999999999999
 70
    64
  0
VERTEX
  5
2712
  8
0
 10
115.3958650482777
 20
69.840623199849972
 30
8.3000000000000007
 70
    64
  0
VERTEX
  5
2713
  8
0
 10
109.0
 20
66.0
 30
7.5
 70
    64
  0
SEQEND
  5
2714
  8
0
  0
POLYLINE
  5
2715
  8
0
 66
     1
 10
0.0
 20
0.0
 30
0.0
 70
    16
 71
     6
 72
     7
  0
VERTEX
  5
2716
  8
0
 10
109.0
 20
12.492991000000011
 30
32.000042000000008
 70
    64
  0
VERTEX
  5
2717
  8
0
 10
109.0
 20
12.492991000000011
 30
32.000042000000008
 70
    64
  0
VERTEX
  5
2718
  8
0
 10
109.0
 20
12.492991000000011
 30
32.000042000000008
 70
    64
  0
VERTEX
  5
2719
  8
0
 10
109.0
 20
12.492991000000011
 30
32.000042000000008
 70
    64
  0
VERTEX
  5
271A
  8
0
 10
109.0
 20
12.492991000000011
 30
32.000042000000008
 70
    64
  0
VERTEX
  5
271B
  8
0
 10
109.0
 20
12.492991000000011
 30
32.000042000000008
 70
    64
  0
VERTEX
  5
271C
  8
0
 10
109.0
 20
12.492991000000011
 30
32.000042000000008
 70
    64
  0
VERTEX
  5
271D
  8
0
 10
109.0
 20
12.492991000000011
 30
8.5000419999999934
 70
    64
  0
VERTEX
  5
271E
  8
0
 10
115.0
 20
12.492991000000011
 30
9.4000419999999991
 70
    64
  0
VERTEX
  5
271F
  8
0
 10
120.7
 20
12.492991000000011
 30
11.600041999999981
 70
    64
  0
VERTEX
  5
2720
  8
0
 10
125.59999999999999
 20
12.492991000000011
 30
15.400041999999999
 70
    64
  0
VERTEX
  5
2721
  8
0
 10
129.40000000000001
 20
12.492991000000011
 30
20.300042000000008
 70
    64
  0
VERTEX
  5
2722
  8
0
 10
131.59999999999999
 20
12.492991000000011
 30
26.000042000000011
 70
    64
  0
VERTEX
  5
2723
  8
0
 10
132.49999999999989
 20
12.492991000000011
 30
32.000042000000008
 70
    64
  0
VERTEX
  5
2724
  8
0
 10
109.0
 20
12.992991000000011
 30
7.0000419999999934
 70
    64
  0
VERTEX
  5
2725
  8
0
 10
115.40000000000001
 20
12.992991000000011
 30
7.9000419999999991
 70
    64
  0
VERTEX
  5
2726
  8
0
 10
121.40000000000001
 20
12.992991000000011
 30
10.400041999999999
 70
    64
  0
VERTEX
  5
2727
  8
0
 10
126.7
 20
12.992991000000011
 30
14.300041999999999
 70
    64
  0
VERTEX
  5
2728
  8
0
 10
130.59999999999999
 20
12.992991000000011
 30
19.600042000000009
 70
    64
  0
VERTEX
  5
2729
  8
0
 10
133.09999999999991
 20
12.992991000000011
 30
25.600042000000009
 70
    64
  0
VERTEX
  5
272A
  8
0
 10
134.0
 20
12.992991000000011
 30
32.000042000000008
 70
    64
  0
VERTEX
  5
272B
  8
0
 10
109.0
 20
14.492991000000011
 30
6.5000419999999934
 70
    64
  0
VERTEX
  5
272C
  8
0
 10
115.59999999999989
 20
14.492991000000011
 30
7.4000419999999991
 70
    64
  0
VERTEX
  5
272D
  8
0
 10
121.7
 20
14.492991000000011
 30
9.9000419999999991
 70
    64
  0
VERTEX
  5
272E
  8
0
 10
127.0
 20
14.492991000000011
 30
14.000042000000001
 70
    64
  0
VERTEX
  5
272F
  8
0
 10
131.09999999999991
 20
14.492991000000011
 30
19.300042000000008
 70
    64
  0
VERTEX
  5
2730
  8
0
 10
133.59999999999999
 20
14.492991000000011
 30
25.400041999999999
 70
    64
  0
VERTEX
  5
2731
  8
0
 10
134.49999999999989
 20
14.492991000000011
 30
32.000042000000008
 70
    64
  0
VERTEX
  5
2732
  8
0
 10
109.0
 20
47.492991000000039
 30
6.5000420000000068
 70
    64
  0
VERTEX
  5
2733
  8
0
 10
115.59999999999989
 20
47.492991000000039
 30
7.4000420000000133
 70
    64
  0
VERTEX
  5
2734
  8
0
 10
121.7
 20
47.492991000000039
 30
9.9000420000000133
 70
    64
  0
VERTEX
  5
2735
  8
0
 10
127.0
 20
47.492991000000039
 30
14.00004200000002
 70
    64
  0
VERTEX
  5
2736
  8
0
 10
131.09999999999991
 20
47.492991000000032
 30
19.300042000000008
 70
    64
  0
VERTEX
  5
2737
  8
0
 10
133.59999999999999
 20
47.492991000000032
 30
25.40004200000001
 70
    64
  0
VERTEX
  5
2738
  8
0
 10
134.49999999999989
 20
47.492991000000032
 30
32.000042000000022
 70
    64
  0
VERTEX
  5
2739
  8
0
 10
109.0
 20
48.492991000000039
 30
7.5000420000000139
 70
    64
  0
VERTEX
  5
273A
  8
0
 10
115.3
 20
48.492991000000039
 30
8.4000420000000204
 70
    64
  0
VERTEX
  5
273B
  8
0
 10
121.1999999999999
 20
48.492991000000039
 30
10.80004200000001
 70
    64
  0
VERTEX
  5
273C
  8
0
 10
126.2999999999999
 20
48.492991000000039
 30
14.70004200000003
 70
    64
  0
VERTEX
  5
273D
  8
0
 10
130.1999999999999
 20
48.492991000000032
 30
19.800042000000019
 70
    64
  0
VERTEX
  5
273E
  8
0
 10
132.59999999999999
 20
48.492991000000032
 30
25.700042000000028
 70
    64
  0
VERTEX
  5
273F
  8
0
 10
133.49999999999989
 20
48.492991000000032
 30
32.000042000000029
 70
    64
  0
SEQEND
  5
2740
  8
0
  0
POLYLINE
  5
2741
  8
0
 66
     1
 10
0.0
 20
0.0
 30
0.0
 70
    16
 71
     4
 72
     7
  0
VERTEX
  5
2742
  8
0
 10
109.0
 20
51.0
 30
8.5000000000000213
 70
    64
  0
VERTEX
  5
2743
  8
0
 10
115.0
 20
51.0
 30
9.4000000000000181
 70
    64
  0
VERTEX
  5
2744
  8
0
 10
120.7
 20
51.0
 30
11.600000000000019
 70
    64
  0
VERTEX
  5
2745
  8
0
 10
125.59999999999999
 20
51.0
 30
15.400000000000009
 70
    64
  0
VERTEX
  5
2746
  8
0
 10
129.40000000000001
 20
51.0
 30
20.300000000000018
 70
    64
  0
VERTEX
  5
2747
  8
0
 10
131.59999999999999
 20
51.0
 30
26.000000000000021
 70
    64
  0
VERTEX
  5
2748
  8
0
 10
132.49999999999989
 20
51.0
 30
32.000000000000021
 70
    64
  0
VERTEX
  5
2749
  8
0
 10
109.0
 20
47.492991000000032
 30
8.4999580000000066
 70
    64
  0
VERTEX
  5
274A
  8
0
 10
115.0
 20
47.492991000000032
 30
9.3999580000000122
 70
    64
  0
VERTEX
  5
274B
  8
0
 10
120.7
 20
47.492991000000032
 30
11.59995800000001
 70
    64
  0
VERTEX
  5
274C
  8
0
 10
125.59999999999999
 20
47.492991000000032
 30
15.39995800000001
 70
    64
  0
VERTEX
  5
274D
  8
0
 10
129.40000000000001
 20
47.492991000000011
 30
20.29995799999999
 70
    64
  0
VERTEX
  5
274E
  8
0
 10
131.59999999999999
 20
47.492991000000011
 30
25.999957999999989
 70
    64
  0
VERTEX
  5
274F
  8
0
 10
132.49999999999989
 20
47.492991000000032
 30
31.999957999999989
 70
    64
  0
VERTEX
  5
2750
  8
0
 10
109.0
 20
44.492991000000032
 30
8.9999580000000066
 70
    64
  0
VERTEX
  5
2751
  8
0
 10
114.90000000000001
 20
44.492991000000032
 30
9.7999580000000037
 70
    64
  0
VERTEX
  5
2752
  8
0
 10
120.40000000000001
 20
44.492991000000032
 30
12.09995800000001
 70
    64
  0
VERTEX
  5
2753
  8
0
 10
125.2
 20
44.492991000000032
 30
15.799958
 70
    64
  0
VERTEX
  5
2754
  8
0
 10
128.90000000000001
 20
44.492991000000011
 30
20.599958000000001
 70
    64
  0
VERTEX
  5
2755
  8
0
 10
131.1999999999999
 20
44.492991000000011
 30
26.099958000000001
 70
    64
  0
VERTEX
  5
2756
  8
0
 10
132.0
 20
44.492991000000032
 30
31.999957999999989
 70
    64
  0
VERTEX
  5
2757
  8
0
 10
109.0
 20
40.492991000000032
 30
9.9999580000000066
 70
    64
  0
VERTEX
  5
2758
  8
0
 10
114.7
 20
40.492991000000032
 30
10.799958
 70
    64
  0
VERTEX
  5
2759
  8
0
 10
119.90000000000001
 20
40.492991000000032
 30
12.89995800000001
 70
    64
  0
VERTEX
  5
275A
  8
0
 10
124.5
 20
40.492991000000032
 30
16.499957999999989
 70
    64
  0
VERTEX
  5
275B
  8
0
 10
128.09999999999991
 20
40.492991000000011
 30
21.099958000000001
 70
    64
  0
VERTEX
  5
275C
  8
0
 10
130.1999999999999
 20
40.492991000000011
 30
26.29995799999999
 70
    64
  0
VERTEX
  5
275D
  8
0
 10
131.0
 20
40.492991000000032
 30
31.999957999999989
 70
    64
  0
SEQEND
  5
275E
  8
0
  0
POLYLINE
  5
275F
  8
0
 66
     1
 10
0.0
 20
0.0
 30
0.0
 70
    16
 71
     5
 72
    12
  0
VERTEX
  5
2760
  8
0
 10
218.0
 20
86.5
 30
34.000000000000043
 70
    64
  0
VERTEX
  5
2761
  8
0
 10
218.0
 20
86.5
 30
34.000000000000043
 70
    64
  0
VERTEX
  5
2762
  8
0
 10
218.0
 20
86.5
 30
34.000000000000043
 70
    64
  0
VERTEX
  5
2763
  8
0
 10
218.0
 20
86.5
 30
34.000000000000043
 70
    64
  0
VERTEX
  5
2764
  8
0
 10
218.0
 20
86.5
 30
34.000000000000043
 70
    64
  0
VERTEX
  5
2765
  8
0
 10
218.0
 20
86.5
 30
34.000000000000043
 70
    64
  0
VERTEX
  5
2766
  8
0
 10
218.0
 20
86.5
 30
34.000000000000043
 70
    64
  0
VERTEX
  5
2767
  8
0
 10
218.0
 20
86.5
 30
34.000000000000043
 70
    64
  0
VERTEX
  5
2768
  8
0
 10
218.0
 20
86.5
 30
34.000000000000043
 70
    64
  0
VERTEX
  5
2769
  8
0
 10
218.0
 20
86.5
 30
34.000000000000043
 70
    64
  0
VERTEX
  5
276A
  8
0
 10
218.0
 20
86.5
 30
34.000000000000043
 70
    64
  0
VERTEX
  5
276B
  8
0
 10
218.0
 20
86.5
 30
34.000000000000043
 70
    64
  0
VERTEX
  5
276C
  8
0
 10
218.0
 20
66.0
 30
34.000000000000028
 70
    64
  0
VERTEX
  5
276D
  8
0
 10
218.0
 20
66.700000000000003
 30
28.700000000000038
 70
    64
  0
VERTEX
  5
276E
  8
0
 10
218.0
 20
68.799999999999983
 30
23.800000000000029
 70
    64
  0
VERTEX
  5
276F
  8
0
 10
218.0
 20
72.0
 30
19.500000000000028
 70
    64
  0
VERTEX
  5
2770
  8
0
 10
218.0
 20
76.299999999999983
 30
16.200000000000031
 70
    64
  0
VERTEX
  5
2771
  8
0
 10
218.0
 20
81.200000000000003
 30
14.20000000000004
 70
    64
  0
VERTEX
  5
2772
  8
0
 10
218.0
 20
86.5
 30
13.500000000000041
 70
    64
  0
VERTEX
  5
2773
  8
0
 10
218.0
 20
93.0
 30
14.20000000000004
 70
    64
  0
VERTEX
  5
2774
  8
0
 10
218.0
 20
99.200000000000017
 30
16.200000000000049
 70
    64
  0
VERTEX
  5
2775
  8
0
 10
218.0
 20
104.5
 30
19.500000000000039
 70
    64
  0
VERTEX
  5
2776
  8
0
 10
218.0
 20
107.0
 30
22.200000000000049
 70
    64
  0
VERTEX
  5
2777
  8
0
 10
218.0
 20
107.0
 30
34.00000000000005
 70
    64
  0
VERTEX
  5
2778
  8
0
 10
217.5
 20
64.5
 30
34.000000000000028
 70
    64
  0
VERTEX
  5
2779
  8
0
 10
217.5
 20
65.299999999999997
 30
28.300000000000029
 70
    64
  0
VERTEX
  5
277A
  8
0
 10
217.5
 20
67.5
 30
23.000000000000028
 70
    64
  0
VERTEX
  5
277B
  8
0
 10
217.5
 20
71.0
 30
18.500000000000028
 70
    64
  0
VERTEX
  5
277C
  8
0
 10
217.5
 20
75.599999999999994
 30
14.900000000000031
 70
    64
  0
VERTEX
  5
277D
  8
0
 10
217.5
 20
80.799999999999997
 30
12.80000000000004
 70
    64
  0
VERTEX
  5
277E
  8
0
 10
217.5
 20
86.5
 30
12.000000000000041
 70
    64
  0
VERTEX
  5
277F
  8
0
 10
217.5
 20
93.499999999999986
 30
12.80000000000004
 70
    64
  0
VERTEX
  5
2780
  8
0
 10
217.5
 20
100.09999999999999
 30
14.900000000000039
 70
    64
  0
VERTEX
  5
2781
  8
0
 10
217.5
 20
105.8
 30
18.500000000000039
 70
    64
  0
VERTEX
  5
2782
  8
0
 10
217.5
 20
108.5
 30
21.30000000000004
 70
    64
  0
VERTEX
  5
2783
  8
0
 10
217.5
 20
108.4999999999999
 30
34.00000000000005
 70
    64
  0
VERTEX
  5
2784
  8
0
 10
216.0
 20
64.0
 30
34.000000000000028
 70
    64
  0
VERTEX
  5
2785
  8
0
 10
216.0
 20
64.799999999999997
 30
28.200000000000031
 70
    64
  0
VERTEX
  5
2786
  8
0
 10
216.0
 20
67.0
 30
22.800000000000029
 70
    64
  0
VERTEX
  5
2787
  8
0
 10
216.0
 20
70.599999999999994
 30
18.10000000000003
 70
    64
  0
VERTEX
  5
2788
  8
0
 10
216.0
 20
75.299999999999997
 30
14.50000000000003
 70
    64
  0
VERTEX
  5
2789
  8
0
 10
216.0
 20
80.700000000000003
 30
12.300000000000029
 70
    64
  0
VERTEX
  5
278A
  8
0
 10
216.0
 20
86.5
 30
11.500000000000041
 70
    64
  0
VERTEX
  5
278B
  8
0
 10
216.0
 20
93.700000000000003
 30
12.300000000000029
 70
    64
  0
VERTEX
  5
278C
  8
0
 10
216.0
 20
100.40000000000001
 30
14.50000000000005
 70
    64
  0
VERTEX
  5
278D
  8
0
 10
216.0
 20
106.2
 30
18.100000000000051
 70
    64
  0
VERTEX
  5
278E
  8
0
 10
216.0
 20
109.0
 30
21.000000000000039
 70
    64
  0
VERTEX
  5
278F
  8
0
 10
216.0
 20
109.0
 30
34.00000000000005
 70
    64
  0
VERTEX
  5
2790
  8
0
 10
109.0
 20
64.0
 30
34.000000000000028
 70
    64
  0
VERTEX
  5
2791
  8
0
 10
109.0
 20
64.799999999999997
 30
28.200000000000031
 70
    64
  0
VERTEX
  5
2792
  8
0
 10
109.0
 20
67.0
 30
22.800000000000029
 70
    64
  0
VERTEX
  5
2793
  8
0
 10
109.0
 20
70.599999999999994
 30
18.10000000000003
 70
    64
  0
VERTEX
  5
2794
  8
0
 10
109.0
 20
75.299999999999997
 30
14.50000000000003
 70
    64
  0
VERTEX
  5
2795
  8
0
 10
109.0
 20
80.700000000000003
 30
12.300000000000029
 70
    64
  0
VERTEX
  5
2796
  8
0
 10
109.0
 20
86.5
 30
11.500000000000041
 70
    64
  0
VERTEX
  5
2797
  8
0
 10
109.0
 20
93.700000000000003
 30
12.300000000000029
 70
    64
  0
VERTEX
  5
2798
  8
0
 10
109.0
 20
100.40000000000001
 30
14.50000000000005
 70
    64
  0
VERTEX
  5
2799
  8
0
 10
109.0
 20
106.2
 30
18.100000000000051
 70
    64
  0
VERTEX
  5
279A
  8
0
 10
109.0
 20
109.0
 30
21.000000000000039
 70
    64
  0
VERTEX
  5
279B
  8
0
 10
109.0
 20
109.0
 30
34.00000000000005
 70
    64
  0
SEQEND
  5
279C
  8
0
  0
POLYLINE
  5
279D
  8
0
 66
     1
 10
0.0
 20
0.0
 30
0.0
 70
    16
 71
     4
 72
     7
  0
VERTEX
  5
279E
  8
0
 10
109.0
 20
109.0
 30
32.0
 70
    64
  0
VERTEX
  5
279F
  8
0
 10
109.0
 20
109.0
 30
32.0
 70
    64
  0
VERTEX
  5
27A0
  8
0
 10
109.0
 20
109.0
 30
32.0
 70
    64
  0
VERTEX
  5
27A1
  8
0
 10
109.0
 20
109.0
 30
32.0
 70
    64
  0
VERTEX
  5
27A2
  8
0
 10
109.0
 20
109.0
 30
32.0
 70
    64
  0
VERTEX
  5
27A3
  8
0
 10
109.0
 20
109.0
 30
32.0
 70
    64
  0
VERTEX
  5
27A4
  8
0
 10
109.0
 20
109.0
 30
32.0
 70
    64
  0
VERTEX
  5
27A5
  8
0
 10
132.49999999999989
 20
109.0
 30
32.0
 70
    64
  0
VERTEX
  5
27A6
  8
0
 10
131.6999999999999
 20
109.0
 30
25.899999999999991
 70
    64
  0
VERTEX
  5
27A7
  8
0
 10
129.40000000000001
 20
109.0
 30
20.300000000000001
 70
    64
  0
VERTEX
  5
27A8
  8
0
 10
125.7
 20
109.0
 30
15.300000000000001
 70
    64
  0
VERTEX
  5
27A9
  8
0
 10
120.7
 20
109.0
 30
11.6
 70
    64
  0
VERTEX
  5
27AA
  8
0
 10
115.09999999999999
 20
109.0
 30
9.3000000000000007
 70
    64
  0
VERTEX
  5
27AB
  8
0
 10
109.0
 20
109.0
 30
8.5
 70
    64
  0
VERTEX
  5
27AC
  8
0
 10
133.49999999999989
 20
108.0
 30
32.0
 70
    64
  0
VERTEX
  5
27AD
  8
0
 10
132.6999999999999
 20
108.0
 30
25.699999999999999
 70
    64
  0
VERTEX
  5
27AE
  8
0
 10
130.30000000000001
 20
108.0
 30
19.800000000000001
 70
    64
  0
VERTEX
  5
27AF
  8
0
 10
126.2999999999999
 20
108.0
 30
14.69999999999999
 70
    64
  0
VERTEX
  5
27B0
  8
0
 10
121.1999999999999
 20
108.0
 30
10.699999999999999
 70
    64
  0
VERTEX
  5
27B1
  8
0
 10
115.3
 20
108.0
 30
8.3000000000000007
 70
    64
  0
VERTEX
  5
27B2
  8
0
 10
109.0
 20
108.0
 30
7.5
 70
    64
  0
VERTEX
  5
27B3
  8
0
 10
133.49999999999989
 20
86.5
 30
32.0
 70
    64
  0
VERTEX
  5
27B4
  8
0
 10
132.73131121951039
 20
84.609574263494608
 30
25.699999999999999
 70
    64
  0
VERTEX
  5
27B5
  8
0
 10
130.37630765386791
 20
81.472805843134537
 30
19.800000000000001
 70
    64
  0
VERTEX
  5
27B6
  8
0
 10
126.3204667634122
 20
77.747893397289261
 30
14.69999999999999
 70
    64
  0
VERTEX
  5
27B7
  8
0
 10
121.3487922860193
 20
73.826933085168378
 30
10.699999999999999
 70
    64
  0
VERTEX
  5
27B8
  8
0
 10
115.3958650482777
 20
69.840623199849972
 30
8.3000000000000007
 70
    64
  0
VERTEX
  5
27B9
  8
0
 10
109.0
 20
66.0
 30
7.5
 70
    64
  0
SEQEND
  5
27BA
  8
0
  0
POLYLINE
  5
27BB
  8
0
 66
     1
 10
0.0
 20
0.0
 30
0.0
 70
    16
 71
     5
 72
    12
  0
VERTEX
  5
27BC
  8
0
 10
218.0
 20
86.5
 30
34.0
 70
    64
  0
VERTEX
  5
27BD
  8
0
 10
218.0
 20
86.5
 30
34.0
 70
    64
  0
VERTEX
  5
27BE
  8
0
 10
218.0
 20
86.5
 30
34.0
 70
    64
  0
VERTEX
  5
27BF
  8
0
 10
218.0
 20
86.5
 30
34.0
 70
    64
  0
VERTEX
  5
27C0
  8
0
 10
218.0
 20
86.5
 30
34.0
 70
    64
  0
VERTEX
  5
27C1
  8
0
 10
218.0
 20
86.5
 30
34.0
 70
    64
  0
VERTEX
  5
27C2
  8
0
 10
218.0
 20
86.5
 30
34.0
 70
    64
  0
VERTEX
  5
27C3
  8
0
 10
218.0
 20
86.5
 30
34.0
 70
    64
  0
VERTEX
  5
27C4
  8
0
 10
218.0
 20
86.5
 30
34.0
 70
    64
  0
VERTEX
  5
27C5
  8
0
 10
218.0
 20
86.5
 30
34.0
 70
    64
  0
VERTEX
  5
27C6
  8
0
 10
218.0
 20
86.5
 30
34.0
 70
    64
  0
VERTEX
  5
27C7
  8
0
 10
218.0
 20
86.5
 30
34.0
 70
    64
  0
VERTEX
  5
27C8
  8
0
 10
218.0
 20
66.0
 30
34.0
 70
    64
  0
VERTEX
  5
27C9
  8
0
 10
218.0
 20
66.700000000000003
 30
39.29999999999999
 70
    64
  0
VERTEX
  5
27CA
  8
0
 10
218.0
 20
68.799999999999983
 30
44.200000000000003
 70
    64
  0
VERTEX
  5
27CB
  8
0
 10
218.0
 20
72.0
 30
48.5
 70
    64
  0
VERTEX
  5
27CC
  8
0
 10
218.0
 20
76.299999999999983
 30
51.79999999999999
 70
    64
  0
VERTEX
  5
27CD
  8
0
 10
218.0
 20
81.200000000000003
 30
53.79999999999999
 70
    64
  0
VERTEX
  5
27CE
  8
0
 10
218.0
 20
86.5
 30
54.5
 70
    64
  0
VERTEX
  5
27CF
  8
0
 10
218.0
 20
93.0
 30
53.79999999999999
 70
    64
  0
VERTEX
  5
27D0
  8
0
 10
218.0
 20
99.200000000000017
 30
51.79999999999999
 70
    64
  0
VERTEX
  5
27D1
  8
0
 10
218.0
 20
104.4999999999999
 30
48.5
 70
    64
  0
VERTEX
  5
27D2
  8
0
 10
218.0
 20
107.0
 30
45.799999999999997
 70
    64
  0
VERTEX
  5
27D3
  8
0
 10
218.0
 20
107.0
 30
34.0
 70
    64
  0
VERTEX
  5
27D4
  8
0
 10
217.5
 20
64.5
 30
34.0
 70
    64
  0
VERTEX
  5
27D5
  8
0
 10
217.5
 20
65.299999999999997
 30
39.700000000000003
 70
    64
  0
VERTEX
  5
27D6
  8
0
 10
217.5
 20
67.5
 30
45.0
 70
    64
  0
VERTEX
  5
27D7
  8
0
 10
217.5
 20
71.0
 30
49.5
 70
    64
  0
VERTEX
  5
27D8
  8
0
 10
217.5
 20
75.599999999999994
 30
53.100000000000001
 70
    64
  0
VERTEX
  5
27D9
  8
0
 10
217.5
 20
80.799999999999997
 30
55.200000000000003
 70
    64
  0
VERTEX
  5
27DA
  8
0
 10
217.5
 20
86.5
 30
56.0
 70
    64
  0
VERTEX
  5
27DB
  8
0
 10
217.5
 20
93.499999999999986
 30
55.200000000000003
 70
    64
  0
VERTEX
  5
27DC
  8
0
 10
217.5
 20
100.09999999999989
 30
53.100000000000001
 70
    64
  0
VERTEX
  5
27DD
  8
0
 10
217.5
 20
105.8
 30
49.5
 70
    64
  0
VERTEX
  5
27DE
  8
0
 10
217.5
 20
108.4999999999999
 30
46.700000000000003
 70
    64
  0
VERTEX
  5
27DF
  8
0
 10
217.5
 20
108.4999999999999
 30
34.0
 70
    64
  0
VERTEX
  5
27E0
  8
0
 10
216.0
 20
64.0
 30
34.0
 70
    64
  0
VERTEX
  5
27E1
  8
0
 10
216.0
 20
64.799999999999997
 30
39.799999999999997
 70
    64
  0
VERTEX
  5
27E2
  8
0
 10
216.0
 20
67.0
 30
45.200000000000003
 70
    64
  0
VERTEX
  5
27E3
  8
0
 10
216.0
 20
70.599999999999994
 30
49.899999999999999
 70
    64
  0
VERTEX
  5
27E4
  8
0
 10
216.0
 20
75.299999999999997
 30
53.5
 70
    64
  0
VERTEX
  5
27E5
  8
0
 10
216.0
 20
80.700000000000003
 30
55.700000000000003
 70
    64
  0
VERTEX
  5
27E6
  8
0
 10
216.0
 20
86.5
 30
56.5
 70
    64
  0
VERTEX
  5
27E7
  8
0
 10
216.0
 20
93.700000000000003
 30
55.700000000000003
 70
    64
  0
VERTEX
  5
27E8
  8
0
 10
216.0
 20
100.40000000000001
 30
53.5
 70
    64
  0
VERTEX
  5
27E9
  8
0
 10
216.0
 20
106.1999999999999
 30
49.899999999999999
 70
    64
  0
VERTEX
  5
27EA
  8
0
 10
216.0
 20
109.0
 30
47.0
 70
    64
  0
VERTEX
  5
27EB
  8
0
 10
216.0
 20
109.0
 30
34.0
 70
    64
  0
VERTEX
  5
27EC
  8
0
 10
109.0
 20
64.0
 30
34.0
 70
    64
  0
VERTEX
  5
27ED
  8
0
 10
109.0
 20
64.799999999999997
 30
39.799999999999997
 70
    64
  0
VERTEX
  5
27EE
  8
0
 10
109.0
 20
67.0
 30
45.200000000000003
 70
    64
  0
VERTEX
  5
27EF
  8
0
 10
109.0
 20
70.599999999999994
 30
49.899999999999999
 70
    64
  0
VERTEX
  5
27F0
  8
0
 10
109.0
 20
75.299999999999997
 30
53.5
 70
    64
  0
VERTEX
  5
27F1
  8
0
 10
109.0
 20
80.700000000000003
 30
55.700000000000003
 70
    64
  0
VERTEX
  5
27F2
  8
0
 10
109.0
 20
86.5
 30
56.5
 70
    64
  0
VERTEX
  5
27F3
  8
0
 10
109.0
 20
93.700000000000003
 30
55.700000000000003
 70
    64
  0
VERTEX
  5
27F4
  8
0
 10
109.0
 20
100.40000000000001
 30
53.5
 70
    64
  0
VERTEX
  5
27F5
  8
0
 10
109.0
 20
106.1999999999999
 30
49.899999999999999
 70
    64
  0
VERTEX
  5
27F6
  8
0
 10
109.0
 20
109.0
 30
47.0
 70
    64
  0
VERTEX
  5
27F7
  8
0
 10
109.0
 20
109.0
 30
34.0
 70
    64
  0
SEQEND
  5
27F8
  8
0
  0
POLYLINE
  5
27F9
  8
LAYER1
 62
   252
 66
     1
 10
0.0
 20
0.0
 30
0.0
 70
    64
 71
   192
 72
   168
  0
VERTEX
  5
27FA
  8
LAYER1
 10
197.0
 20
119.0
 30
29.199999999999989
 70
   192
  0
VERTEX
  5
27FB
  8
LAYER1
 10
197.0
 20
116.0
 30
29.199999999999989
 70
   192
  0
VERTEX
  5
27FC
  8
LAYER1
 10
197.0
 20
113.0
 30
29.199999999999989
 70
   192
  0
VERTEX
  5
27FD
  8
LAYER1
 10
197.0
 20
121.0
 30
34.0
 70
   192
  0
VERTEX
  5
27FE
  8
LAYER1
 10
197.0
 20
119.0
 30
34.0
 70
   192
  0
VERTEX
  5
27FF
  8
LAYER1
 10
197.0
 20
116.0
 30
34.0
 70
   192
  0
VERTEX
  5
2800
  8
LAYER1
 10
197.0
 20
113.0
 30
34.0
 70
   192
  0
VERTEX
  5
2801
  8
LAYER1
 10
197.0
 20
111.0
 30
34.0
 70
   192
  0
VERTEX
  5
2802
  8
LAYER1
 10
197.0
 20
119.0
 30
38.79999999999999
 70
   192
  0
VERTEX
  5
2803
  8
LAYER1
 10
197.0
 20
116.0
 30
38.79999999999999
 70
   192
  0
VERTEX
  5
2804
  8
LAYER1
 10
197.0
 20
113.0
 30
38.79999999999999
 70
   192
  0
VERTEX
  5
2805
  8
LAYER1
 10
196.5
 20
121.0
 30
30.600000000000001
 70
   192
  0
VERTEX
  5
2806
  8
LAYER1
 10
196.5
 20
111.0
 30
30.600000000000001
 70
   192
  0
VERTEX
  5
2807
  8
LAYER1
 10
196.5
 20
121.0
 30
37.399999999999999
 70
   192
  0
VERTEX
  5
2808
  8
LAYER1
 10
196.5
 20
111.0
 30
37.399999999999999
 70
   192
  0
VERTEX
  5
2809
  8
LAYER1
 10
196.09999999999999
 20
119.0
 30
27.0
 70
   192
  0
VERTEX
  5
280A
  8
LAYER1
 10
196.09999999999999
 20
116.0
 30
27.0
 70
   192
  0
VERTEX
  5
280B
  8
LAYER1
 10
196.09999999999999
 20
113.0
 30
27.0
 70
   192
  0
VERTEX
  5
280C
  8
LAYER1
 10
196.09999999999999
 20
119.0
 30
41.0
 70
   192
  0
VERTEX
  5
280D
  8
LAYER1
 10
196.09999999999999
 20
116.0
 30
41.0
 70
   192
  0
VERTEX
  5
280E
  8
LAYER1
 10
196.09999999999999
 20
113.0
 30
41.0
 70
   192
  0
VERTEX
  5
280F
  8
LAYER1
 10
195.30000000000001
 20
121.0
 30
27.5
 70
   192
  0
VERTEX
  5
2810
  8
LAYER1
 10
195.30000000000001
 20
111.0
 30
27.5
 70
   192
  0
VERTEX
  5
2811
  8
LAYER1
 10
195.30000000000001
 20
121.0
 30
40.499999999999993
 70
   192
  0
VERTEX
  5
2812
  8
LAYER1
 10
195.30000000000001
 20
111.0
 30
40.499999999999993
 70
   192
  0
VERTEX
  5
2813
  8
LAYER1
 10
195.0
 20
130.0
 30
34.0
 70
   192
  0
VERTEX
  5
2814
  8
LAYER1
 10
195.0
 20
123.0
 30
34.0
 70
   192
  0
VERTEX
  5
2815
  8
LAYER1
 10
195.0
 20
109.0
 30
34.0
 70
   192
  0
VERTEX
  5
2816
  8
LAYER1
 10
194.59999999999991
 20
130.0
 30
31.199999999999999
 70
   192
  0
VERTEX
  5
2817
  8
LAYER1
 10
194.59999999999991
 20
123.0
 30
31.199999999999999
 70
   192
  0
VERTEX
  5
2818
  8
LAYER1
 10
194.59999999999991
 20
109.0
 30
31.199999999999999
 70
   192
  0
VERTEX
  5
2819
  8
LAYER1
 10
194.59999999999991
 20
130.0
 30
36.79999999999999
 70
   192
  0
VERTEX
  5
281A
  8
LAYER1
 10
194.59999999999991
 20
123.0
 30
36.79999999999999
 70
   192
  0
VERTEX
  5
281B
  8
LAYER1
 10
194.59999999999991
 20
109.0
 30
36.79999999999999
 70
   192
  0
VERTEX
  5
281C
  8
LAYER1
 10
194.40000000000001
 20
119.0
 30
24.800000000000001
 70
   192
  0
VERTEX
  5
281D
  8
LAYER1
 10
194.40000000000001
 20
116.0
 30
24.800000000000001
 70
   192
  0
VERTEX
  5
281E
  8
LAYER1
 10
194.40000000000001
 20
113.0
 30
24.800000000000001
 70
   192
  0
VERTEX
  5
281F
  8
LAYER1
 10
194.40000000000001
 20
119.0
 30
43.200000000000003
 70
   192
  0
VERTEX
  5
2820
  8
LAYER1
 10
194.40000000000001
 20
116.0
 30
43.200000000000003
 70
   192
  0
VERTEX
  5
2821
  8
LAYER1
 10
194.40000000000001
 20
113.0
 30
43.200000000000003
 70
   192
  0
VERTEX
  5
2822
  8
LAYER1
 10
193.5
 20
130.0
 30
28.5
 70
   192
  0
VERTEX
  5
2823
  8
LAYER1
 10
193.5
 20
123.0
 30
28.5
 70
   192
  0
VERTEX
  5
2824
  8
LAYER1
 10
193.5
 20
109.0
 30
28.5
 70
   192
  0
VERTEX
  5
2825
  8
LAYER1
 10
193.5
 20
130.0
 30
39.5
 70
   192
  0
VERTEX
  5
2826
  8
LAYER1
 10
193.5
 20
123.0
 30
39.5
 70
   192
  0
VERTEX
  5
2827
  8
LAYER1
 10
193.5
 20
109.0
 30
39.5
 70
   192
  0
VERTEX
  5
2828
  8
LAYER1
 10
193.19999999999999
 20
121.0
 30
24.800000000000001
 70
   192
  0
VERTEX
  5
2829
  8
LAYER1
 10
193.19999999999999
 20
111.0
 30
24.800000000000001
 70
   192
  0
VERTEX
  5
282A
  8
LAYER1
 10
193.19999999999999
 20
121.0
 30
43.200000000000003
 70
   192
  0
VERTEX
  5
282B
  8
LAYER1
 10
193.19999999999999
 20
111.0
 30
43.200000000000003
 70
   192
  0
VERTEX
  5
282C
  8
LAYER1
 10
191.80000000000001
 20
130.0
 30
26.199999999999999
 70
   192
  0
VERTEX
  5
282D
  8
LAYER1
 10
191.80000000000001
 20
123.0
 30
26.199999999999999
 70
   192
  0
VERTEX
  5
282E
  8
LAYER1
 10
191.80000000000001
 20
109.0
 30
26.199999999999999
 70
   192
  0
VERTEX
  5
282F
  8
LAYER1
 10
191.80000000000001
 20
130.0
 30
41.79999999999999
 70
   192
  0
VERTEX
  5
2830
  8
LAYER1
 10
191.80000000000001
 20
123.0
 30
41.79999999999999
 70
   192
  0
VERTEX
  5
2831
  8
LAYER1
 10
191.80000000000001
 20
109.0
 30
41.79999999999999
 70
   192
  0
VERTEX
  5
2832
  8
LAYER1
 10
190.5
 20
119.0
 30
22.600000000000001
 70
   192
  0
VERTEX
  5
2833
  8
LAYER1
 10
190.5
 20
116.0
 30
22.600000000000001
 70
   192
  0
VERTEX
  5
2834
  8
LAYER1
 10
190.5
 20
113.0
 30
22.600000000000001
 70
   192
  0
VERTEX
  5
2835
  8
LAYER1
 10
190.5
 20
121.0
 30
22.699999999999999
 70
   192
  0
VERTEX
  5
2836
  8
LAYER1
 10
190.5
 20
111.0
 30
22.699999999999999
 70
   192
  0
VERTEX
  5
2837
  8
LAYER1
 10
190.5
 20
121.0
 30
45.299999999999997
 70
   192
  0
VERTEX
  5
2838
  8
LAYER1
 10
190.5
 20
111.0
 30
45.299999999999997
 70
   192
  0
VERTEX
  5
2839
  8
LAYER1
 10
190.5
 20
119.0
 30
45.399999999999999
 70
   192
  0
VERTEX
  5
283A
  8
LAYER1
 10
190.5
 20
116.0
 30
45.399999999999999
 70
   192
  0
VERTEX
  5
283B
  8
LAYER1
 10
190.5
 20
113.0
 30
45.399999999999999
 70
   192
  0
VERTEX
  5
283C
  8
LAYER1
 10
189.49999999999989
 20
130.0
 30
24.5
 70
   192
  0
VERTEX
  5
283D
  8
LAYER1
 10
189.49999999999989
 20
123.0
 30
24.5
 70
   192
  0
VERTEX
  5
283E
  8
LAYER1
 10
189.49999999999989
 20
109.0
 30
24.5
 70
   192
  0
VERTEX
  5
283F
  8
LAYER1
 10
189.49999999999989
 20
130.0
 30
43.5
 70
   192
  0
VERTEX
  5
2840
  8
LAYER1
 10
189.49999999999989
 20
123.0
 30
43.5
 70
   192
  0
VERTEX
  5
2841
  8
LAYER1
 10
189.49999999999989
 20
109.0
 30
43.5
 70
   192
  0
VERTEX
  5
2842
  8
LAYER1
 10
187.40000000000001
 20
121.0
 30
21.499999999999989
 70
   192
  0
VERTEX
  5
2843
  8
LAYER1
 10
187.40000000000001
 20
111.0
 30
21.499999999999989
 70
   192
  0
VERTEX
  5
2844
  8
LAYER1
 10
187.40000000000001
 20
121.0
 30
46.5
 70
   192
  0
VERTEX
  5
2845
  8
LAYER1
 10
187.40000000000001
 20
111.0
 30
46.5
 70
   192
  0
VERTEX
  5
2846
  8
LAYER1
 10
186.80000000000001
 20
130.0
 30
23.399999999999991
 70
   192
  0
VERTEX
  5
2847
  8
LAYER1
 10
186.80000000000001
 20
123.0
 30
23.399999999999991
 70
   192
  0
VERTEX
  5
2848
  8
LAYER1
 10
186.80000000000001
 20
109.0
 30
23.399999999999991
 70
   192
  0
VERTEX
  5
2849
  8
LAYER1
 10
186.80000000000001
 20
130.0
 30
44.599999999999987
 70
   192
  0
VERTEX
  5
284A
  8
LAYER1
 10
186.80000000000001
 20
123.0
 30
44.599999999999987
 70
   192
  0
VERTEX
  5
284B
  8
LAYER1
 10
186.80000000000001
 20
109.0
 30
44.599999999999987
 70
   192
  0
VERTEX
  5
284C
  8
LAYER1
 10
186.40000000000001
 20
119.0
 30
20.300000000000001
 70
   192
  0
VERTEX
  5
284D
  8
LAYER1
 10
186.40000000000001
 20
116.0
 30
20.300000000000001
 70
   192
  0
VERTEX
  5
284E
  8
LAYER1
 10
186.40000000000001
 20
113.0
 30
20.300000000000001
 70
   192
  0
VERTEX
  5
284F
  8
LAYER1
 10
186.40000000000001
 20
119.0
 30
47.700000000000003
 70
   192
  0
VERTEX
  5
2850
  8
LAYER1
 10
186.40000000000001
 20
116.0
 30
47.700000000000003
 70
   192
  0
VERTEX
  5
2851
  8
LAYER1
 10
186.40000000000001
 20
113.0
 30
47.700000000000003
 70
   192
  0
VERTEX
  5
2852
  8
LAYER1
 10
184.0
 20
119.0
 30
20.0
 70
   192
  0
VERTEX
  5
2853
  8
LAYER1
 10
184.0
 20
116.0
 30
20.0
 70
   192
  0
VERTEX
  5
2854
  8
LAYER1
 10
184.0
 20
113.0
 30
20.0
 70
   192
  0
VERTEX
  5
2855
  8
LAYER1
 10
184.0
 20
121.0
 30
21.0
 70
   192
  0
VERTEX
  5
2856
  8
LAYER1
 10
184.0
 20
111.0
 30
21.0
 70
   192
  0
VERTEX
  5
2857
  8
LAYER1
 10
184.0
 20
130.0
 30
23.0
 70
   192
  0
VERTEX
  5
2858
  8
LAYER1
 10
184.0
 20
123.0
 30
23.0
 70
   192
  0
VERTEX
  5
2859
  8
LAYER1
 10
184.0
 20
109.0
 30
23.0
 70
   192
  0
VERTEX
  5
285A
  8
LAYER1
 10
184.0
 20
130.0
 30
45.0
 70
   192
  0
VERTEX
  5
285B
  8
LAYER1
 10
184.0
 20
123.0
 30
45.0
 70
   192
  0
VERTEX
  5
285C
  8
LAYER1
 10
184.0
 20
109.0
 30
45.0
 70
   192
  0
VERTEX
  5
285D
  8
LAYER1
 10
184.0
 20
121.0
 30
47.0
 70
   192
  0
VERTEX
  5
285E
  8
LAYER1
 10
184.0
 20
111.0
 30
47.0
 70
   192
  0
VERTEX
  5
285F
  8
LAYER1
 10
184.0
 20
119.0
 30
48.0
 70
   192
  0
VERTEX
  5
2860
  8
LAYER1
 10
184.0
 20
116.0
 30
48.0
 70
   192
  0
VERTEX
  5
2861
  8
LAYER1
 10
184.0
 20
113.0
 30
48.0
 70
   192
  0
VERTEX
  5
2862
  8
LAYER1
 10
181.59999999999999
 20
119.0
 30
20.300000000000001
 70
   192
  0
VERTEX
  5
2863
  8
LAYER1
 10
181.59999999999999
 20
116.0
 30
20.300000000000001
 70
   192
  0
VERTEX
  5
2864
  8
LAYER1
 10
181.59999999999999
 20
113.0
 30
20.300000000000001
 70
   192
  0
VERTEX
  5
2865
  8
LAYER1
 10
181.59999999999999
 20
119.0
 30
47.700000000000003
 70
   192
  0
VERTEX
  5
2866
  8
LAYER1
 10
181.59999999999999
 20
116.0
 30
47.700000000000003
 70
   192
  0
VERTEX
  5
2867
  8
LAYER1
 10
181.59999999999999
 20
113.0
 30
47.700000000000003
 70
   192
  0
VERTEX
  5
2868
  8
LAYER1
 10
181.1999999999999
 20
130.0
 30
23.399999999999991
 70
   192
  0
VERTEX
  5
2869
  8
LAYER1
 10
181.1999999999999
 20
123.0
 30
23.399999999999991
 70
   192
  0
VERTEX
  5
286A
  8
LAYER1
 10
181.1999999999999
 20
109.0
 30
23.399999999999991
 70
   192
  0
VERTEX
  5
286B
  8
LAYER1
 10
181.1999999999999
 20
130.0
 30
44.599999999999987
 70
   192
  0
VERTEX
  5
286C
  8
LAYER1
 10
181.1999999999999
 20
123.0
 30
44.599999999999987
 70
   192
  0
VERTEX
  5
286D
  8
LAYER1
 10
181.1999999999999
 20
109.0
 30
44.599999999999987
 70
   192
  0
VERTEX
  5
286E
  8
LAYER1
 10
180.59999999999999
 20
121.0
 30
21.499999999999989
 70
   192
  0
VERTEX
  5
286F
  8
LAYER1
 10
180.59999999999999
 20
111.0
 30
21.499999999999989
 70
   192
  0
VERTEX
  5
2870
  8
LAYER1
 10
180.59999999999999
 20
121.0
 30
46.5
 70
   192
  0
VERTEX
  5
2871
  8
LAYER1
 10
180.59999999999999
 20
111.0
 30
46.5
 70
   192
  0
VERTEX
  5
2872
  8
LAYER1
 10
178.5
 20
130.0
 30
24.5
 70
   192
  0
VERTEX
  5
2873
  8
LAYER1
 10
178.5
 20
123.0
 30
24.5
 70
   192
  0
VERTEX
  5
2874
  8
LAYER1
 10
178.5
 20
109.0
 30
24.5
 70
   192
  0
VERTEX
  5
2875
  8
LAYER1
 10
178.5
 20
130.0
 30
43.5
 70
   192
  0
VERTEX
  5
2876
  8
LAYER1
 10
178.5
 20
123.0
 30
43.5
 70
   192
  0
VERTEX
  5
2877
  8
LAYER1
 10
178.5
 20
109.0
 30
43.5
 70
   192
  0
VERTEX
  5
2878
  8
LAYER1
 10
177.5
 20
119.0
 30
22.600000000000001
 70
   192
  0
VERTEX
  5
2879
  8
LAYER1
 10
177.5
 20
116.0
 30
22.600000000000001
 70
   192
  0
VERTEX
  5
287A
  8
LAYER1
 10
177.5
 20
113.0
 30
22.600000000000001
 70
   192
  0
VERTEX
  5
287B
  8
LAYER1
 10
177.5
 20
121.0
 30
22.699999999999999
 70
   192
  0
VERTEX
  5
287C
  8
LAYER1
 10
177.5
 20
111.0
 30
22.699999999999999
 70
   192
  0
VERTEX
  5
287D
  8
LAYER1
 10
177.5
 20
121.0
 30
45.299999999999997
 70
   192
  0
VERTEX
  5
287E
  8
LAYER1
 10
177.5
 20
111.0
 30
45.299999999999997
 70
   192
  0
VERTEX
  5
287F
  8
LAYER1
 10
177.5
 20
119.0
 30
45.399999999999999
 70
   192
  0
VERTEX
  5
2880
  8
LAYER1
 10
177.5
 20
116.0
 30
45.399999999999999
 70
   192
  0
VERTEX
  5
2881
  8
LAYER1
 10
177.5
 20
113.0
 30
45.399999999999999
 70
   192
  0
VERTEX
  5
2882
  8
LAYER1
 10
176.19999999999999
 20
130.0
 30
26.199999999999999
 70
   192
  0
VERTEX
  5
2883
  8
LAYER1
 10
176.19999999999999
 20
123.0
 30
26.199999999999999
 70
   192
  0
VERTEX
  5
2884
  8
LAYER1
 10
176.19999999999999
 20
109.0
 30
26.199999999999999
 70
   192
  0
VERTEX
  5
2885
  8
LAYER1
 10
176.19999999999999
 20
130.0
 30
41.79999999999999
 70
   192
  0
VERTEX
  5
2886
  8
LAYER1
 10
176.19999999999999
 20
123.0
 30
41.79999999999999
 70
   192
  0
VERTEX
  5
2887
  8
LAYER1
 10
176.19999999999999
 20
109.0
 30
41.79999999999999
 70
   192
  0
VERTEX
  5
2888
  8
LAYER1
 10
174.80000000000001
 20
121.0
 30
24.800000000000001
 70
   192
  0
VERTEX
  5
2889
  8
LAYER1
 10
174.80000000000001
 20
111.0
 30
24.800000000000001
 70
   192
  0
VERTEX
  5
288A
  8
LAYER1
 10
174.80000000000001
 20
121.0
 30
43.200000000000003
 70
   192
  0
VERTEX
  5
288B
  8
LAYER1
 10
174.80000000000001
 20
111.0
 30
43.200000000000003
 70
   192
  0
VERTEX
  5
288C
  8
LAYER1
 10
174.5
 20
130.0
 30
28.5
 70
   192
  0
VERTEX
  5
288D
  8
LAYER1
 10
174.5
 20
123.0
 30
28.5
 70
   192
  0
VERTEX
  5
288E
  8
LAYER1
 10
174.5
 20
109.0
 30
28.5
 70
   192
  0
VERTEX
  5
288F
  8
LAYER1
 10
174.5
 20
130.0
 30
39.5
 70
   192
  0
VERTEX
  5
2890
  8
LAYER1
 10
174.5
 20
123.0
 30
39.5
 70
   192
  0
VERTEX
  5
2891
  8
LAYER1
 10
174.5
 20
109.0
 30
39.5
 70
   192
  0
VERTEX
  5
2892
  8
LAYER1
 10
173.59999999999991
 20
119.0
 30
24.800000000000001
 70
   192
  0
VERTEX
  5
2893
  8
LAYER1
 10
173.59999999999991
 20
116.0
 30
24.800000000000001
 70
   192
  0
VERTEX
  5
2894
  8
LAYER1
 10
173.59999999999991
 20
113.0
 30
24.800000000000001
 70
   192
  0
VERTEX
  5
2895
  8
LAYER1
 10
173.59999999999991
 20
119.0
 30
43.200000000000003
 70
   192
  0
VERTEX
  5
2896
  8
LAYER1
 10
173.59999999999991
 20
116.0
 30
43.200000000000003
 70
   192
  0
VERTEX
  5
2897
  8
LAYER1
 10
173.59999999999991
 20
113.0
 30
43.200000000000003
 70
   192
  0
VERTEX
  5
2898
  8
LAYER1
 10
173.39999999999989
 20
130.0
 30
31.199999999999999
 70
   192
  0
VERTEX
  5
2899
  8
LAYER1
 10
173.39999999999989
 20
123.0
 30
31.199999999999999
 70
   192
  0
VERTEX
  5
289A
  8
LAYER1
 10
173.39999999999989
 20
109.0
 30
31.199999999999999
 70
   192
  0
VERTEX
  5
289B
  8
LAYER1
 10
173.39999999999989
 20
130.0
 30
36.79999999999999
 70
   192
  0
VERTEX
  5
289C
  8
LAYER1
 10
173.39999999999989
 20
123.0
 30
36.79999999999999
 70
   192
  0
VERTEX
  5
289D
  8
LAYER1
 10
173.39999999999989
 20
109.0
 30
36.79999999999999
 70
   192
  0
VERTEX
  5
289E
  8
LAYER1
 10
173.0
 20
130.0
 30
34.0
 70
   192
  0
VERTEX
  5
289F
  8
LAYER1
 10
173.0
 20
123.0
 30
34.0
 70
   192
  0
VERTEX
  5
28A0
  8
LAYER1
 10
173.0
 20
109.0
 30
34.0
 70
   192
  0
VERTEX
  5
28A1
  8
LAYER1
 10
172.6999999999999
 20
121.0
 30
27.5
 70
   192
  0
VERTEX
  5
28A2
  8
LAYER1
 10
172.6999999999999
 20
111.0
 30
27.5
 70
   192
  0
VERTEX
  5
28A3
  8
LAYER1
 10
172.6999999999999
 20
121.0
 30
40.499999999999993
 70
   192
  0
VERTEX
  5
28A4
  8
LAYER1
 10
172.6999999999999
 20
111.0
 30
40.499999999999993
 70
   192
  0
VERTEX
  5
28A5
  8
LAYER1
 10
171.90000000000001
 20
119.0
 30
27.0
 70
   192
  0
VERTEX
  5
28A6
  8
LAYER1
 10
171.90000000000001
 20
116.0
 30
27.0
 70
   192
  0
VERTEX
  5
28A7
  8
LAYER1
 10
171.90000000000001
 20
113.0
 30
27.0
 70
   192
  0
VERTEX
  5
28A8
  8
LAYER1
 10
171.90000000000001
 20
119.0
 30
41.0
 70
   192
  0
VERTEX
  5
28A9
  8
LAYER1
 10
171.90000000000001
 20
116.0
 30
41.0
 70
   192
  0
VERTEX
  5
28AA
  8
LAYER1
 10
171.90000000000001
 20
113.0
 30
41.0
 70
   192
  0
VERTEX
  5
28AB
  8
LAYER1
 10
171.5
 20
121.0
 30
30.600000000000001
 70
   192
  0
VERTEX
  5
28AC
  8
LAYER1
 10
171.5
 20
111.0
 30
30.600000000000001
 70
   192
  0
VERTEX
  5
28AD
  8
LAYER1
 10
171.5
 20
121.0
 30
37.399999999999999
 70
   192
  0
VERTEX
  5
28AE
  8
LAYER1
 10
171.5
 20
111.0
 30
37.399999999999999
 70
   192
  0
VERTEX
  5
28AF
  8
LAYER1
 10
171.0
 20
119.0
 30
29.199999999999989
 70
   192
  0
VERTEX
  5
28B0
  8
LAYER1
 10
171.0
 20
116.0
 30
29.199999999999989
 70
   192
  0
VERTEX
  5
28B1
  8
LAYER1
 10
171.0
 20
113.0
 30
29.199999999999989
 70
   192
  0
VERTEX
  5
28B2
  8
LAYER1
 10
171.0
 20
121.0
 30
34.0
 70
   192
  0
VERTEX
  5
28B3
  8
LAYER1
 10
171.0
 20
119.0
 30
34.0
 70
   192
  0
VERTEX
  5
28B4
  8
LAYER1
 10
171.0
 20
116.0
 30
34.0
 70
   192
  0
VERTEX
  5
28B5
  8
LAYER1
 10
171.0
 20
113.0
 30
34.0
 70
   192
  0
VERTEX
  5
28B6
  8
LAYER1
 10
171.0
 20
111.0
 30
34.0
 70
   192
  0
VERTEX
  5
28B7
  8
LAYER1
 10
171.0
 20
119.0
 30
38.79999999999999
 70
   192
  0
VERTEX
  5
28B8
  8
LAYER1
 10
171.0
 20
116.0
 30
38.79999999999999
 70
   192
  0
VERTEX
  5
28B9
  8
LAYER1
 10
171.0
 20
113.0
 30
38.79999999999999
 70
   192
  0
VERTEX
  5
28BA
  8
LAYER1
 10
0.0
 20
0.0
 30
0.0
 70
   128
 71
    79
 72
    74
 73
    93
 74
    96
  0
VERTEX
  5
28BB
  8
LAYER1
 10
0.0
 20
0.0
 30
0.0
 70
   128
 71
    69
 72
    61
 73
    74
 74
    79
  0
VERTEX
  5
28BC
  8
LAYER1
 10
0.0
 20
0.0
 30
0.0
 70
   128
 71
    53
 72
    48
 73
    61
 74
    69
  0
VERTEX
  5
28BD
  8
LAYER1
 10
0.0
 20
0.0
 30
0.0
 70
   128
 71
    43
 72
    23
 73
    48
 74
    53
  0
VERTEX
  5
28BE
  8
LAYER1
 10
0.0
 20
0.0
 30
0.0
 70
   128
 71
    31
 72
    13
 73
    23
 74
    43
  0
VERTEX
  5
28BF
  8
LAYER1
 10
0.0
 20
0.0
 30
0.0
 70
   128
 71
    28
 72
     8
 73
    13
 74
    31
  0
VERTEX
  5
28C0
  8
LAYER1
 10
0.0
 20
0.0
 30
0.0
 70
   128
 71
    74
 72
    85
 73
    91
 74
    93
  0
VERTEX
  5
28C1
  8
LAYER1
 10
0.0
 20
0.0
 30
0.0
 70
   128
 71
    61
 72
    59
 73
    85
 74
    74
  0
VERTEX
  5
28C2
  8
LAYER1
 10
0.0
 20
0.0
 30
0.0
 70
   128
 71
    48
 72
    37
 73
    59
 74
    61
  0
VERTEX
  5
28C3
  8
LAYER1
 10
0.0
 20
0.0
 30
0.0
 70
   128
 71
    23
 72
    18
 73
    37
 74
    48
  0
VERTEX
  5
28C4
  8
LAYER1
 10
0.0
 20
0.0
 30
0.0
 70
   128
 71
    13
 72
     3
 73
    18
 74
    23
  0
VERTEX
  5
28C5
  8
LAYER1
 10
0.0
 20
0.0
 30
0.0
 70
   128
 71
     8
 72
     7
 73
     3
 74
    13
  0
VERTEX
  5
28C6
  8
LAYER1
 10
0.0
 20
0.0
 30
0.0
 70
   128
 71
    85
 72
    84
 73
    90
 74
    91
  0
VERTEX
  5
28C7
  8
LAYER1
 10
0.0
 20
0.0
 30
0.0
 70
   128
 71
    59
 72
    58
 73
    84
 74
    85
  0
VERTEX
  5
28C8
  8
LAYER1
 10
0.0
 20
0.0
 30
0.0
 70
   128
 71
    37
 72
    36
 73
    58
 74
    59
  0
VERTEX
  5
28C9
  8
LAYER1
 10
0.0
 20
0.0
 30
0.0
 70
   128
 71
    18
 72
    17
 73
    36
 74
    37
  0
VERTEX
  5
28CA
  8
LAYER1
 10
0.0
 20
0.0
 30
0.0
 70
   128
 71
     3
 72
     2
 73
    17
 74
    18
  0
VERTEX
  5
28CB
  8
LAYER1
 10
0.0
 20
0.0
 30
0.0
 70
   128
 71
     7
 72
     6
 73
     2
 74
     3
  0
VERTEX
  5
28CC
  8
LAYER1
 10
0.0
 20
0.0
 30
0.0
 70
   128
 71
    99
 72
   101
 73
    76
 74
    82
  0
VERTEX
  5
28CD
  8
LAYER1
 10
0.0
 20
0.0
 30
0.0
 70
   128
 71
    82
 72
    76
 73
    63
 74
    72
  0
VERTEX
  5
28CE
  8
LAYER1
 10
0.0
 20
0.0
 30
0.0
 70
   128
 71
    72
 72
    63
 73
    50
 74
    56
  0
VERTEX
  5
28CF
  8
LAYER1
 10
0.0
 20
0.0
 30
0.0
 70
   128
 71
    56
 72
    50
 73
    25
 74
    46
  0
VERTEX
  5
28D0
  8
LAYER1
 10
0.0
 20
0.0
 30
0.0
 70
   128
 71
    46
 72
    25
 73
    15
 74
    34
  0
VERTEX
  5
28D1
  8
LAYER1
 10
0.0
 20
0.0
 30
0.0
 70
   128
 71
    34
 72
    15
 73
     8
 74
    28
  0
VERTEX
  5
28D2
  8
LAYER1
 10
0.0
 20
0.0
 30
0.0
 70
   128
 71
   101
 72
   104
 73
    88
 74
    76
  0
VERTEX
  5
28D3
  8
LAYER1
 10
0.0
 20
0.0
 30
0.0
 70
   128
 71
    76
 72
    88
 73
    66
 74
    63
  0
VERTEX
  5
28D4
  8
LAYER1
 10
0.0
 20
0.0
 30
0.0
 70
   128
 71
    63
 72
    66
 73
    40
 74
    50
  0
VERTEX
  5
28D5
  8
LAYER1
 10
0.0
 20
0.0
 30
0.0
 70
   128
 71
    50
 72
    40
 73
    21
 74
    25
  0
VERTEX
  5
28D6
  8
LAYER1
 10
0.0
 20
0.0
 30
0.0
 70
   128
 71
    25
 72
    21
 73
    11
 74
    15
  0
VERTEX
  5
28D7
  8
LAYER1
 10
0.0
 20
0.0
 30
0.0
 70
   128
 71
    15
 72
    11
 73
     7
 74
     8
  0
VERTEX
  5
28D8
  8
LAYER1
 10
0.0
 20
0.0
 30
0.0
 70
   128
 71
   104
 72
   103
 73
    87
 74
    88
  0
VERTEX
  5
28D9
  8
LAYER1
 10
0.0
 20
0.0
 30
0.0
 70
   128
 71
    88
 72
    87
 73
    65
 74
    66
  0
VERTEX
  5
28DA
  8
LAYER1
 10
0.0
 20
0.0
 30
0.0
 70
   128
 71
    66
 72
    65
 73
    39
 74
    40
  0
VERTEX
  5
28DB
  8
LAYER1
 10
0.0
 20
0.0
 30
0.0
 70
   128
 71
    40
 72
    39
 73
    20
 74
    21
  0
VERTEX
  5
28DC
  8
LAYER1
 10
0.0
 20
0.0
 30
0.0
 70
   128
 71
    21
 72
    20
 73
    10
 74
    11
  0
VERTEX
  5
28DD
  8
LAYER1
 10
0.0
 20
0.0
 30
0.0
 70
   128
 71
    11
 72
    10
 73
     6
 74
     7
  0
VERTEX
  5
28DE
  8
LAYER1
 10
0.0
 20
0.0
 30
0.0
 70
   128
 71
    81
 72
    75
 73
   100
 74
    98
  0
VERTEX
  5
28DF
  8
LAYER1
 10
0.0
 20
0.0
 30
0.0
 70
   128
 71
    71
 72
    62
 73
    75
 74
    81
  0
VERTEX
  5
28E0
  8
LAYER1
 10
0.0
 20
0.0
 30
0.0
 70
   128
 71
    55
 72
    49
 73
    62
 74
    71
  0
VERTEX
  5
28E1
  8
LAYER1
 10
0.0
 20
0.0
 30
0.0
 70
   128
 71
    45
 72
    24
 73
    49
 74
    55
  0
VERTEX
  5
28E2
  8
LAYER1
 10
0.0
 20
0.0
 30
0.0
 70
   128
 71
    33
 72
    14
 73
    24
 74
    45
  0
VERTEX
  5
28E3
  8
LAYER1
 10
0.0
 20
0.0
 30
0.0
 70
   128
 71
    27
 72
     4
 73
    14
 74
    33
  0
VERTEX
  5
28E4
  8
LAYER1
 10
0.0
 20
0.0
 30
0.0
 70
   128
 71
    75
 72
    86
 73
   102
 74
   100
  0
VERTEX
  5
28E5
  8
LAYER1
 10
0.0
 20
0.0
 30
0.0
 70
   128
 71
    62
 72
    64
 73
    86
 74
    75
  0
VERTEX
  5
28E6
  8
LAYER1
 10
0.0
 20
0.0
 30
0.0
 70
   128
 71
    49
 72
    38
 73
    64
 74
    62
  0
VERTEX
  5
28E7
  8
LAYER1
 10
0.0
 20
0.0
 30
0.0
 70
   128
 71
    24
 72
    19
 73
    38
 74
    49
  0
VERTEX
  5
28E8
  8
LAYER1
 10
0.0
 20
0.0
 30
0.0
 70
   128
 71
    14
 72
     9
 73
    19
 74
    24
  0
VERTEX
  5
28E9
  8
LAYER1
 10
0.0
 20
0.0
 30
0.0
 70
   128
 71
     4
 72
     5
 73
     9
 74
    14
  0
VERTEX
  5
28EA
  8
LAYER1
 10
0.0
 20
0.0
 30
0.0
 70
   128
 71
    86
 72
    87
 73
   103
 74
   102
  0
VERTEX
  5
28EB
  8
LAYER1
 10
0.0
 20
0.0
 30
0.0
 70
   128
 71
    64
 72
    65
 73
    87
 74
    86
  0
VERTEX
  5
28EC
  8
LAYER1
 10
0.0
 20
0.0
 30
0.0
 70
   128
 71
    38
 72
    39
 73
    65
 74
    64
  0
VERTEX
  5
28ED
  8
LAYER1
 10
0.0
 20
0.0
 30
0.0
 70
   128
 71
    19
 72
    20
 73
    39
 74
    38
  0
VERTEX
  5
28EE
  8
LAYER1
 10
0.0
 20
0.0
 30
0.0
 70
   128
 71
     9
 72
    10
 73
    20
 74
    19
  0
VERTEX
  5
28EF
  8
LAYER1
 10
0.0
 20
0.0
 30
0.0
 70
   128
 71
     5
 72
     6
 73
    10
 74
     9
  0
VERTEX
  5
28F0
  8
LAYER1
 10
0.0
 20
0.0
 30
0.0
 70
   128
 71
    95
 72
    92
 73
    73
 74
    78
  0
VERTEX
  5
28F1
  8
LAYER1
 10
0.0
 20
0.0
 30
0.0
 70
   128
 71
    78
 72
    73
 73
    60
 74
    68
  0
VERTEX
  5
28F2
  8
LAYER1
 10
0.0
 20
0.0
 30
0.0
 70
   128
 71
    68
 72
    60
 73
    47
 74
    52
  0
VERTEX
  5
28F3
  8
LAYER1
 10
0.0
 20
0.0
 30
0.0
 70
   128
 71
    52
 72
    47
 73
    22
 74
    42
  0
VERTEX
  5
28F4
  8
LAYER1
 10
0.0
 20
0.0
 30
0.0
 70
   128
 71
    42
 72
    22
 73
    12
 74
    30
  0
VERTEX
  5
28F5
  8
LAYER1
 10
0.0
 20
0.0
 30
0.0
 70
   128
 71
    30
 72
    12
 73
     4
 74
    27
  0
VERTEX
  5
28F6
  8
LAYER1
 10
0.0
 20
0.0
 30
0.0
 70
   128
 71
    92
 72
    89
 73
    83
 74
    73
  0
VERTEX
  5
28F7
  8
LAYER1
 10
0.0
 20
0.0
 30
0.0
 70
   128
 71
    73
 72
    83
 73
    57
 74
    60
  0
VERTEX
  5
28F8
  8
LAYER1
 10
0.0
 20
0.0
 30
0.0
 70
   128
 71
    60
 72
    57
 73
    35
 74
    47
  0
VERTEX
  5
28F9
  8
LAYER1
 10
0.0
 20
0.0
 30
0.0
 70
   128
 71
    47
 72
    35
 73
    16
 74
    22
  0
VERTEX
  5
28FA
  8
LAYER1
 10
0.0
 20
0.0
 30
0.0
 70
   128
 71
    22
 72
    16
 73
     1
 74
    12
  0
VERTEX
  5
28FB
  8
LAYER1
 10
0.0
 20
0.0
 30
0.0
 70
   128
 71
    12
 72
     1
 73
     5
 74
     4
  0
VERTEX
  5
28FC
  8
LAYER1
 10
0.0
 20
0.0
 30
0.0
 70
   128
 71
    89
 72
    90
 73
    84
 74
    83
  0
VERTEX
  5
28FD
  8
LAYER1
 10
0.0
 20
0.0
 30
0.0
 70
   128
 71
    83
 72
    84
 73
    58
 74
    57
  0
VERTEX
  5
28FE
  8
LAYER1
 10
0.0
 20
0.0
 30
0.0
 70
   128
 71
    57
 72
    58
 73
    36
 74
    35
  0
VERTEX
  5
28FF
  8
LAYER1
 10
0.0
 20
0.0
 30
0.0
 70
   128
 71
    35
 72
    36
 73
    17
 74
    16
  0
VERTEX
  5
2900
  8
LAYER1
 10
0.0
 20
0.0
 30
0.0
 70
   128
 71
    16
 72
    17
 73
     2
 74
     1
  0
VERTEX
  5
2901
  8
LAYER1
 10
0.0
 20
0.0
 30
0.0
 70
   128
 71
     1
 72
     2
 73
     6
 74
     5
  0
VERTEX
  5
2902
  8
LAYER1
 10
0.0
 20
0.0
 30
0.0
 70
   128
 71
    78
 72
    77
 73
    94
 74
    95
  0
VERTEX
  5
2903
  8
LAYER1
 10
0.0
 20
0.0
 30
0.0
 70
   128
 71
    68
 72
    67
 73
    77
 74
    78
  0
VERTEX
  5
2904
  8
LAYER1
 10
0.0
 20
0.0
 30
0.0
 70
   128
 71
    52
 72
    51
 73
    67
 74
    68
  0
VERTEX
  5
2905
  8
LAYER1
 10
0.0
 20
0.0
 30
0.0
 70
   128
 71
    42
 72
    41
 73
    51
 74
    52
  0
VERTEX
  5
2906
  8
LAYER1
 10
0.0
 20
0.0
 30
0.0
 70
   128
 71
    30
 72
    29
 73
    41
 74
    42
  0
VERTEX
  5
2907
  8
LAYER1
 10
0.0
 20
0.0
 30
0.0
 70
   128
 71
    27
 72
    26
 73
    29
 74
    30
  0
VERTEX
  5
2908
  8
LAYER1
 10
0.0
 20
0.0
 30
0.0
 70
   128
 71
    98
 72
    97
 73
    80
 74
    81
  0
VERTEX
  5
2909
  8
LAYER1
 10
0.0
 20
0.0
 30
0.0
 70
   128
 71
    81
 72
    80
 73
    70
 74
    71
  0
VERTEX
  5
290A
  8
LAYER1
 10
0.0
 20
0.0
 30
0.0
 70
   128
 71
    71
 72
    70
 73
    54
 74
    55
  0
VERTEX
  5
290B
  8
LAYER1
 10
0.0
 20
0.0
 30
0.0
 70
   128
 71
    55
 72
    54
 73
    44
 74
    45
  0
VERTEX
  5
290C
  8
LAYER1
 10
0.0
 20
0.0
 30
0.0
 70
   128
 71
    45
 72
    44
 73
    32
 74
    33
  0
VERTEX
  5
290D
  8
LAYER1
 10
0.0
 20
0.0
 30
0.0
 70
   128
 71
    33
 72
    32
 73
    26
 74
    27
  0
VERTEX
  5
290E
  8
LAYER1
 10
0.0
 20
0.0
 30
0.0
 70
   128
 71
    96
 72
    93
 73
   118
 74
   113
  0
VERTEX
  5
290F
  8
LAYER1
 10
0.0
 20
0.0
 30
0.0
 70
   128
 71
   113
 72
   118
 73
   131
 74
   123
  0
VERTEX
  5
2910
  8
LAYER1
 10
0.0
 20
0.0
 30
0.0
 70
   128
 71
   123
 72
   131
 73
   144
 74
   139
  0
VERTEX
  5
2911
  8
LAYER1
 10
0.0
 20
0.0
 30
0.0
 70
   128
 71
   139
 72
   144
 73
   169
 74
   149
  0
VERTEX
  5
2912
  8
LAYER1
 10
0.0
 20
0.0
 30
0.0
 70
   128
 71
   149
 72
   169
 73
   179
 74
   161
  0
VERTEX
  5
2913
  8
LAYER1
 10
0.0
 20
0.0
 30
0.0
 70
   128
 71
   161
 72
   179
 73
   189
 74
   167
  0
VERTEX
  5
2914
  8
LAYER1
 10
0.0
 20
0.0
 30
0.0
 70
   128
 71
    93
 72
    91
 73
   107
 74
   118
  0
VERTEX
  5
2915
  8
LAYER1
 10
0.0
 20
0.0
 30
0.0
 70
   128
 71
   118
 72
   107
 73
   129
 74
   131
  0
VERTEX
  5
2916
  8
LAYER1
 10
0.0
 20
0.0
 30
0.0
 70
   128
 71
   131
 72
   129
 73
   155
 74
   144
  0
VERTEX
  5
2917
  8
LAYER1
 10
0.0
 20
0.0
 30
0.0
 70
   128
 71
   144
 72
   155
 73
   174
 74
   169
  0
VERTEX
  5
2918
  8
LAYER1
 10
0.0
 20
0.0
 30
0.0
 70
   128
 71
   169
 72
   174
 73
   184
 74
   179
  0
VERTEX
  5
2919
  8
LAYER1
 10
0.0
 20
0.0
 30
0.0
 70
   128
 71
   179
 72
   184
 73
   188
 74
   189
  0
VERTEX
  5
291A
  8
LAYER1
 10
0.0
 20
0.0
 30
0.0
 70
   128
 71
    91
 72
    90
 73
   106
 74
   107
  0
VERTEX
  5
291B
  8
LAYER1
 10
0.0
 20
0.0
 30
0.0
 70
   128
 71
   107
 72
   106
 73
   128
 74
   129
  0
VERTEX
  5
291C
  8
LAYER1
 10
0.0
 20
0.0
 30
0.0
 70
   128
 71
   129
 72
   128
 73
   154
 74
   155
  0
VERTEX
  5
291D
  8
LAYER1
 10
0.0
 20
0.0
 30
0.0
 70
   128
 71
   155
 72
   154
 73
   173
 74
   174
  0
VERTEX
  5
291E
  8
LAYER1
 10
0.0
 20
0.0
 30
0.0
 70
   128
 71
   174
 72
   173
 73
   183
 74
   184
  0
VERTEX
  5
291F
  8
LAYER1
 10
0.0
 20
0.0
 30
0.0
 70
   128
 71
   184
 72
   183
 73
   187
 74
   188
  0
VERTEX
  5
2920
  8
LAYER1
 10
0.0
 20
0.0
 30
0.0
 70
   128
 71
   112
 72
   117
 73
    92
 74
    95
  0
VERTEX
  5
2921
  8
LAYER1
 10
0.0
 20
0.0
 30
0.0
 70
   128
 71
   122
 72
   130
 73
   117
 74
   112
  0
VERTEX
  5
2922
  8
LAYER1
 10
0.0
 20
0.0
 30
0.0
 70
   128
 71
   138
 72
   143
 73
   130
 74
   122
  0
VERTEX
  5
2923
  8
LAYER1
 10
0.0
 20
0.0
 30
0.0
 70
   128
 71
   148
 72
   168
 73
   143
 74
   138
  0
VERTEX
  5
2924
  8
LAYER1
 10
0.0
 20
0.0
 30
0.0
 70
   128
 71
   160
 72
   178
 73
   168
 74
   148
  0
VERTEX
  5
2925
  8
LAYER1
 10
0.0
 20
0.0
 30
0.0
 70
   128
 71
   166
 72
   185
 73
   178
 74
   160
  0
VERTEX
  5
2926
  8
LAYER1
 10
0.0
 20
0.0
 30
0.0
 70
   128
 71
   117
 72
   105
 73
    89
 74
    92
  0
VERTEX
  5
2927
  8
LAYER1
 10
0.0
 20
0.0
 30
0.0
 70
   128
 71
   130
 72
   127
 73
   105
 74
   117
  0
VERTEX
  5
2928
  8
LAYER1
 10
0.0
 20
0.0
 30
0.0
 70
   128
 71
   143
 72
   153
 73
   127
 74
   130
  0
VERTEX
  5
2929
  8
LAYER1
 10
0.0
 20
0.0
 30
0.0
 70
   128
 71
   168
 72
   172
 73
   153
 74
   143
  0
VERTEX
  5
292A
  8
LAYER1
 10
0.0
 20
0.0
 30
0.0
 70
   128
 71
   178
 72
   182
 73
   172
 74
   168
  0
VERTEX
  5
292B
  8
LAYER1
 10
0.0
 20
0.0
 30
0.0
 70
   128
 71
   185
 72
   186
 73
   182
 74
   178
  0
VERTEX
  5
292C
  8
LAYER1
 10
0.0
 20
0.0
 30
0.0
 70
   128
 71
   105
 72
   106
 73
    90
 74
    89
  0
VERTEX
  5
292D
  8
LAYER1
 10
0.0
 20
0.0
 30
0.0
 70
   128
 71
   127
 72
   128
 73
   106
 74
   105
  0
VERTEX
  5
292E
  8
LAYER1
 10
0.0
 20
0.0
 30
0.0
 70
   128
 71
   153
 72
   154
 73
   128
 74
   127
  0
VERTEX
  5
292F
  8
LAYER1
 10
0.0
 20
0.0
 30
0.0
 70
   128
 71
   172
 72
   173
 73
   154
 74
   153
  0
VERTEX
  5
2930
  8
LAYER1
 10
0.0
 20
0.0
 30
0.0
 70
   128
 71
   182
 72
   183
 73
   173
 74
   172
  0
VERTEX
  5
2931
  8
LAYER1
 10
0.0
 20
0.0
 30
0.0
 70
   128
 71
   186
 72
   187
 73
   183
 74
   182
  0
VERTEX
  5
2932
  8
LAYER1
 10
0.0
 20
0.0
 30
0.0
 70
   128
 71
    95
 72
    94
 73
   111
 74
   112
  0
VERTEX
  5
2933
  8
LAYER1
 10
0.0
 20
0.0
 30
0.0
 70
   128
 71
   112
 72
   111
 73
   121
 74
   122
  0
VERTEX
  5
2934
  8
LAYER1
 10
0.0
 20
0.0
 30
0.0
 70
   128
 71
   122
 72
   121
 73
   137
 74
   138
  0
VERTEX
  5
2935
  8
LAYER1
 10
0.0
 20
0.0
 30
0.0
 70
   128
 71
   138
 72
   137
 73
   147
 74
   148
  0
VERTEX
  5
2936
  8
LAYER1
 10
0.0
 20
0.0
 30
0.0
 70
   128
 71
   148
 72
   147
 73
   159
 74
   160
  0
VERTEX
  5
2937
  8
LAYER1
 10
0.0
 20
0.0
 30
0.0
 70
   128
 71
   160
 72
   159
 73
   165
 74
   166
  0
VERTEX
  5
2938
  8
LAYER1
 10
0.0
 20
0.0
 30
0.0
 70
   128
 71
   116
 72
   120
 73
   101
 74
    99
  0
VERTEX
  5
2939
  8
LAYER1
 10
0.0
 20
0.0
 30
0.0
 70
   128
 71
   126
 72
   133
 73
   120
 74
   116
  0
VERTEX
  5
293A
  8
LAYER1
 10
0.0
 20
0.0
 30
0.0
 70
   128
 71
   142
 72
   146
 73
   133
 74
   126
  0
VERTEX
  5
293B
  8
LAYER1
 10
0.0
 20
0.0
 30
0.0
 70
   128
 71
   152
 72
   171
 73
   146
 74
   142
  0
VERTEX
  5
293C
  8
LAYER1
 10
0.0
 20
0.0
 30
0.0
 70
   128
 71
   164
 72
   181
 73
   171
 74
   152
  0
VERTEX
  5
293D
  8
LAYER1
 10
0.0
 20
0.0
 30
0.0
 70
   128
 71
   167
 72
   189
 73
   181
 74
   164
  0
VERTEX
  5
293E
  8
LAYER1
 10
0.0
 20
0.0
 30
0.0
 70
   128
 71
   120
 72
   110
 73
   104
 74
   101
  0
VERTEX
  5
293F
  8
LAYER1
 10
0.0
 20
0.0
 30
0.0
 70
   128
 71
   133
 72
   136
 73
   110
 74
   120
  0
VERTEX
  5
2940
  8
LAYER1
 10
0.0
 20
0.0
 30
0.0
 70
   128
 71
   146
 72
   158
 73
   136
 74
   133
  0
VERTEX
  5
2941
  8
LAYER1
 10
0.0
 20
0.0
 30
0.0
 70
   128
 71
   171
 72
   177
 73
   158
 74
   146
  0
VERTEX
  5
2942
  8
LAYER1
 10
0.0
 20
0.0
 30
0.0
 70
   128
 71
   181
 72
   192
 73
   177
 74
   171
  0
VERTEX
  5
2943
  8
LAYER1
 10
0.0
 20
0.0
 30
0.0
 70
   128
 71
   189
 72
   188
 73
   192
 74
   181
  0
VERTEX
  5
2944
  8
LAYER1
 10
0.0
 20
0.0
 30
0.0
 70
   128
 71
   110
 72
   109
 73
   103
 74
   104
  0
VERTEX
  5
2945
  8
LAYER1
 10
0.0
 20
0.0
 30
0.0
 70
   128
 71
   136
 72
   135
 73
   109
 74
   110
  0
VERTEX
  5
2946
  8
LAYER1
 10
0.0
 20
0.0
 30
0.0
 70
   128
 71
   158
 72
   157
 73
   135
 74
   136
  0
VERTEX
  5
2947
  8
LAYER1
 10
0.0
 20
0.0
 30
0.0
 70
   128
 71
   177
 72
   176
 73
   157
 74
   158
  0
VERTEX
  5
2948
  8
LAYER1
 10
0.0
 20
0.0
 30
0.0
 70
   128
 71
   192
 72
   191
 73
   176
 74
   177
  0
VERTEX
  5
2949
  8
LAYER1
 10
0.0
 20
0.0
 30
0.0
 70
   128
 71
   188
 72
   187
 73
   191
 74
   192
  0
VERTEX
  5
294A
  8
LAYER1
 10
0.0
 20
0.0
 30
0.0
 70
   128
 71
    98
 72
   100
 73
   119
 74
   115
  0
VERTEX
  5
294B
  8
LAYER1
 10
0.0
 20
0.0
 30
0.0
 70
   128
 71
   115
 72
   119
 73
   132
 74
   125
  0
VERTEX
  5
294C
  8
LAYER1
 10
0.0
 20
0.0
 30
0.0
 70
   128
 71
   125
 72
   132
 73
   145
 74
   141
  0
VERTEX
  5
294D
  8
LAYER1
 10
0.0
 20
0.0
 30
0.0
 70
   128
 71
   141
 72
   145
 73
   170
 74
   151
  0
VERTEX
  5
294E
  8
LAYER1
 10
0.0
 20
0.0
 30
0.0
 70
   128
 71
   151
 72
   170
 73
   180
 74
   163
  0
VERTEX
  5
294F
  8
LAYER1
 10
0.0
 20
0.0
 30
0.0
 70
   128
 71
   163
 72
   180
 73
   185
 74
   166
  0
VERTEX
  5
2950
  8
LAYER1
 10
0.0
 20
0.0
 30
0.0
 70
   128
 71
   100
 72
   102
 73
   108
 74
   119
  0
VERTEX
  5
2951
  8
LAYER1
 10
0.0
 20
0.0
 30
0.0
 70
   128
 71
   119
 72
   108
 73
   134
 74
   132
  0
VERTEX
  5
2952
  8
LAYER1
 10
0.0
 20
0.0
 30
0.0
 70
   128
 71
   132
 72
   134
 73
   156
 74
   145
  0
VERTEX
  5
2953
  8
LAYER1
 10
0.0
 20
0.0
 30
0.0
 70
   128
 71
   145
 72
   156
 73
   175
 74
   170
  0
VERTEX
  5
2954
  8
LAYER1
 10
0.0
 20
0.0
 30
0.0
 70
   128
 71
   170
 72
   175
 73
   190
 74
   180
  0
VERTEX
  5
2955
  8
LAYER1
 10
0.0
 20
0.0
 30
0.0
 70
   128
 71
   180
 72
   190
 73
   186
 74
   185
  0
VERTEX
  5
2956
  8
LAYER1
 10
0.0
 20
0.0
 30
0.0
 70
   128
 71
   102
 72
   103
 73
   109
 74
   108
  0
VERTEX
  5
2957
  8
LAYER1
 10
0.0
 20
0.0
 30
0.0
 70
   128
 71
   108
 72
   109
 73
   135
 74
   134
  0
VERTEX
  5
2958
  8
LAYER1
 10
0.0
 20
0.0
 30
0.0
 70
   128
 71
   134
 72
   135
 73
   157
 74
   156
  0
VERTEX
  5
2959
  8
LAYER1
 10
0.0
 20
0.0
 30
0.0
 70
   128
 71
   156
 72
   157
 73
   176
 74
   175
  0
VERTEX
  5
295A
  8
LAYER1
 10
0.0
 20
0.0
 30
0.0
 70
   128
 71
   175
 72
   176
 73
   191
 74
   190
  0
VERTEX
  5
295B
  8
LAYER1
 10
0.0
 20
0.0
 30
0.0
 70
   128
 71
   190
 72
   191
 73
   187
 74
   186
  0
VERTEX
  5
295C
  8
LAYER1
 10
0.0
 20
0.0
 30
0.0
 70
   128
 71
   115
 72
   114
 73
    97
 74
    98
  0
VERTEX
  5
295D
  8
LAYER1
 10
0.0
 20
0.0
 30
0.0
 70
   128
 71
   125
 72
   124
 73
   114
 74
   115
  0
VERTEX
  5
295E
  8
LAYER1
 10
0.0
 20
0.0
 30
0.0
 70
   128
 71
   141
 72
   140
 73
   124
 74
   125
  0
VERTEX
  5
295F
  8
LAYER1
 10
0.0
 20
0.0
 30
0.0
 70
   128
 71
   151
 72
   150
 73
   140
 74
   141
  0
VERTEX
  5
2960
  8
LAYER1
 10
0.0
 20
0.0
 30
0.0
 70
   128
 71
   163
 72
   162
 73
   150
 74
   151
  0
VERTEX
  5
2961
  8
LAYER1
 10
0.0
 20
0.0
 30
0.0
 70
   128
 71
   166
 72
   165
 73
   162
 74
   163
  0
SEQEND
  5
2962
  8
LAYER1
  0
POLYLINE
  5
2963
  8
0
 66
     1
 10
0.0
 20
0.0
 30
0.0
 70
    16
 71
     4
 72
     7
  0
VERTEX
  5
2964
  8
0
 10
109.0
 20
51.0
 30
32.0
 70
    64
  0
VERTEX
  5
2965
  8
0
 10
109.0
 20
51.0
 30
32.0
 70
    64
  0
VERTEX
  5
2966
  8
0
 10
109.0
 20
51.0
 30
32.0
 70
    64
  0
VERTEX
  5
2967
  8
0
 10
109.0
 20
51.0
 30
32.0
 70
    64
  0
VERTEX
  5
2968
  8
0
 10
109.0
 20
51.0
 30
32.0
 70
    64
  0
VERTEX
  5
2969
  8
0
 10
109.0
 20
51.0
 30
32.0
 70
    64
  0
VERTEX
  5
296A
  8
0
 10
109.0
 20
51.0
 30
32.0
 70
    64
  0
VERTEX
  5
296B
  8
0
 10
132.49999999999989
 20
51.0
 30
32.0
 70
    64
  0
VERTEX
  5
296C
  8
0
 10
131.6999999999999
 20
51.0
 30
38.099999999999987
 70
    64
  0
VERTEX
  5
296D
  8
0
 10
129.40000000000001
 20
50.999999999999979
 30
43.700000000000003
 70
    64
  0
VERTEX
  5
296E
  8
0
 10
125.7
 20
50.999999999999979
 30
48.700000000000003
 70
    64
  0
VERTEX
  5
296F
  8
0
 10
120.7
 20
50.999999999999979
 30
52.400000000000013
 70
    64
  0
VERTEX
  5
2970
  8
0
 10
115.09999999999999
 20
50.999999999999979
 30
54.700000000000003
 70
    64
  0
VERTEX
  5
2971
  8
0
 10
109.0
 20
50.999999999999979
 30
55.5
 70
    64
  0
VERTEX
  5
2972
  8
0
 10
133.49999999999989
 20
52.0
 30
32.0
 70
    64
  0
VERTEX
  5
2973
  8
0
 10
132.6999999999999
 20
52.0
 30
38.299999999999997
 70
    64
  0
VERTEX
  5
2974
  8
0
 10
130.30000000000001
 20
51.999999999999993
 30
44.200000000000003
 70
    64
  0
VERTEX
  5
2975
  8
0
 10
126.2999999999999
 20
51.999999999999993
 30
49.29999999999999
 70
    64
  0
VERTEX
  5
2976
  8
0
 10
121.1999999999999
 20
51.999999999999993
 30
53.299999999999997
 70
    64
  0
VERTEX
  5
2977
  8
0
 10
115.3
 20
51.999999999999993
 30
55.700000000000003
 70
    64
  0
VERTEX
  5
2978
  8
0
 10
109.0
 20
51.999999999999993
 30
56.5
 70
    64
  0
VERTEX
  5
2979
  8
0
 10
133.49999999999989
 20
86.5
 30
32.0
 70
    64
  0
VERTEX
  5
297A
  8
0
 10
132.6999999999999
 20
86.5
 30
38.299999999999997
 70
    64
  0
VERTEX
  5
297B
  8
0
 10
130.30000000000001
 20
86.5
 30
44.200000000000003
 70
    64
  0
VERTEX
  5
297C
  8
0
 10
126.2999999999999
 20
86.5
 30
49.29999999999999
 70
    64
  0
VERTEX
  5
297D
  8
0
 10
121.1999999999999
 20
86.5
 30
53.299999999999997
 70
    64
  0
VERTEX
  5
297E
  8
0
 10
115.3
 20
86.5
 30
55.700000000000003
 70
    64
  0
VERTEX
  5
297F
  8
0
 10
109.0
 20
86.5
 30
56.5
 70
    64
  0
SEQEND
  5
2980
  8
0
  0
POLYLINE
  5
2981
  8
0
 66
     1
 10
0.0
 20
0.0
 30
0.0
 70
    16
 71
     4
 72
     7
  0
VERTEX
  5
2982
  8
0
 10
109.0
 20
51.0
 30
55.5
 70
    64
  0
VERTEX
  5
2983
  8
0
 10
115.0
 20
51.0
 30
54.600000000000001
 70
    64
  0
VERTEX
  5
2984
  8
0
 10
120.7
 20
51.0
 30
52.399999999999999
 70
    64
  0
VERTEX
  5
2985
  8
0
 10
125.59999999999999
 20
51.0
 30
48.600000000000001
 70
    64
  0
VERTEX
  5
2986
  8
0
 10
129.40000000000001
 20
51.0
 30
43.700000000000003
 70
    64
  0
VERTEX
  5
2987
  8
0
 10
131.59999999999999
 20
51.0
 30
38.0
 70
    64
  0
VERTEX
  5
2988
  8
0
 10
132.49999999999989
 20
51.0
 30
32.0
 70
    64
  0
VERTEX
  5
2989
  8
0
 10
109.0
 20
47.492991000000011
 30
55.500042000000001
 70
    64
  0
VERTEX
  5
298A
  8
0
 10
115.0
 20
47.492991000000011
 30
54.600042000000002
 70
    64
  0
VERTEX
  5
298B
  8
0
 10
120.7
 20
47.492991000000011
 30
52.400041999999999
 70
    64
  0
VERTEX
  5
298C
  8
0
 10
125.59999999999999
 20
47.492991000000011
 30
48.600042000000002
 70
    64
  0
VERTEX
  5
298D
  8
0
 10
129.40000000000001
 20
47.492991000000011
 30
43.700042000000032
 70
    64
  0
VERTEX
  5
298E
  8
0
 10
131.59999999999999
 20
47.492991000000011
 30
38.000042000000022
 70
    64
  0
VERTEX
  5
298F
  8
0
 10
132.49999999999989
 20
47.492991000000032
 30
32.000042000000022
 70
    64
  0
VERTEX
  5
2990
  8
0
 10
109.0
 20
44.492991000000011
 30
55.000042000000008
 70
    64
  0
VERTEX
  5
2991
  8
0
 10
114.90000000000001
 20
44.492991000000011
 30
54.20004200000001
 70
    64
  0
VERTEX
  5
2992
  8
0
 10
120.40000000000001
 20
44.492991000000011
 30
51.900041999999999
 70
    64
  0
VERTEX
  5
2993
  8
0
 10
125.2
 20
44.492991000000011
 30
48.20004200000001
 70
    64
  0
VERTEX
  5
2994
  8
0
 10
128.90000000000001
 20
44.492991000000011
 30
43.400042000000013
 70
    64
  0
VERTEX
  5
2995
  8
0
 10
131.1999999999999
 20
44.492991000000011
 30
37.900042000000013
 70
    64
  0
VERTEX
  5
2996
  8
0
 10
132.0
 20
44.492991000000032
 30
32.000042000000022
 70
    64
  0
VERTEX
  5
2997
  8
0
 10
109.0
 20
40.492991000000011
 30
54.000042000000008
 70
    64
  0
VERTEX
  5
2998
  8
0
 10
114.7
 20
40.492991000000011
 30
53.20004200000001
 70
    64
  0
VERTEX
  5
2999
  8
0
 10
119.90000000000001
 20
40.492991000000011
 30
51.100042000000002
 70
    64
  0
VERTEX
  5
299A
  8
0
 10
124.5
 20
40.492991000000011
 30
47.500042000000022
 70
    64
  0
VERTEX
  5
299B
  8
0
 10
128.09999999999991
 20
40.492991000000011
 30
42.900042000000013
 70
    64
  0
VERTEX
  5
299C
  8
0
 10
130.1999999999999
 20
40.492991000000011
 30
37.700042000000018
 70
    64
  0
VERTEX
  5
299D
  8
0
 10
131.0
 20
40.492991000000032
 30
32.000042000000022
 70
    64
  0
SEQEND
  5
299E
  8
0
  0
POLYLINE
  5
299F
  8
0
 66
     1
 10
0.0
 20
0.0
 30
0.0
 70
    16
 71
     6
 72
     7
  0
VERTEX
  5
29A0
  8
0
 10
109.0
 20
12.492991000000011
 30
32.000042000000008
 70
    64
  0
VERTEX
  5
29A1
  8
0
 10
109.0
 20
12.492991000000011
 30
32.000042000000008
 70
    64
  0
VERTEX
  5
29A2
  8
0
 10
109.0
 20
12.492991000000011
 30
32.000042000000008
 70
    64
  0
VERTEX
  5
29A3
  8
0
 10
109.0
 20
12.492991000000011
 30
32.000042000000008
 70
    64
  0
VERTEX
  5
29A4
  8
0
 10
109.0
 20
12.492991000000011
 30
32.000042000000008
 70
    64
  0
VERTEX
  5
29A5
  8
0
 10
109.0
 20
12.492991000000011
 30
32.000042000000008
 70
    64
  0
VERTEX
  5
29A6
  8
0
 10
109.0
 20
12.492991000000011
 30
32.000042000000008
 70
    64
  0
VERTEX
  5
29A7
  8
0
 10
109.0
 20
12.492991000000011
 30
55.500042000000008
 70
    64
  0
VERTEX
  5
29A8
  8
0
 10
115.0
 20
12.492991000000011
 30
54.600042000000009
 70
    64
  0
VERTEX
  5
29A9
  8
0
 10
120.7
 20
12.492991000000011
 30
52.400042000000013
 70
    64
  0
VERTEX
  5
29AA
  8
0
 10
125.59999999999999
 20
12.492991000000011
 30
48.600042000000002
 70
    64
  0
VERTEX
  5
29AB
  8
0
 10
129.40000000000001
 20
12.492991000000011
 30
43.70004200000001
 70
    64
  0
VERTEX
  5
29AC
  8
0
 10
131.59999999999999
 20
12.492991000000011
 30
38.000042000000001
 70
    64
  0
VERTEX
  5
29AD
  8
0
 10
132.49999999999989
 20
12.492991000000011
 30
32.000042000000008
 70
    64
  0
VERTEX
  5
29AE
  8
0
 10
109.0
 20
12.992991000000011
 30
57.000042000000022
 70
    64
  0
VERTEX
  5
29AF
  8
0
 10
115.40000000000001
 20
12.992991000000011
 30
56.100042000000009
 70
    64
  0
VERTEX
  5
29B0
  8
0
 10
121.40000000000001
 20
12.992991000000011
 30
53.600042000000009
 70
    64
  0
VERTEX
  5
29B1
  8
0
 10
126.7
 20
12.992991000000011
 30
49.70004200000001
 70
    64
  0
VERTEX
  5
29B2
  8
0
 10
130.59999999999999
 20
12.992991000000011
 30
44.400041999999992
 70
    64
  0
VERTEX
  5
29B3
  8
0
 10
133.09999999999991
 20
12.992991000000011
 30
38.400041999999999
 70
    64
  0
VERTEX
  5
29B4
  8
0
 10
134.0
 20
12.992991000000011
 30
32.000042000000008
 70
    64
  0
VERTEX
  5
29B5
  8
0
 10
109.0
 20
14.492991000000011
 30
57.500042000000022
 70
    64
  0
VERTEX
  5
29B6
  8
0
 10
115.59999999999989
 20
14.492991000000011
 30
56.600042000000009
 70
    64
  0
VERTEX
  5
29B7
  8
0
 10
121.7
 20
14.492991000000011
 30
54.100042000000009
 70
    64
  0
VERTEX
  5
29B8
  8
0
 10
127.0
 20
14.492991000000011
 30
50.000042000000022
 70
    64
  0
VERTEX
  5
29B9
  8
0
 10
131.09999999999991
 20
14.492991000000011
 30
44.700042000000003
 70
    64
  0
VERTEX
  5
29BA
  8
0
 10
133.59999999999999
 20
14.492991000000011
 30
38.600042000000002
 70
    64
  0
VERTEX
  5
29BB
  8
0
 10
134.49999999999989
 20
14.492991000000011
 30
32.000042000000008
 70
    64
  0
VERTEX
  5
29BC
  8
0
 10
109.0
 20
40.492991000000011
 30
57.500042000000008
 70
    64
  0
VERTEX
  5
29BD
  8
0
 10
115.59999999999989
 20
40.792991000000001
 30
56.600042000000002
 70
    64
  0
VERTEX
  5
29BE
  8
0
 10
121.7
 20
41.392990999999988
 30
54.100042000000002
 70
    64
  0
VERTEX
  5
29BF
  8
0
 10
127.0
 20
42.492991000000011
 30
50.000042000000008
 70
    64
  0
VERTEX
  5
29C0
  8
0
 10
131.09999999999991
 20
43.992991000000018
 30
44.700042000000018
 70
    64
  0
VERTEX
  5
29C1
  8
0
 10
133.59999999999999
 20
45.692991000000013
 30
38.600042000000009
 70
    64
  0
VERTEX
  5
29C2
  8
0
 10
134.49999999999989
 20
47.492991000000032
 30
32.000042000000022
 70
    64
  0
VERTEX
  5
29C3
  8
0
 10
109.0
 20
41.792991000000001
 30
56.500042000000008
 70
    64
  0
VERTEX
  5
29C4
  8
0
 10
115.3
 20
41.992991000000011
 30
55.600042000000002
 70
    64
  0
VERTEX
  5
29C5
  8
0
 10
121.1999999999999
 20
42.692990999999999
 30
53.20004200000001
 70
    64
  0
VERTEX
  5
29C6
  8
0
 10
126.2999999999999
 20
43.692990999999999
 30
49.300041999999998
 70
    64
  0
VERTEX
  5
29C7
  8
0
 10
130.1999999999999
 20
45.092991000000012
 30
44.200042000000018
 70
    64
  0
VERTEX
  5
29C8
  8
0
 10
132.59999999999999
 20
46.692990999999999
 30
38.300042000000019
 70
    64
  0
VERTEX
  5
29C9
  8
0
 10
133.49999999999989
 20
48.492991000000032
 30
32.000042000000029
 70
    64
  0
SEQEND
  5
29CA
  8
0
  0
POLYLINE
  5
29CB
  8
0
 66
     1
 10
0.0
 20
0.0
 30
0.0
 70
    16
 71
     2
 72
     7
  0
VERTEX
  5
29CC
  8
0
 10
184.0
 20
155.0
 30
0.0000000000000711
 70
    64
  0
VERTEX
  5
29CD
  8
0
 10
192.80000000000001
 20
155.0
 30
1.200000000000073
 70
    64
  0
VERTEX
  5
29CE
  8
0
 10
200.9333
 20
155.0
 30
4.5333000000000601
 70
    64
  0
VERTEX
  5
29CF
  8
0
 10
208.0
 20
155.0
 30
10.00000000000006
 70
    64
  0
VERTEX
  5
29D0
  8
0
 10
213.46669999999989
 20
155.0
 30
17.066700000000061
 70
    64
  0
VERTEX
  5
29D1
  8
0
 10
216.80000000000001
 20
155.0
 30
25.20000000000006
 70
    64
  0
VERTEX
  5
29D2
  8
0
 10
218.0
 20
155.0
 30
34.000100000000067
 70
    64
  0
VERTEX
  5
29D3
  8
0
 10
184.0
 20
155.0
 30
34.000000000000057
 70
    64
  0
VERTEX
  5
29D4
  8
0
 10
184.0
 20
155.0
 30
34.000000000000057
 70
    64
  0
VERTEX
  5
29D5
  8
0
 10
184.0
 20
155.0
 30
34.000000000000057
 70
    64
  0
VERTEX
  5
29D6
  8
0
 10
184.0
 20
155.0
 30
34.000000000000057
 70
    64
  0
VERTEX
  5
29D7
  8
0
 10
184.0
 20
155.0
 30
34.000000000000057
 70
    64
  0
VERTEX
  5
29D8
  8
0
 10
184.0
 20
155.0
 30
34.000000000000057
 70
    64
  0
VERTEX
  5
29D9
  8
0
 10
184.0
 20
155.0
 30
34.000000000000057
 70
    64
  0
SEQEND
  5
29DA
  8
0
  0
POLYLINE
  5
29DB
  8
0
 66
     1
 10
0.0
 20
0.0
 30
0.0
 70
    16
 71
     2
 72
     7
  0
VERTEX
  5
29DC
  8
0
 10
184.0
 20
155.0
 30
0.0000000000000711
 70
    64
  0
VERTEX
  5
29DD
  8
0
 10
175.1999999999999
 20
155.0
 30
1.200000000000073
 70
    64
  0
VERTEX
  5
29DE
  8
0
 10
167.06669999999991
 20
155.0
 30
4.5333000000000601
 70
    64
  0
VERTEX
  5
29DF
  8
0
 10
160.0
 20
155.0
 30
10.00000000000006
 70
    64
  0
VERTEX
  5
29E0
  8
0
 10
154.5333
 20
155.0
 30
17.066700000000061
 70
    64
  0
VERTEX
  5
29E1
  8
0
 10
151.19999999999999
 20
155.0
 30
25.20000000000006
 70
    64
  0
VERTEX
  5
29E2
  8
0
 10
150.0
 20
155.0
 30
34.000100000000067
 70
    64
  0
VERTEX
  5
29E3
  8
0
 10
184.0
 20
155.0
 30
34.000000000000057
 70
    64
  0
VERTEX
  5
29E4
  8
0
 10
184.0
 20
155.0
 30
34.000000000000057
 70
    64
  0
VERTEX
  5
29E5
  8
0
 10
184.0
 20
155.0
 30
34.000000000000057
 70
    64
  0
VERTEX
  5
29E6
  8
0
 10
184.0
 20
155.0
 30
34.000000000000057
 70
    64
  0
VERTEX
  5
29E7
  8
0
 10
184.0
 20
155.0
 30
34.000000000000057
 70
    64
  0
VERTEX
  5
29E8
  8
0
 10
184.0
 20
155.0
 30
34.000000000000057
 70
    64
  0
VERTEX
  5
29E9
  8
0
 10
184.0
 20
155.0
 30
34.000000000000057
 70
    64
  0
SEQEND
  5
29EA
  8
0
  0
POLYLINE
  5
29EB
  8
0
 66
     1
 10
0.0
 20
0.0
 30
0.0
 70
    16
 71
     2
 72
     7
  0
VERTEX
  5
29EC
  8
0
 10
184.0
 20
155.0
 30
68.0
 70
    64
  0
VERTEX
  5
29ED
  8
0
 10
175.1999999999999
 20
155.0
 30
66.799999999999983
 70
    64
  0
VERTEX
  5
29EE
  8
0
 10
167.06669999999991
 20
155.0
 30
63.466700000000003
 70
    64
  0
VERTEX
  5
29EF
  8
0
 10
160.0
 20
155.0
 30
58.0
 70
    64
  0
VERTEX
  5
29F0
  8
0
 10
154.5333
 20
155.0
 30
50.933300000000003
 70
    64
  0
VERTEX
  5
29F1
  8
0
 10
151.19999999999999
 20
155.0
 30
42.799999999999997
 70
    64
  0
VERTEX
  5
29F2
  8
0
 10
150.0
 20
155.0
 30
33.99989999999999
 70
    64
  0
VERTEX
  5
29F3
  8
0
 10
184.0
 20
155.0
 30
34.0
 70
    64
  0
VERTEX
  5
29F4
  8
0
 10
184.0
 20
155.0
 30
34.0
 70
    64
  0
VERTEX
  5
29F5
  8
0
 10
184.0
 20
155.0
 30
34.0
 70
    64
  0
VERTEX
  5
29F6
  8
0
 10
184.0
 20
155.0
 30
34.0
 70
    64
  0
VERTEX
  5
29F7
  8
0
 10
184.0
 20
155.0
 30
34.0
 70
    64
  0
VERTEX
  5
29F8
  8
0
 10
184.0
 20
155.0
 30
34.0
 70
    64
  0
VERTEX
  5
29F9
  8
0
 10
184.0
 20
155.0
 30
34.0
 70
    64
  0
SEQEND
  5
29FA
  8
0
  0
POLYLINE
  5
29FB
  8
0
 66
     1
 10
0.0
 20
0.0
 30
0.0
 70
    16
 71
     2
 72
     7
  0
VERTEX
  5
29FC
  8
0
 10
184.0
 20
155.0
 30
68.0
 70
    64
  0
VERTEX
  5
29FD
  8
0
 10
192.80000000000001
 20
155.0
 30
66.799999999999983
 70
    64
  0
VERTEX
  5
29FE
  8
0
 10
200.9333
 20
155.0
 30
63.466700000000003
 70
    64
  0
VERTEX
  5
29FF
  8
0
 10
208.0
 20
155.0
 30
58.0
 70
    64
  0
VERTEX
  5
2A00
  8
0
 10
213.46669999999989
 20
155.0
 30
50.933300000000003
 70
    64
  0
VERTEX
  5
2A01
  8
0
 10
216.80000000000001
 20
155.0
 30
42.799999999999997
 70
    64
  0
VERTEX
  5
2A02
  8
0
 10
218.0
 20
155.0
 30
33.99989999999999
 70
    64
  0
VERTEX
  5
2A03
  8
0
 10
184.0
 20
155.0
 30
34.0
 70
    64
  0
VERTEX
  5
2A04
  8
0
 10
184.0
 20
155.0
 30
34.0
 70
    64
  0
VERTEX
  5
2A05
  8
0
 10
184.0
 20
155.0
 30
34.0
 70
    64
  0
VERTEX
  5
2A06
  8
0
 10
184.0
 20
155.0
 30
34.0
 70
    64
  0
VERTEX
  5
2A07
  8
0
 10
184.0
 20
155.0
 30
34.0
 70
    64
  0
VERTEX
  5
2A08
  8
0
 10
184.0
 20
155.0
 30
34.0
 70
    64
  0
VERTEX
  5
2A09
  8
0
 10
184.0
 20
155.0
 30
34.0
 70
    64
  0
SEQEND
  5
2A0A
  8
0
  0
POLYLINE
  5
2A0B
  8
0
 66
     1
 10
0.0
 20
0.0
 30
0.0
 70
    16
 71
     4
 72
     7
  0
VERTEX
  5
2A0C
  8
0
 10
109.0
 20
4.2172810000000416
 30
-37.251810999999996
 70
    64
  0
VERTEX
  5
2A0D
  8
0
 10
109.0
 20
4.2172810000000416
 30
-37.251810999999996
 70
    64
  0
VERTEX
  5
2A0E
  8
0
 10
109.0
 20
4.2172810000000416
 30
-37.251810999999996
 70
    64
  0
VERTEX
  5
2A0F
  8
0
 10
109.0
 20
4.2172810000000416
 30
-37.251810999999996
 70
    64
  0
VERTEX
  5
2A10
  8
0
 10
109.0
 20
4.2172810000000416
 30
-37.251810999999996
 70
    64
  0
VERTEX
  5
2A11
  8
0
 10
109.0
 20
4.2172810000000416
 30
-37.251810999999996
 70
    64
  0
VERTEX
  5
2A12
  8
0
 10
109.0
 20
4.2172810000000416
 30
-37.251810999999996
 70
    64
  0
VERTEX
  5
2A13
  8
0
 10
109.0
 20
8.0809840000000577
 30
-38.287087999999983
 70
    64
  0
VERTEX
  5
2A14
  8
0
 10
110.0
 20
7.9843920000000423
 30
-38.261206000000008
 70
    64
  0
VERTEX
  5
2A15
  8
0
 10
111.0
 20
7.5980210000000454
 30
-38.157677999999997
 70
    64
  0
VERTEX
  5
2A16
  8
0
 10
111.89999999999991
 20
7.0184660000000463
 30
-38.002386999999992
 70
    64
  0
VERTEX
  5
2A17
  8
0
 10
112.5
 20
6.1491320000000371
 30
-37.769449999999999
 70
    64
  0
VERTEX
  5
2A18
  8
0
 10
112.90000000000001
 20
5.1832070000000376
 30
-37.510631000000011
 70
    64
  0
VERTEX
  5
2A19
  8
0
 10
113.0
 20
4.2172810000000416
 30
-37.251810999999996
 70
    64
  0
VERTEX
  5
2A1A
  8
0
 10
109.0
 20
8.6933570000000486
 30
-37.933534000000002
 70
    64
  0
VERTEX
  5
2A1B
  8
0
 10
110.2
 20
8.5001710000000514
 30
-37.881769999999989
 70
    64
  0
VERTEX
  5
2A1C
  8
0
 10
111.2
 20
8.1138010000000502
 30
-37.778243000000003
 70
    64
  0
VERTEX
  5
2A1D
  8
0
 10
112.2
 20
7.43765300000004
 30
-37.597070000000002
 70
    64
  0
VERTEX
  5
2A1E
  8
0
 10
112.90000000000001
 20
6.4717270000000431
 30
-37.338249999999988
 70
    64
  0
VERTEX
  5
2A1F
  8
0
 10
113.3
 20
5.505801000000047
 30
-37.079431
 70
    64
  0
VERTEX
  5
2A20
  8
0
 10
113.5
 20
4.3466900000000521
 30
-36.768848999999989
 70
    64
  0
VERTEX
  5
2A21
  8
0
 10
109.0
 20
21.76371800000004
 30
10.845720000000011
 70
    64
  0
VERTEX
  5
2A22
  8
0
 10
110.2
 20
21.57053300000004
 30
10.897484000000009
 70
    64
  0
VERTEX
  5
2A23
  8
0
 10
111.2
 20
21.184163000000041
 30
11.00101100000002
 70
    64
  0
VERTEX
  5
2A24
  8
0
 10
112.2
 20
20.508015000000029
 30
11.182185000000009
 70
    64
  0
VERTEX
  5
2A25
  8
0
 10
112.90000000000001
 20
19.542089000000029
 30
11.441004000000021
 70
    64
  0
VERTEX
  5
2A26
  8
0
 10
113.3
 20
18.57616300000003
 30
11.69982299999999
 70
    64
  0
VERTEX
  5
2A27
  8
0
 10
113.5
 20
17.417052000000009
 30
12.010406
 70
    64
  0
SEQEND
  5
2A28
  8
0
  0
POLYLINE
  5
2A29
  8
0
 66
     1
 10
0.0
 20
0.0
 30
0.0
 70
    16
 71
     4
 72
     7
  0
VERTEX
  5
2A2A
  8
0
 10
109.0
 20
4.2172810000000416
 30
-37.251810999999996
 70
    64
  0
VERTEX
  5
2A2B
  8
0
 10
109.0
 20
4.2172810000000416
 30
-37.251810999999996
 70
    64
  0
VERTEX
  5
2A2C
  8
0
 10
109.0
 20
4.2172810000000416
 30
-37.251810999999996
 70
    64
  0
VERTEX
  5
2A2D
  8
0
 10
109.0
 20
4.2172810000000416
 30
-37.251810999999996
 70
    64
  0
VERTEX
  5
2A2E
  8
0
 10
109.0
 20
4.2172810000000416
 30
-37.251810999999996
 70
    64
  0
VERTEX
  5
2A2F
  8
0
 10
109.0
 20
4.2172810000000416
 30
-37.251810999999996
 70
    64
  0
VERTEX
  5
2A30
  8
0
 10
109.0
 20
4.2172810000000416
 30
-37.251810999999996
 70
    64
  0
VERTEX
  5
2A31
  8
0
 10
109.0
 20
0.3535770000000298
 30
-36.216535000000022
 70
    64
  0
VERTEX
  5
2A32
  8
0
 10
110.0
 20
0.4501700000000426
 30
-36.242416999999982
 70
    64
  0
VERTEX
  5
2A33
  8
0
 10
111.0
 20
0.836540000000042
 30
-36.345945
 70
    64
  0
VERTEX
  5
2A34
  8
0
 10
111.89999999999991
 20
1.416096000000038
 30
-36.501235999999999
 70
    64
  0
VERTEX
  5
2A35
  8
0
 10
112.5
 20
2.2854290000000499
 30
-36.734172999999998
 70
    64
  0
VERTEX
  5
2A36
  8
0
 10
112.90000000000001
 20
3.251355000000046
 30
-36.99299199999998
 70
    64
  0
VERTEX
  5
2A37
  8
0
 10
113.0
 20
4.2172810000000416
 30
-37.251810999999996
 70
    64
  0
VERTEX
  5
2A38
  8
0
 10
109.0
 20
0.0000240000000531
 30
-35.604162999999993
 70
    64
  0
VERTEX
  5
2A39
  8
0
 10
110.2
 20
0.1932090000000528
 30
-35.655926999999991
 70
    64
  0
VERTEX
  5
2A3A
  8
0
 10
111.2
 20
0.5795800000000498
 30
-35.759453999999998
 70
    64
  0
VERTEX
  5
2A3B
  8
0
 10
112.2
 20
1.255728000000033
 30
-35.940627999999997
 70
    64
  0
VERTEX
  5
2A3C
  8
0
 10
112.90000000000001
 20
2.221653000000031
 30
-36.199446999999992
 70
    64
  0
VERTEX
  5
2A3D
  8
0
 10
113.3
 20
3.1875790000000559
 30
-36.458265999999981
 70
    64
  0
VERTEX
  5
2A3E
  8
0
 10
113.5
 20
4.3466900000000521
 30
-36.768848999999989
 70
    64
  0
VERTEX
  5
2A3F
  8
0
 10
109.0
 20
13.07038600000004
 30
13.175091
 70
    64
  0
VERTEX
  5
2A40
  8
0
 10
110.2
 20
13.26357100000004
 30
13.123328000000001
 70
    64
  0
VERTEX
  5
2A41
  8
0
 10
111.2
 20
13.649941000000039
 30
13.0198
 70
    64
  0
VERTEX
  5
2A42
  8
0
 10
112.2
 20
14.326089000000019
 30
12.838627000000001
 70
    64
  0
VERTEX
  5
2A43
  8
0
 10
112.90000000000001
 20
15.292015000000021
 30
12.579808
 70
    64
  0
VERTEX
  5
2A44
  8
0
 10
113.3
 20
16.25794100000001
 30
12.320988
 70
    64
  0
VERTEX
  5
2A45
  8
0
 10
113.5
 20
17.417052000000009
 30
12.010406
 70
    64
  0
SEQEND
  5
2A46
  8
0
  0
ENDSEC
  0
EOF
