  0
SECTION
  2
HEADER
  9
$ACADVER
  1
AC1014
  9
$ACADMAINTVER
 70
     9
  9
$DWGCODEPAGE
  3
ANSI_1252
  9
$INSBASE
 10
0.0
 20
0.0
 30
0.0
  9
$EXTMIN
 10
0.0000119999999998
 20
0.0000000000000067
 30
0.0
  9
$EXTMAX
 10
154.999988
 20
158.0
 30
0.0
  9
$LIMMIN
 10
0.0
 20
0.0
  9
$LIMMAX
 10
12.0
 20
9.0
  9
$ORTHOMODE
 70
     0
  9
$REGENMODE
 70
     1
  9
$FILLMODE
 70
     1
  9
$QTEXTMODE
 70
     0
  9
$MIRRTEXT
 70
     1
  9
$DRAGMODE
 70
     2
  9
$LTSCALE
 40
1.0
  9
$OSMODE
 70
    37
  9
$ATTMODE
 70
     1
  9
$TEXTSIZE
 40
0.2
  9
$TRACEWID
 40
0.05
  9
$TEXTSTYLE
  7
STANDARD
  9
$CLAYER
  8
0
  9
$CELTYPE
  6
CONTINUOUS
  9
$CECOLOR
 62
   256
  9
$CELTSCALE
 40
1.0
  9
$DELOBJ
 70
     1
  9
$DISPSILH
 70
     0
  9
$DIMSCALE
 40
1.0
  9
$DIMASZ
 40
0.18
  9
$DIMEXO
 40
0.0625
  9
$DIMDLI
 40
0.38
  9
$DIMRND
 40
0.0
  9
$DIMDLE
 40
0.0
  9
$DIMEXE
 40
0.18
  9
$DIMTP
 40
0.0
  9
$DIMTM
 40
0.0
  9
$DIMTXT
 40
0.18
  9
$DIMCEN
 40
0.09
  9
$DIMTSZ
 40
0.0
  9
$DIMTOL
 70
     0
  9
$DIMLIM
 70
     0
  9
$DIMTIH
 70
     1
  9
$DIMTOH
 70
     1
  9
$DIMSE1
 70
     0
  9
$DIMSE2
 70
     0
  9
$DIMTAD
 70
     0
  9
$DIMZIN
 70
     0
  9
$DIMBLK
  1

  9
$DIMASO
 70
     1
  9
$DIMSHO
 70
     1
  9
$DIMPOST
  1

  9
$DIMAPOST
  1

  9
$DIMALT
 70
     0
  9
$DIMALTD
 70
     2
  9
$DIMALTF
 40
25.4
  9
$DIMLFAC
 40
1.0
  9
$DIMTOFL
 70
     0
  9
$DIMTVP
 40
0.0
  9
$DIMTIX
 70
     0
  9
$DIMSOXD
 70
     0
  9
$DIMSAH
 70
     0
  9
$DIMBLK1
  1

  9
$DIMBLK2
  1

  9
$DIMSTYLE
  2
STANDARD
  9
$DIMCLRD
 70
     0
  9
$DIMCLRE
 70
     0
  9
$DIMCLRT
 70
     0
  9
$DIMTFAC
 40
1.0
  9
$DIMGAP
 40
0.09
  9
$DIMJUST
 70
     0
  9
$DIMSD1
 70
     0
  9
$DIMSD2
 70
     0
  9
$DIMTOLJ
 70
     1
  9
$DIMTZIN
 70
     0
  9
$DIMALTZ
 70
     0
  9
$DIMALTTZ
 70
     0
  9
$DIMFIT
 70
     3
  9
$DIMUPT
 70
     0
  9
$DIMUNIT
 70
     2
  9
$DIMDEC
 70
     4
  9
$DIMTDEC
 70
     4
  9
$DIMALTU
 70
     2
  9
$DIMALTTD
 70
     2
  9
$DIMTXSTY
  7
STANDARD
  9
$DIMAUNIT
 70
     0
  9
$LUNITS
 70
     2
  9
$LUPREC
 70
     4
  9
$SKETCHINC
 40
0.1
  9
$FILLETRAD
 40
0.0
  9
$AUNITS
 70
     0
  9
$AUPREC
 70
     0
  9
$MENU
  1
.
  9
$ELEVATION
 40
0.0
  9
$PELEVATION
 40
0.0
  9
$THICKNESS
 40
0.0
  9
$LIMCHECK
 70
     0
  9
$BLIPMODE
 70
     0
  9
$CHAMFERA
 40
0.0
  9
$CHAMFERB
 40
0.0
  9
$CHAMFERC
 40
0.0
  9
$CHAMFERD
 40
0.0
  9
$SKPOLY
 70
     0
  9
$TDCREATE
 40
2454699.500533668
  9
$TDUPDATE
 40
2454699.505081551
  9
$TDINDWG
 40
0.0045478819
  9
$TDUSRTIMER
 40
0.0045478819
  9
$USRTIMER
 70
     1
  9
$ANGBASE
 50
0.0
  9
$ANGDIR
 70
     0
  9
$PDMODE
 70
     0
  9
$PDSIZE
 40
0.0
  9
$PLINEWID
 40
0.0
  9
$COORDS
 70
     1
  9
$SPLFRAME
 70
     0
  9
$SPLINETYPE
 70
     6
  9
$SPLINESEGS
 70
     8
  9
$ATTDIA
 70
     0
  9
$ATTREQ
 70
     1
  9
$HANDLING
 70
 22529
  9
$HANDSEED
  5
22E
  9
$SURFTAB1
 70
     6
  9
$SURFTAB2
 70
     6
  9
$SURFTYPE
 70
     6
  9
$SURFU
 70
     6
  9
$SURFV
 70
     6
  9
$UCSNAME
  2

  9
$UCSORG
 10
0.0
 20
0.0
 30
0.0
  9
$UCSXDIR
 10
1.0
 20
0.0
 30
0.0
  9
$UCSYDIR
 10
0.0
 20
1.0
 30
0.0
  9
$PUCSNAME
  2

  9
$PUCSORG
 10
0.0
 20
0.0
 30
0.0
  9
$PUCSXDIR
 10
1.0
 20
0.0
 30
0.0
  9
$PUCSYDIR
 10
0.0
 20
1.0
 30
0.0
  9
$USERI1
 70
     0
  9
$USERI2
 70
     0
  9
$USERI3
 70
     0
  9
$USERI4
 70
     0
  9
$USERI5
 70
     0
  9
$USERR1
 40
0.0
  9
$USERR2
 40
0.0
  9
$USERR3
 40
0.0
  9
$USERR4
 40
0.0
  9
$USERR5
 40
0.0
  9
$WORLDVIEW
 70
     1
  9
$SHADEDGE
 70
     3
  9
$SHADEDIF
 70
    70
  9
$TILEMODE
 70
     1
  9
$MAXACTVP
 70
    64
  9
$PINSBASE
 10
0.0
 20
0.0
 30
0.0
  9
$PLIMCHECK
 70
     0
  9
$PEXTMIN
 10
1.000000000000000E+20
 20
1.000000000000000E+20
 30
1.000000000000000E+20
  9
$PEXTMAX
 10
-1.000000000000000E+20
 20
-1.000000000000000E+20
 30
-1.000000000000000E+20
  9
$PLIMMIN
 10
0.0
 20
0.0
  9
$PLIMMAX
 10
12.0
 20
9.0
  9
$UNITMODE
 70
     0
  9
$VISRETAIN
 70
     1
  9
$PLINEGEN
 70
     0
  9
$PSLTSCALE
 70
     1
  9
$TREEDEPTH
 70
  3020
  9
$PICKSTYLE
 70
     1
  9
$CMLSTYLE
  2
STANDARD
  9
$CMLJUST
 70
     0
  9
$CMLSCALE
 40
1.0
  9
$PROXYGRAPHICS
 70
     1
  9
$MEASUREMENT
 70
     0
  0
ENDSEC
  0
SECTION
  2
CLASSES
  0
CLASS
  1
ACDBDICTIONARYWDFLT
  2
AcDbDictionaryWithDefault
  3
AutoCAD 2000
 90
        0
280
     0
281
     0
  0
CLASS
  1
ACDBPLACEHOLDER
  2
AcDbPlaceHolder
  3
AutoCAD 2000
 90
        0
280
     0
281
     0
  0
CLASS
  1
LAYOUT
  2
AcDbLayout
  3
AutoCAD 2000
 90
        0
280
     0
281
     0
  0
CLASS
  1
DICTIONARYVAR
  2
AcDbDictionaryVar
  3
AutoCAD 2000
 90
        0
280
     0
281
     0
  0
CLASS
  1
LONG_TRANSACTION
  2
AcDbLongTransaction
  3
AutoCAD 2000
 90
        0
280
     0
281
     0
  0
CLASS
  1
LWPOLYLINE
  2
AcDbPolyline
  3
AutoCAD 2000
 90
        0
280
     0
281
     1
  0
CLASS
  1
HATCH
  2
AcDbHatch
  3
AutoCAD 2000
 90
        0
280
     0
281
     1
  0
CLASS
  1
XRECORD
  2
AcDbXrecord
  3
AutoCAD 2000
 90
        0
280
     0
281
     0
  0
ENDSEC
  0
SECTION
  2
TABLES
  0
TABLE
  2
VPORT
  5
8
330
0
100
AcDbSymbolTable
 70
     2
  0
VPORT
  5
209
330
8
100
AcDbSymbolTableRecord
100
AcDbViewportTableRecord
  2
*ACTIVE
 70
     0
 10
0.0
 20
0.0
 11
1.0
 21
1.0
 12
77.5
 22
79.0
 13
0.0
 23
0.0
 14
1.0
 24
1.0
 15
0.0
 25
0.0
 16
0.0
 26
0.0
 36
1.0
 17
0.0
 27
0.0
 37
0.0
 40
159.2122762148337
 41
2.078104993597951
 42
50.0
 43
0.0
 44
0.0
 50
0.0
 51
0.0
 71
     0
 72
   100
 73
     1
 74
     3
 75
     0
 76
     0
 77
     0
 78
     0
  0
ENDTAB
  0
TABLE
  2
LTYPE
  5
5
330
0
100
AcDbSymbolTable
 70
     1
  0
LTYPE
  5
13
330
5
100
AcDbSymbolTableRecord
100
AcDbLinetypeTableRecord
  2
BYBLOCK
 70
     0
  3

 72
    65
 73
     0
 40
0.0
  0
LTYPE
  5
14
330
5
100
AcDbSymbolTableRecord
100
AcDbLinetypeTableRecord
  2
BYLAYER
 70
     0
  3

 72
    65
 73
     0
 40
0.0
  0
LTYPE
  5
15
330
5
100
AcDbSymbolTableRecord
100
AcDbLinetypeTableRecord
  2
CONTINUOUS
 70
     0
  3
Solid line
 72
    65
 73
     0
 40
0.0
  0
ENDTAB
  0
TABLE
  2
LAYER
  5
2
330
0
100
AcDbSymbolTable
 70
     1
  0
LAYER
  5
10
330
2
100
AcDbSymbolTableRecord
100
AcDbLayerTableRecord
  2
0
 70
     0
 62
     7
  6
CONTINUOUS
  0
ENDTAB
  0
TABLE
  2
STYLE
  5
3
330
0
100
AcDbSymbolTable
 70
     1
  0
STYLE
  5
11
330
3
100
AcDbSymbolTableRecord
100
AcDbTextStyleTableRecord
  2
STANDARD
 70
     0
 40
0.0
 41
1.0
 50
0.0
 71
     0
 42
0.2
  3
txt
  4

  0
ENDTAB
  0
TABLE
  2
VIEW
  5
6
330
0
100
AcDbSymbolTable
 70
     0
  0
ENDTAB
  0
TABLE
  2
UCS
  5
7
330
0
100
AcDbSymbolTable
 70
     0
  0
ENDTAB
  0
TABLE
  2
APPID
  5
9
330
0
100
AcDbSymbolTable
 70
     1
  0
APPID
  5
12
330
9
100
AcDbSymbolTableRecord
100
AcDbRegAppTableRecord
  2
ACAD
 70
     0
  0
ENDTAB
  0
TABLE
  2
DIMSTYLE
  5
A
330
0
100
AcDbSymbolTable
 70
     1
  0
DIMSTYLE
105
1F5
330
A
100
AcDbSymbolTableRecord
100
AcDbDimStyleTableRecord
  2
STANDARD
 70
     0
  3

  4

  5

  6

  7

 40
1.0
 41
0.18
 42
0.0625
 43
0.38
 44
0.18
 45
0.0
 46
0.0
 47
0.0
 48
0.0
140
0.18
141
0.09
142
0.0
143
25.4
144
1.0
145
0.0
146
1.0
147
0.09
 71
     0
 72
     0
 73
     1
 74
     1
 75
     0
 76
     0
 77
     0
 78
     0
170
     0
171
     2
172
     0
173
     0
174
     0
175
     0
176
     0
177
     0
178
     0
270
     2
271
     4
272
     4
273
     2
274
     2
340
11
275
     0
280
     0
281
     0
282
     0
283
     1
284
     0
285
     0
286
     0
287
     3
288
     0
  0
ENDTAB
  0
TABLE
  2
BLOCK_RECORD
  5
1
330
0
100
AcDbSymbolTable
 70
     0
  0
BLOCK_RECORD
  5
1E
102
{ACAD_XDICTIONARY
360
22C
102
}
330
1
100
AcDbSymbolTableRecord
100
AcDbBlockTableRecord
  2
*MODEL_SPACE
  0
BLOCK_RECORD
  5
1A
102
{ACAD_XDICTIONARY
360
22A
102
}
330
1
100
AcDbSymbolTableRecord
100
AcDbBlockTableRecord
  2
*PAPER_SPACE
  0
ENDTAB
  0
ENDSEC
  0
SECTION
  2
BLOCKS
  0
BLOCK
  5
1F
330
1E
100
AcDbEntity
  8
0
100
AcDbBlockBegin
  2
*MODEL_SPACE
 70
     0
 10
0.0
 20
0.0
 30
0.0
  3
*MODEL_SPACE
  1

  0
ENDBLK
  5
20
330
1E
100
AcDbEntity
  8
0
100
AcDbBlockEnd
  0
BLOCK
  5
1B
330
1A
100
AcDbEntity
 67
     1
  8
0
100
AcDbBlockBegin
  2
*PAPER_SPACE
 70
     0
 10
0.0
 20
0.0
 30
0.0
  3
*PAPER_SPACE
  1

  0
ENDBLK
  5
1C
330
1A
100
AcDbEntity
 67
     1
  8
0
100
AcDbBlockEnd
  0
ENDSEC
  0
SECTION
  2
ENTITIES
  0
LINE
  5
22
330
1E
100
AcDbEntity
  8
0
100
AcDbLine
 10
8.080967999999998
 20
51.71289999999999
 30
0.0
 11
8.693348
 21
52.06649999999999
 31
0.0
  0
LINE
  5
23
330
1E
100
AcDbEntity
  8
0
100
AcDbLine
 10
6.149117999999999
 20
52.2305
 30
0.0
 11
7.018457999999999
 21
51.9976
 31
0.0
  0
LINE
  5
24
330
1E
100
AcDbEntity
  8
0
100
AcDbLine
 10
2.285417999999999
 20
53.26579999999999
 30
0.0
 11
3.251338
 21
53.00699999999999
 31
0.0
  0
LINE
  5
25
330
1E
100
AcDbEntity
  8
0
100
AcDbLine
 10
3.251338
 20
53.00699999999999
 30
0.0
 11
4.217267999999999
 21
52.7482
 31
0.0
  0
LINE
  5
26
330
1E
100
AcDbEntity
  8
0
100
AcDbLine
 10
3.187568
 20
53.54169999999999
 30
0.0
 11
4.346677999999999
 21
53.2312
 31
0.0
  0
LINE
  5
27
330
1E
100
AcDbEntity
  8
0
100
AcDbLine
 10
0.836528
 20
53.6541
 30
0.0
 11
1.416088
 21
53.4988
 31
0.0
  0
LINE
  5
28
330
1E
100
AcDbEntity
  8
0
100
AcDbLine
 10
1.416088
 20
53.4988
 30
0.0
 11
2.285417999999999
 21
53.26579999999999
 31
0.0
  0
LINE
  5
29
330
1E
100
AcDbEntity
  8
0
100
AcDbLine
 10
0.450158
 20
53.75759999999999
 30
0.0
 11
0.836528
 21
53.6541
 31
0.0
  0
LINE
  5
2A
330
1E
100
AcDbEntity
  8
0
100
AcDbLine
 10
0.0000119999999998
 20
54.3958
 30
0.0
 11
0.353565
 21
53.7835
 31
0.0
  0
LINE
  5
2B
330
1E
100
AcDbEntity
  8
0
100
AcDbLine
 10
0.0000119999999998
 20
54.3958
 30
0.0
 11
0.193197
 21
54.34409999999999
 31
0.0
  0
LINE
  5
2C
330
1E
100
AcDbEntity
  8
0
100
AcDbLine
 10
0.193197
 20
54.34409999999999
 30
0.0
 11
0.5795680000000001
 21
54.2405
 31
0.0
  0
LINE
  5
2D
330
1E
100
AcDbEntity
  8
0
100
AcDbLine
 10
2.221638
 20
53.8006
 30
0.0
 11
3.187568
 21
53.54169999999999
 31
0.0
  0
LINE
  5
2E
330
1E
100
AcDbEntity
  8
0
100
AcDbLine
 10
1.255718
 20
54.0594
 30
0.0
 11
2.221638
 21
53.8006
 31
0.0
  0
LINE
  5
2F
330
1E
100
AcDbEntity
  8
0
100
AcDbLine
 10
0.5795680000000001
 20
54.2405
 30
0.0
 11
1.255718
 21
54.0594
 31
0.0
  0
LINE
  5
30
330
1E
100
AcDbEntity
  8
0
100
AcDbLine
 10
0.193197
 20
54.34409999999999
 30
0.0
 11
0.5795680000000001
 21
54.2405
 31
0.0
  0
LINE
  5
31
330
1E
100
AcDbEntity
  8
0
100
AcDbLine
 10
0.0000120000000008
 20
54.3958
 30
0.0
 11
12.492988
 21
101.0202141864629
 31
0.0
  0
LINE
  5
32
330
1E
100
AcDbEntity
  8
0
100
AcDbLine
 10
0.0000119999999998
 20
54.3958
 30
0.0
 11
0.353565
 21
53.7835
 31
0.0
  0
LINE
  5
33
330
1E
100
AcDbEntity
  8
0
100
AcDbLine
 10
0.0000119999999998
 20
54.3958
 30
0.0
 11
0.193197
 21
54.34409999999999
 31
0.0
  0
LINE
  5
34
330
1E
100
AcDbEntity
  8
0
100
AcDbLine
 10
0.0000119999999998
 20
54.3958
 30
0.0
 11
12.492988
 21
101.0202141864629
 31
0.0
  0
LINE
  5
35
330
1E
100
AcDbEntity
  8
0
100
AcDbLine
 10
0.353565
 20
53.7835
 30
0.0
 11
0.450158
 21
53.75759999999999
 31
0.0
  0
LINE
  5
36
330
1E
100
AcDbEntity
  8
0
100
AcDbLine
 10
4.346677999999999
 20
53.2312
 30
0.0
 11
5.505787999999999
 21
52.9206
 31
0.0
  0
LINE
  5
37
330
1E
100
AcDbEntity
  8
0
100
AcDbLine
 10
5.505787999999999
 20
52.9206
 30
0.0
 11
6.471718
 21
52.6618
 31
0.0
  0
LINE
  5
38
330
1E
100
AcDbEntity
  8
0
100
AcDbLine
 10
6.471718
 20
52.6618
 30
0.0
 11
7.437638
 21
52.4029
 31
0.0
  0
LINE
  5
39
330
1E
100
AcDbEntity
  8
0
100
AcDbLine
 10
4.217267999999999
 20
52.7482
 30
0.0
 11
5.183197999999999
 21
52.48940000000001
 31
0.0
  0
LINE
  5
3A
330
1E
100
AcDbEntity
  8
0
100
AcDbLine
 10
5.183197999999999
 20
52.48940000000001
 30
0.0
 11
6.149117999999999
 21
52.2305
 31
0.0
  0
LINE
  5
3B
330
1E
100
AcDbEntity
  8
0
100
AcDbLine
 10
7.598008
 20
51.8423
 30
0.0
 11
7.984377999999999
 21
51.7388
 31
0.0
  0
LINE
  5
3C
330
1E
100
AcDbEntity
  8
0
100
AcDbLine
 10
7.437638
 20
52.4029
 30
0.0
 11
8.113788000000001
 21
52.2218
 31
0.0
  0
LINE
  5
3D
330
1E
100
AcDbEntity
  8
0
100
AcDbLine
 10
8.113788000000001
 20
52.2218
 30
0.0
 11
8.500158
 21
52.1182
 31
0.0
  0
LINE
  5
3E
330
1E
100
AcDbEntity
  8
0
100
AcDbLine
 10
8.500158
 20
52.1182
 30
0.0
 11
8.693348
 21
52.06649999999999
 31
0.0
  0
LINE
  5
3F
330
1E
100
AcDbEntity
  8
0
100
AcDbLine
 10
8.693348
 20
52.06649999999999
 30
0.0
 11
20.5992725580821
 21
96.50004
 31
0.0
  0
LINE
  5
40
330
1E
100
AcDbEntity
  8
0
100
AcDbLine
 10
8.693348
 20
52.06649999999999
 30
0.0
 11
20.5992725580821
 21
96.50004
 31
0.0
  0
LINE
  5
41
330
1E
100
AcDbEntity
  8
0
100
AcDbLine
 10
7.018457999999999
 20
51.9976
 30
0.0
 11
7.598008
 21
51.8423
 31
0.0
  0
LINE
  5
42
330
1E
100
AcDbEntity
  8
0
100
AcDbLine
 10
7.984377999999999
 20
51.7388
 30
0.0
 11
8.080967999999998
 21
51.71289999999999
 31
0.0
  0
LINE
  5
43
330
1E
100
AcDbEntity
  8
0
100
AcDbLine
 10
87.499988
 20
60.0
 30
0.0
 11
87.89998800000001
 21
60.0
 31
0.0
  0
LINE
  5
44
330
1E
100
AcDbEntity
  8
0
100
AcDbLine
 10
12.492988
 20
99.40004000000001
 30
0.0
 11
12.492988
 21
101.6
 31
0.0
  0
LINE
  5
45
330
1E
100
AcDbEntity
  8
0
100
AcDbLine
 10
12.492988
 20
99.40004000000001
 30
0.0
 11
12.492988
 21
98.83504779531609
 31
0.0
  0
LINE
  5
46
330
1E
100
AcDbEntity
  8
0
100
AcDbLine
 10
12.492988
 20
98.83504779531609
 30
0.0
 11
12.492988
 21
99.40004000000001
 31
0.0
  0
LINE
  5
47
330
1E
100
AcDbEntity
  8
0
100
AcDbLine
 10
12.492988
 20
101.6
 30
0.0
 11
12.492988
 21
105.4
 31
0.0
  0
LINE
  5
48
330
1E
100
AcDbEntity
  8
0
100
AcDbLine
 10
12.492988
 20
101.6
 30
0.0
 11
12.492988
 21
99.40004000000001
 31
0.0
  0
LINE
  5
49
330
1E
100
AcDbEntity
  8
0
100
AcDbLine
 10
12.492988
 20
110.2999999999999
 30
0.0
 11
12.492988
 21
116.0
 31
0.0
  0
LINE
  5
4A
330
1E
100
AcDbEntity
  8
0
100
AcDbLine
 10
12.492988
 20
116.0
 30
0.0
 11
12.492988
 21
122.0
 31
0.0
  0
LINE
  5
4B
330
1E
100
AcDbEntity
  8
0
100
AcDbLine
 10
12.492988
 20
116.0
 30
0.0
 11
12.492988
 21
110.2999999999999
 31
0.0
  0
LINE
  5
4C
330
1E
100
AcDbEntity
  8
0
100
AcDbLine
 10
12.492988
 20
122.0
 30
0.0
 11
12.492988
 21
116.0
 31
0.0
  0
LINE
  5
4D
330
1E
100
AcDbEntity
  8
0
100
AcDbLine
 10
12.492988
 20
122.0
 30
0.0
 11
12.492988
 21
128.0
 31
0.0
  0
LINE
  5
4E
330
1E
100
AcDbEntity
  8
0
100
AcDbLine
 10
12.492988
 20
105.4
 30
0.0
 11
12.492988
 21
101.6
 31
0.0
  0
LINE
  5
4F
330
1E
100
AcDbEntity
  8
0
100
AcDbLine
 10
12.492988
 20
105.4
 30
0.0
 11
12.492988
 21
110.2999999999999
 31
0.0
  0
LINE
  5
50
330
1E
100
AcDbEntity
  8
0
100
AcDbLine
 10
12.492988
 20
128.0
 30
0.0
 11
12.492988
 21
133.6999999999999
 31
0.0
  0
LINE
  5
51
330
1E
100
AcDbEntity
  8
0
100
AcDbLine
 10
12.492988
 20
128.0
 30
0.0
 11
12.492988
 21
122.0
 31
0.0
  0
LINE
  5
52
330
1E
100
AcDbEntity
  8
0
100
AcDbLine
 10
12.492988
 20
133.6999999999999
 30
0.0
 11
12.492988
 21
128.0
 31
0.0
  0
LINE
  5
53
330
1E
100
AcDbEntity
  8
0
100
AcDbLine
 10
12.492988
 20
133.6999999999999
 30
0.0
 11
12.492988
 21
138.5999999999999
 31
0.0
  0
LINE
  5
54
330
1E
100
AcDbEntity
  8
0
100
AcDbLine
 10
12.992988
 20
122.0
 30
0.0
 11
12.992988
 21
115.5999999999999
 31
0.0
  0
LINE
  5
55
330
1E
100
AcDbEntity
  8
0
100
AcDbLine
 10
12.992988
 20
122.0
 30
0.0
 11
12.992988
 21
128.4
 31
0.0
  0
LINE
  5
56
330
1E
100
AcDbEntity
  8
0
100
AcDbLine
 10
12.992988
 20
115.5999999999999
 30
0.0
 11
12.992988
 21
122.0
 31
0.0
  0
LINE
  5
57
330
1E
100
AcDbEntity
  8
0
100
AcDbLine
 10
12.992988
 20
115.5999999999999
 30
0.0
 11
12.992988
 21
109.5999999999999
 31
0.0
  0
LINE
  5
58
330
1E
100
AcDbEntity
  8
0
100
AcDbLine
 10
12.992988
 20
109.5999999999999
 30
0.0
 11
12.992988
 21
115.5999999999999
 31
0.0
  0
LINE
  5
59
330
1E
100
AcDbEntity
  8
0
100
AcDbLine
 10
12.992988
 20
109.5999999999999
 30
0.0
 11
12.992988
 21
104.2999999999999
 31
0.0
  0
LINE
  5
5A
330
1E
100
AcDbEntity
  8
0
100
AcDbLine
 10
12.992988
 20
104.2999999999999
 30
0.0
 11
12.992988
 21
109.5999999999999
 31
0.0
  0
LINE
  5
5B
330
1E
100
AcDbEntity
  8
0
100
AcDbLine
 10
12.992988
 20
104.2999999999999
 30
0.0
 11
12.992988
 21
100.4
 31
0.0
  0
LINE
  5
5C
330
1E
100
AcDbEntity
  8
0
100
AcDbLine
 10
12.992988
 20
100.4
 30
0.0
 11
12.992988
 21
104.2999999999999
 31
0.0
  0
LINE
  5
5D
330
1E
100
AcDbEntity
  8
0
100
AcDbLine
 10
12.992988
 20
100.4
 30
0.0
 11
12.992988
 21
97.90004000000001
 31
0.0
  0
LINE
  5
5E
330
1E
100
AcDbEntity
  8
0
100
AcDbLine
 10
12.992988
 20
97.90004000000001
 30
0.0
 11
12.992988
 21
100.4
 31
0.0
  0
LINE
  5
5F
330
1E
100
AcDbEntity
  8
0
100
AcDbLine
 10
12.992988
 20
97.90004000000001
 30
0.0
 11
12.992988
 21
97.43789548224
 31
0.0
  0
LINE
  5
60
330
1E
100
AcDbEntity
  8
0
100
AcDbLine
 10
12.992988
 20
128.4
 30
0.0
 11
12.992988
 21
134.4
 31
0.0
  0
LINE
  5
61
330
1E
100
AcDbEntity
  8
0
100
AcDbLine
 10
12.992988
 20
134.4
 30
0.0
 11
12.992988
 21
139.7
 31
0.0
  0
LINE
  5
62
330
1E
100
AcDbEntity
  8
0
100
AcDbLine
 10
12.992988
 20
134.4
 30
0.0
 11
12.992988
 21
128.4
 31
0.0
  0
LINE
  5
63
330
1E
100
AcDbEntity
  8
0
100
AcDbLine
 10
43.692988
 20
139.3
 30
0.0
 11
45.09298799999999
 21
134.1999999999999
 31
0.0
  0
LINE
  5
64
330
1E
100
AcDbEntity
  8
0
100
AcDbLine
 10
43.992988
 20
134.6999999999999
 30
0.0
 11
45.692988
 21
128.6
 31
0.0
  0
LINE
  5
65
330
1E
100
AcDbEntity
  8
0
100
AcDbLine
 10
42.692988
 20
143.1999999999999
 30
0.0
 11
43.692988
 21
139.3
 31
0.0
  0
LINE
  5
66
330
1E
100
AcDbEntity
  8
0
100
AcDbLine
 10
42.492988
 20
140.0
 30
0.0
 11
43.992988
 21
134.6999999999999
 31
0.0
  0
LINE
  5
67
330
1E
100
AcDbEntity
  8
0
100
AcDbLine
 10
12.992988
 20
139.7
 30
0.0
 11
12.992988
 21
143.5999999999999
 31
0.0
  0
LINE
  5
68
330
1E
100
AcDbEntity
  8
0
100
AcDbLine
 10
12.992988
 20
139.7
 30
0.0
 11
12.992988
 21
134.4
 31
0.0
  0
LINE
  5
69
330
1E
100
AcDbEntity
  8
0
100
AcDbLine
 10
41.392988
 20
144.1
 30
0.0
 11
42.492988
 21
140.0
 31
0.0
  0
LINE
  5
6A
330
1E
100
AcDbEntity
  8
0
100
AcDbLine
 10
12.992988
 20
143.5999999999999
 30
0.0
 11
12.992988
 21
146.1
 31
0.0
  0
LINE
  5
6B
330
1E
100
AcDbEntity
  8
0
100
AcDbLine
 10
12.992988
 20
143.5999999999999
 30
0.0
 11
12.992988
 21
139.7
 31
0.0
  0
LINE
  5
6C
330
1E
100
AcDbEntity
  8
0
100
AcDbLine
 10
12.992988
 20
97.43789548224
 30
0.0
 11
12.992988
 21
97.90004000000001
 31
0.0
  0
LINE
  5
6D
330
1E
100
AcDbEntity
  8
0
100
AcDbLine
 10
20.58080786496739
 20
96.50004
 30
0.0
 11
47.492988
 21
96.50004
 31
0.0
  0
LINE
  5
6E
330
1E
100
AcDbEntity
  8
0
100
AcDbLine
 10
12.492988
 20
138.5999999999999
 30
0.0
 11
12.492988
 21
133.6999999999999
 31
0.0
  0
LINE
  5
6F
330
1E
100
AcDbEntity
  8
0
100
AcDbLine
 10
12.492988
 20
138.5999999999999
 30
0.0
 11
12.492988
 21
144.5999999999999
 31
0.0
  0
LINE
  5
70
330
1E
100
AcDbEntity
  8
0
100
AcDbLine
 10
12.492988
 20
144.5999999999999
 30
0.0
 11
12.492988
 21
145.5
 31
0.0
  0
LINE
  5
71
330
1E
100
AcDbEntity
  8
0
100
AcDbLine
 10
12.492988
 20
145.5
 30
0.0
 11
12.992988
 21
147.0
 31
0.0
  0
LINE
  5
72
330
1E
100
AcDbEntity
  8
0
100
AcDbLine
 10
12.492988
 20
145.5
 30
0.0
 11
12.492988
 21
144.5999999999999
 31
0.0
  0
LINE
  5
73
330
1E
100
AcDbEntity
  8
0
100
AcDbLine
 10
42.3259977087379
 20
144.4582524271839
 30
0.0
 11
44.492988
 21
145.0
 31
0.0
  0
LINE
  5
74
330
1E
100
AcDbEntity
  8
0
100
AcDbLine
 10
46.69298799999999
 20
128.3
 30
0.0
 11
48.492988
 21
122.0
 31
0.0
  0
LINE
  5
75
330
1E
100
AcDbEntity
  8
0
100
AcDbLine
 10
45.09298799999999
 20
134.1999999999999
 30
0.0
 11
46.69298799999999
 21
128.3
 31
0.0
  0
LINE
  5
76
330
1E
100
AcDbEntity
  8
0
100
AcDbLine
 10
45.692988
 20
128.6
 30
0.0
 11
47.492988
 21
122.0
 31
0.0
  0
LINE
  5
77
330
1E
100
AcDbEntity
  8
0
100
AcDbLine
 10
47.492988
 20
122.0
 30
0.0
 11
47.492988
 21
115.4
 31
0.0
  0
LINE
  5
78
330
1E
100
AcDbEntity
  8
0
100
AcDbLine
 10
47.492988
 20
115.4
 30
0.0
 11
47.492988
 21
122.0
 31
0.0
  0
LINE
  5
79
330
1E
100
AcDbEntity
  8
0
100
AcDbLine
 10
47.492988
 20
115.4
 30
0.0
 11
47.492988
 21
109.2999999999999
 31
0.0
  0
LINE
  5
7A
330
1E
100
AcDbEntity
  8
0
100
AcDbLine
 10
47.492988
 20
109.2999999999999
 30
0.0
 11
47.492988
 21
115.4
 31
0.0
  0
LINE
  5
7B
330
1E
100
AcDbEntity
  8
0
100
AcDbLine
 10
47.492988
 20
109.2999999999999
 30
0.0
 11
47.492988
 21
104.0
 31
0.0
  0
LINE
  5
7C
330
1E
100
AcDbEntity
  8
0
100
AcDbLine
 10
47.492988
 20
104.0
 30
0.0
 11
47.492988
 21
109.2999999999999
 31
0.0
  0
LINE
  5
7D
330
1E
100
AcDbEntity
  8
0
100
AcDbLine
 10
47.492988
 20
104.0
 30
0.0
 11
47.492988
 21
99.90004
 31
0.0
  0
LINE
  5
7E
330
1E
100
AcDbEntity
  8
0
100
AcDbLine
 10
48.492988
 20
115.7
 30
0.0
 11
48.492988
 21
122.0
 31
0.0
  0
LINE
  5
7F
330
1E
100
AcDbEntity
  8
0
100
AcDbLine
 10
48.492988
 20
109.8
 30
0.0
 11
48.492988
 21
115.7
 31
0.0
  0
LINE
  5
80
330
1E
100
AcDbEntity
  8
0
100
AcDbLine
 10
48.492988
 20
104.7
 30
0.0
 11
48.492988
 21
109.8
 31
0.0
  0
LINE
  5
81
330
1E
100
AcDbEntity
  8
0
100
AcDbLine
 10
48.492988
 20
100.8
 30
0.0
 11
48.492988
 21
104.7
 31
0.0
  0
LINE
  5
82
330
1E
100
AcDbEntity
  8
0
100
AcDbLine
 10
48.492988
 20
98.40004
 30
0.0
 11
48.492988
 21
100.8
 31
0.0
  0
LINE
  5
83
330
1E
100
AcDbEntity
  8
0
100
AcDbLine
 10
48.492988
 20
97.50004
 30
0.0
 11
48.492988
 21
98.40004
 31
0.0
  0
LINE
  5
84
330
1E
100
AcDbEntity
  8
0
100
AcDbLine
 10
47.492988
 20
99.90004
 30
0.0
 11
47.492988
 21
104.0
 31
0.0
  0
LINE
  5
85
330
1E
100
AcDbEntity
  8
0
100
AcDbLine
 10
47.492988
 20
99.90004
 30
0.0
 11
47.492988
 21
97.40004
 31
0.0
  0
LINE
  5
86
330
1E
100
AcDbEntity
  8
0
100
AcDbLine
 10
47.492988
 20
97.40004
 30
0.0
 11
47.492988
 21
99.90004
 31
0.0
  0
LINE
  5
87
330
1E
100
AcDbEntity
  8
0
100
AcDbLine
 10
47.492988
 20
97.40004
 30
0.0
 11
47.492988
 21
96.50004
 31
0.0
  0
LINE
  5
88
330
1E
100
AcDbEntity
  8
0
100
AcDbLine
 10
51.999988
 20
98.3
 30
0.0
 11
51.999988
 21
100.7
 31
0.0
  0
LINE
  5
89
330
1E
100
AcDbEntity
  8
0
100
AcDbLine
 10
51.999988
 20
98.3
 30
0.0
 11
51.999988
 21
97.5
 31
0.0
  0
LINE
  5
8A
330
1E
100
AcDbEntity
  8
0
100
AcDbLine
 10
65.999988
 20
97.5
 30
0.0
 11
107.9999879999999
 21
97.5
 31
0.0
  0
LINE
  5
8B
330
1E
100
AcDbEntity
  8
0
100
AcDbLine
 10
51.999988
 20
97.5
 30
0.0
 11
65.999988
 21
97.5
 31
0.0
  0
LINE
  5
8C
330
1E
100
AcDbEntity
  8
0
100
AcDbLine
 10
51.999988
 20
97.5
 30
0.0
 11
51.999988
 21
98.3
 31
0.0
  0
LINE
  5
8D
330
1E
100
AcDbEntity
  8
0
100
AcDbLine
 10
50.999988
 20
99.40000000000001
 30
0.0
 11
50.999988
 21
98.50000000000001
 31
0.0
  0
LINE
  5
8E
330
1E
100
AcDbEntity
  8
0
100
AcDbLine
 10
50.999988
 20
99.29999999999999
 30
0.0
 11
50.999988
 21
101.6
 31
0.0
  0
LINE
  5
8F
330
1E
100
AcDbEntity
  8
0
100
AcDbLine
 10
50.999988
 20
99.29999999999999
 30
0.0
 11
50.999988
 21
98.50000000000001
 31
0.0
  0
LINE
  5
90
330
1E
100
AcDbEntity
  8
0
100
AcDbLine
 10
50.999988
 20
101.6
 30
0.0
 11
50.999988
 21
105.2999999999999
 31
0.0
  0
LINE
  5
91
330
1E
100
AcDbEntity
  8
0
100
AcDbLine
 10
50.999988
 20
101.6
 30
0.0
 11
50.999988
 21
99.29999999999999
 31
0.0
  0
LINE
  5
92
330
1E
100
AcDbEntity
  8
0
100
AcDbLine
 10
50.999988
 20
101.6
 30
0.0
 11
50.999988
 21
99.40000000000001
 31
0.0
  0
LINE
  5
93
330
1E
100
AcDbEntity
  8
0
100
AcDbLine
 10
50.999988
 20
105.4
 30
0.0
 11
50.999988
 21
101.6
 31
0.0
  0
LINE
  5
94
330
1E
100
AcDbEntity
  8
0
100
AcDbLine
 10
50.999988
 20
105.2999999999999
 30
0.0
 11
50.999988
 21
110.2999999999999
 31
0.0
  0
LINE
  5
95
330
1E
100
AcDbEntity
  8
0
100
AcDbLine
 10
50.999988
 20
105.2999999999999
 30
0.0
 11
50.999988
 21
101.6
 31
0.0
  0
LINE
  5
96
330
1E
100
AcDbEntity
  8
0
100
AcDbLine
 10
50.999988
 20
110.2999999999999
 30
0.0
 11
50.999988
 21
115.9
 31
0.0
  0
LINE
  5
97
330
1E
100
AcDbEntity
  8
0
100
AcDbLine
 10
50.999988
 20
110.2999999999999
 30
0.0
 11
50.999988
 21
105.2999999999999
 31
0.0
  0
LINE
  5
98
330
1E
100
AcDbEntity
  8
0
100
AcDbLine
 10
50.999988
 20
110.2999999999999
 30
0.0
 11
50.999988
 21
105.4
 31
0.0
  0
LINE
  5
99
330
1E
100
AcDbEntity
  8
0
100
AcDbLine
 10
50.999988
 20
128.0
 30
0.0
 11
50.999988
 21
122.0
 31
0.0
  0
LINE
  5
9A
330
1E
100
AcDbEntity
  8
0
100
AcDbLine
 10
50.999988
 20
138.5999999999999
 30
0.0
 11
50.999988
 21
133.6999999999999
 31
0.0
  0
LINE
  5
9B
330
1E
100
AcDbEntity
  8
0
100
AcDbLine
 10
50.999988
 20
144.5999999999999
 30
0.0
 11
50.999988
 21
142.4
 31
0.0
  0
LINE
  5
9C
330
1E
100
AcDbEntity
  8
0
100
AcDbLine
 10
50.999988
 20
144.6999999999999
 30
0.0
 11
50.999988
 21
145.5
 31
0.0
  0
LINE
  5
9D
330
1E
100
AcDbEntity
  8
0
100
AcDbLine
 10
50.999988
 20
144.6999999999999
 30
0.0
 11
50.999988
 21
142.4
 31
0.0
  0
LINE
  5
9E
330
1E
100
AcDbEntity
  8
0
100
AcDbLine
 10
50.999988
 20
142.4
 30
0.0
 11
50.999988
 21
144.6999999999999
 31
0.0
  0
LINE
  5
9F
330
1E
100
AcDbEntity
  8
0
100
AcDbLine
 10
50.999988
 20
142.4
 30
0.0
 11
50.999988
 21
138.7
 31
0.0
  0
LINE
  5
A0
330
1E
100
AcDbEntity
  8
0
100
AcDbLine
 10
50.999988
 20
142.4
 30
0.0
 11
50.999988
 21
138.5999999999999
 31
0.0
  0
LINE
  5
A1
330
1E
100
AcDbEntity
  8
0
100
AcDbLine
 10
50.999988
 20
138.7
 30
0.0
 11
50.999988
 21
142.4
 31
0.0
  0
LINE
  5
A2
330
1E
100
AcDbEntity
  8
0
100
AcDbLine
 10
50.999988
 20
138.7
 30
0.0
 11
50.999988
 21
133.6999999999999
 31
0.0
  0
LINE
  5
A3
330
1E
100
AcDbEntity
  8
0
100
AcDbLine
 10
50.999988
 20
133.6999999999999
 30
0.0
 11
50.999988
 21
138.7
 31
0.0
  0
LINE
  5
A4
330
1E
100
AcDbEntity
  8
0
100
AcDbLine
 10
50.999988
 20
133.6999999999999
 30
0.0
 11
50.999988
 21
128.0999999999999
 31
0.0
  0
LINE
  5
A5
330
1E
100
AcDbEntity
  8
0
100
AcDbLine
 10
50.999988
 20
133.6999999999999
 30
0.0
 11
50.999988
 21
128.0
 31
0.0
  0
LINE
  5
A6
330
1E
100
AcDbEntity
  8
0
100
AcDbLine
 10
50.999988
 20
128.0999999999999
 30
0.0
 11
50.999988
 21
133.6999999999999
 31
0.0
  0
LINE
  5
A7
330
1E
100
AcDbEntity
  8
0
100
AcDbLine
 10
50.999988
 20
128.0999999999999
 30
0.0
 11
50.999988
 21
122.0
 31
0.0
  0
LINE
  5
A8
330
1E
100
AcDbEntity
  8
0
100
AcDbLine
 10
50.999988
 20
116.0
 30
0.0
 11
50.999988
 21
110.2999999999999
 31
0.0
  0
LINE
  5
A9
330
1E
100
AcDbEntity
  8
0
100
AcDbLine
 10
50.999988
 20
122.0
 30
0.0
 11
50.999988
 21
115.9
 31
0.0
  0
LINE
  5
AA
330
1E
100
AcDbEntity
  8
0
100
AcDbLine
 10
50.999988
 20
122.0
 30
0.0
 11
50.999988
 21
116.0
 31
0.0
  0
LINE
  5
AB
330
1E
100
AcDbEntity
  8
0
100
AcDbLine
 10
50.999988
 20
122.0
 30
0.0
 11
50.999988
 21
128.0999999999999
 31
0.0
  0
LINE
  5
AC
330
1E
100
AcDbEntity
  8
0
100
AcDbLine
 10
50.999988
 20
115.9
 30
0.0
 11
50.999988
 21
122.0
 31
0.0
  0
LINE
  5
AD
330
1E
100
AcDbEntity
  8
0
100
AcDbLine
 10
50.999988
 20
115.9
 30
0.0
 11
50.999988
 21
110.2999999999999
 31
0.0
  0
LINE
  5
AE
330
1E
100
AcDbEntity
  8
0
100
AcDbLine
 10
51.999988
 20
100.7
 30
0.0
 11
51.999988
 21
104.7
 31
0.0
  0
LINE
  5
AF
330
1E
100
AcDbEntity
  8
0
100
AcDbLine
 10
51.999988
 20
100.7
 30
0.0
 11
51.999988
 21
98.3
 31
0.0
  0
LINE
  5
B0
330
1E
100
AcDbEntity
  8
0
100
AcDbLine
 10
51.999988
 20
104.7
 30
0.0
 11
51.999988
 21
109.8
 31
0.0
  0
LINE
  5
B1
330
1E
100
AcDbEntity
  8
0
100
AcDbLine
 10
51.999988
 20
104.7
 30
0.0
 11
51.999988
 21
100.7
 31
0.0
  0
LINE
  5
B2
330
1E
100
AcDbEntity
  8
0
100
AcDbLine
 10
70.59998799999999
 20
108.0999999999999
 30
0.0
 11
75.299988
 21
104.4999999999999
 31
0.0
  0
LINE
  5
B3
330
1E
100
AcDbEntity
  8
0
100
AcDbLine
 10
75.299988
 20
104.4999999999999
 30
0.0
 11
80.699988
 21
102.2999999999999
 31
0.0
  0
LINE
  5
B4
330
1E
100
AcDbEntity
  8
0
100
AcDbLine
 10
80.799988
 20
102.8
 30
0.0
 11
86.499988
 21
102.0
 31
0.0
  0
LINE
  5
B5
330
1E
100
AcDbEntity
  8
0
100
AcDbLine
 10
75.59998799999999
 20
104.9
 30
0.0
 11
80.799988
 21
102.8
 31
0.0
  0
LINE
  5
B6
330
1E
100
AcDbEntity
  8
0
100
AcDbLine
 10
70.999988
 20
108.4999999999999
 30
0.0
 11
75.59998799999999
 21
104.9
 31
0.0
  0
LINE
  5
B7
330
1E
100
AcDbEntity
  8
0
100
AcDbLine
 10
67.499988
 20
113.0
 30
0.0
 11
70.999988
 21
108.4999999999999
 31
0.0
  0
LINE
  5
B8
330
1E
100
AcDbEntity
  8
0
100
AcDbLine
 10
51.999988
 20
109.8
 30
0.0
 11
51.999988
 21
115.7
 31
0.0
  0
LINE
  5
B9
330
1E
100
AcDbEntity
  8
0
100
AcDbLine
 10
51.999988
 20
143.3
 30
0.0
 11
51.999988
 21
145.6999999999999
 31
0.0
  0
LINE
  5
BA
330
1E
100
AcDbEntity
  8
0
100
AcDbLine
 10
51.999988
 20
143.3
 30
0.0
 11
51.999988
 21
139.3
 31
0.0
  0
LINE
  5
BB
330
1E
100
AcDbEntity
  8
0
100
AcDbLine
 10
51.999988
 20
139.3
 30
0.0
 11
51.999988
 21
143.3
 31
0.0
  0
LINE
  5
BC
330
1E
100
AcDbEntity
  8
0
100
AcDbLine
 10
51.999988
 20
139.3
 30
0.0
 11
51.999988
 21
134.1999999999999
 31
0.0
  0
LINE
  5
BD
330
1E
100
AcDbEntity
  8
0
100
AcDbLine
 10
51.999988
 20
134.1999999999999
 30
0.0
 11
51.999988
 21
139.3
 31
0.0
  0
LINE
  5
BE
330
1E
100
AcDbEntity
  8
0
100
AcDbLine
 10
51.999988
 20
134.1999999999999
 30
0.0
 11
51.999988
 21
128.3
 31
0.0
  0
LINE
  5
BF
330
1E
100
AcDbEntity
  8
0
100
AcDbLine
 10
51.999988
 20
128.3
 30
0.0
 11
51.999988
 21
134.1999999999999
 31
0.0
  0
LINE
  5
C0
330
1E
100
AcDbEntity
  8
0
100
AcDbLine
 10
51.999988
 20
128.3
 30
0.0
 11
51.999988
 21
122.0
 31
0.0
  0
LINE
  5
C1
330
1E
100
AcDbEntity
  8
0
100
AcDbLine
 10
65.299988
 20
118.3
 30
0.0
 11
67.499988
 21
113.0
 31
0.0
  0
LINE
  5
C2
330
1E
100
AcDbEntity
  8
0
100
AcDbLine
 10
64.799988
 20
129.8
 30
0.0
 11
66.999988
 21
135.1999999999999
 31
0.0
  0
LINE
  5
C3
330
1E
100
AcDbEntity
  8
0
100
AcDbLine
 10
70.59998799999999
 20
139.9
 30
0.0
 11
75.299988
 21
143.5
 31
0.0
  0
LINE
  5
C4
330
1E
100
AcDbEntity
  8
0
100
AcDbLine
 10
66.999988
 20
135.1999999999999
 30
0.0
 11
70.59998799999999
 21
139.9
 31
0.0
  0
LINE
  5
C5
330
1E
100
AcDbEntity
  8
0
100
AcDbLine
 10
75.299988
 20
143.5
 30
0.0
 11
80.699988
 21
145.6999999999999
 31
0.0
  0
LINE
  5
C6
330
1E
100
AcDbEntity
  8
0
100
AcDbLine
 10
80.799988
 20
145.1999999999999
 30
0.0
 11
86.499988
 21
146.0
 31
0.0
  0
LINE
  5
C7
330
1E
100
AcDbEntity
  8
0
100
AcDbLine
 10
75.59998799999999
 20
143.1
 30
0.0
 11
80.799988
 21
145.1999999999999
 31
0.0
  0
LINE
  5
C8
330
1E
100
AcDbEntity
  8
0
100
AcDbLine
 10
70.999988
 20
139.5
 30
0.0
 11
75.59998799999999
 21
143.1
 31
0.0
  0
LINE
  5
C9
330
1E
100
AcDbEntity
  8
0
100
AcDbLine
 10
67.499988
 20
135.0
 30
0.0
 11
70.999988
 21
139.5
 31
0.0
  0
LINE
  5
CA
330
1E
100
AcDbEntity
  8
0
100
AcDbLine
 10
65.299988
 20
129.6999999999999
 30
0.0
 11
67.499988
 21
135.0
 31
0.0
  0
LINE
  5
CB
330
1E
100
AcDbEntity
  8
0
100
AcDbLine
 10
64.499988
 20
124.0
 30
0.0
 11
65.299988
 21
118.3
 31
0.0
  0
LINE
  5
CC
330
1E
100
AcDbEntity
  8
0
100
AcDbLine
 10
64.499988
 20
124.0
 30
0.0
 11
65.299988
 21
129.6999999999999
 31
0.0
  0
LINE
  5
CD
330
1E
100
AcDbEntity
  8
0
100
AcDbLine
 10
51.999988
 20
122.0
 30
0.0
 11
51.999988
 21
115.7
 31
0.0
  0
LINE
  5
CE
330
1E
100
AcDbEntity
  8
0
100
AcDbLine
 10
51.999988
 20
122.0
 30
0.0
 11
51.999988
 21
128.3
 31
0.0
  0
LINE
  5
CF
330
1E
100
AcDbEntity
  8
0
100
AcDbLine
 10
51.999988
 20
115.7
 30
0.0
 11
51.999988
 21
122.0
 31
0.0
  0
LINE
  5
D0
330
1E
100
AcDbEntity
  8
0
100
AcDbLine
 10
51.999988
 20
115.7
 30
0.0
 11
51.999988
 21
109.8
 31
0.0
  0
LINE
  5
D1
330
1E
100
AcDbEntity
  8
0
100
AcDbLine
 10
50.999988
 20
145.5
 30
0.0
 11
51.999988
 21
146.5
 31
0.0
  0
LINE
  5
D2
330
1E
100
AcDbEntity
  8
0
100
AcDbLine
 10
50.999988
 20
145.5
 30
0.0
 11
50.999988
 21
144.6999999999999
 31
0.0
  0
LINE
  5
D3
330
1E
100
AcDbEntity
  8
0
100
AcDbLine
 10
50.999988
 20
145.5
 30
0.0
 11
50.999988
 21
144.5999999999999
 31
0.0
  0
LINE
  5
D4
330
1E
100
AcDbEntity
  8
0
100
AcDbLine
 10
50.999988
 20
98.50000000000001
 30
0.0
 11
51.999988
 21
97.5
 31
0.0
  0
LINE
  5
D5
330
1E
100
AcDbEntity
  8
0
100
AcDbLine
 10
50.999988
 20
98.50000000000001
 30
0.0
 11
50.999988
 21
99.29999999999999
 31
0.0
  0
LINE
  5
D6
330
1E
100
AcDbEntity
  8
0
100
AcDbLine
 10
48.492988
 20
98.49997140575991
 30
0.0
 11
50.999988
 21
98.50000000000001
 31
0.0
  0
LINE
  5
D7
330
1E
100
AcDbEntity
  8
0
100
AcDbLine
 10
47.492988
 20
96.50004
 30
0.0
 11
48.492988
 21
97.50004
 31
0.0
  0
LINE
  5
D8
330
1E
100
AcDbEntity
  8
0
100
AcDbLine
 10
47.492988
 20
96.50004
 30
0.0
 11
47.492988
 21
97.40004
 31
0.0
  0
LINE
  5
D9
330
1E
100
AcDbEntity
  8
0
100
AcDbLine
 10
44.492988
 20
145.0
 30
0.0
 11
47.492988
 21
145.5
 31
0.0
  0
LINE
  5
DA
330
1E
100
AcDbEntity
  8
0
100
AcDbLine
 10
12.992988
 20
146.1
 30
0.0
 11
12.992988
 21
147.0
 31
0.0
  0
LINE
  5
DB
330
1E
100
AcDbEntity
  8
0
100
AcDbLine
 10
12.992988
 20
146.1
 30
0.0
 11
12.992988
 21
143.5999999999999
 31
0.0
  0
LINE
  5
DC
330
1E
100
AcDbEntity
  8
0
100
AcDbLine
 10
41.992988
 20
145.5999999999999
 30
0.0
 11
42.692988
 21
143.1999999999999
 31
0.0
  0
LINE
  5
DD
330
1E
100
AcDbEntity
  8
0
100
AcDbLine
 10
41.792988
 20
146.5
 30
0.0
 11
41.992988
 21
145.5999999999999
 31
0.0
  0
LINE
  5
DE
330
1E
100
AcDbEntity
  8
0
100
AcDbLine
 10
51.999988
 20
145.6999999999999
 30
0.0
 11
51.999988
 21
146.5
 31
0.0
  0
LINE
  5
DF
330
1E
100
AcDbEntity
  8
0
100
AcDbLine
 10
51.999988
 20
145.6999999999999
 30
0.0
 11
51.999988
 21
143.3
 31
0.0
  0
LINE
  5
E0
330
1E
100
AcDbEntity
  8
0
100
AcDbLine
 10
40.792988
 20
146.6
 30
0.0
 11
41.392988
 21
144.1
 31
0.0
  0
LINE
  5
E1
330
1E
100
AcDbEntity
  8
0
100
AcDbLine
 10
51.999988
 20
146.5
 30
0.0
 11
86.499988
 21
146.5
 31
0.0
  0
LINE
  5
E2
330
1E
100
AcDbEntity
  8
0
100
AcDbLine
 10
51.999988
 20
146.5
 30
0.0
 11
51.999988
 21
145.6999999999999
 31
0.0
  0
LINE
  5
E3
330
1E
100
AcDbEntity
  8
0
100
AcDbLine
 10
40.492988
 20
147.5
 30
0.0
 11
41.792988
 21
146.5
 31
0.0
  0
LINE
  5
E4
330
1E
100
AcDbEntity
  8
0
100
AcDbLine
 10
40.492988
 20
147.5
 30
0.0
 11
40.792988
 21
146.6
 31
0.0
  0
LINE
  5
E5
330
1E
100
AcDbEntity
  8
0
100
AcDbLine
 10
14.492988
 20
147.5
 30
0.0
 11
40.492988
 21
147.5
 31
0.0
  0
LINE
  5
E6
330
1E
100
AcDbEntity
  8
0
100
AcDbLine
 10
12.992988
 20
147.0
 30
0.0
 11
14.492988
 21
147.5
 31
0.0
  0
LINE
  5
E7
330
1E
100
AcDbEntity
  8
0
100
AcDbLine
 10
12.992988
 20
147.0
 30
0.0
 11
12.992988
 21
146.1
 31
0.0
  0
LINE
  5
E8
330
1E
100
AcDbEntity
  8
0
100
AcDbLine
 10
47.492988
 20
145.5
 30
0.0
 11
50.999988
 21
145.5
 31
0.0
  0
LINE
  5
E9
330
1E
100
AcDbEntity
  8
0
100
AcDbLine
 10
86.89998800000001
 20
90.0
 30
0.0
 11
87.999988
 21
90.0
 31
0.0
  0
LINE
  5
EA
330
1E
100
AcDbEntity
  8
0
100
AcDbLine
 10
86.499988
 20
146.0
 30
0.0
 11
93.49998799999999
 21
145.1999999999999
 31
0.0
  0
LINE
  5
EB
330
1E
100
AcDbEntity
  8
0
100
AcDbLine
 10
86.499988
 20
101.5
 30
0.0
 11
93.69998800000001
 21
102.2999999999999
 31
0.0
  0
LINE
  5
EC
330
1E
100
AcDbEntity
  8
0
100
AcDbLine
 10
86.499988
 20
102.0
 30
0.0
 11
93.49998799999999
 21
102.8
 31
0.0
  0
LINE
  5
ED
330
1E
100
AcDbEntity
  8
0
100
AcDbLine
 10
87.999988
 20
97.5
 30
0.0
 11
87.999988
 21
90.26315999999999
 31
0.0
  0
LINE
  5
EE
330
1E
100
AcDbEntity
  8
0
100
AcDbLine
 10
88.347788
 20
90.26315999999999
 30
0.0
 11
89.347788
 21
90.26315999999999
 31
0.0
  0
LINE
  5
EF
330
1E
100
AcDbEntity
  8
0
100
AcDbLine
 10
87.999988
 20
90.26315999999999
 30
0.0
 11
88.347788
 21
90.26315999999999
 31
0.0
  0
LINE
  5
F0
330
1E
100
AcDbEntity
  8
0
100
AcDbLine
 10
87.999988
 20
90.26315999999999
 30
0.0
 11
88.217388
 21
90.0
 31
0.0
  0
LINE
  5
F1
330
1E
100
AcDbEntity
  8
0
100
AcDbLine
 10
87.999988
 20
90.26315999999999
 30
0.0
 11
87.999988
 21
97.5
 31
0.0
  0
LINE
  5
F2
330
1E
100
AcDbEntity
  8
0
100
AcDbLine
 10
87.999988
 20
90.0
 30
0.0
 11
89.899988
 21
90.0
 31
0.0
  0
LINE
  5
F3
330
1E
100
AcDbEntity
  8
0
100
AcDbLine
 10
86.499988
 20
90.0
 30
0.0
 11
87.499988
 21
60.0
 31
0.0
  0
LINE
  5
F4
330
1E
100
AcDbEntity
  8
0
100
AcDbLine
 10
86.499988
 20
90.0
 30
0.0
 11
86.89998800000001
 21
90.0
 31
0.0
  0
LINE
  5
F5
330
1E
100
AcDbEntity
  8
0
100
AcDbLine
 10
87.89998800000001
 20
60.0
 30
0.0
 11
88.899988
 21
60.0
 31
0.0
  0
LINE
  5
F6
330
1E
100
AcDbEntity
  8
0
100
AcDbLine
 10
99.89998800000002
 20
0.0262500000000066
 30
0.0
 11
101.6999879999999
 21
0.101220000000006
 31
0.0
  0
LINE
  5
F7
330
1E
100
AcDbEntity
  8
0
100
AcDbLine
 10
97.999988
 20
0.0000000000000067
 30
0.0
 11
99.89998800000002
 21
0.0262500000000066
 31
0.0
  0
LINE
  5
F8
330
1E
100
AcDbEntity
  8
0
100
AcDbLine
 10
89.347788
 20
90.26315999999999
 30
0.0
 11
90.95648800000001
 21
90.26315999999999
 31
0.0
  0
LINE
  5
F9
330
1E
100
AcDbEntity
  8
0
100
AcDbLine
 10
89.899988
 20
90.0
 30
0.0
 11
92.299988
 21
90.0
 31
0.0
  0
LINE
  5
FA
330
1E
100
AcDbEntity
  8
0
100
AcDbLine
 10
90.499988
 20
4.261770000000009
 30
0.0
 11
90.499988
 21
60.0
 31
0.0
  0
LINE
  5
FB
330
1E
100
AcDbEntity
  8
0
100
AcDbLine
 10
90.799988
 20
5.611140000000009
 30
0.0
 11
91.499988
 21
6.810580000000009
 31
0.0
  0
LINE
  5
FC
330
1E
100
AcDbEntity
  8
0
100
AcDbLine
 10
90.599988
 20
60.0
 30
0.0
 11
92.79998799999999
 21
60.0
 31
0.0
  0
LINE
  5
FD
330
1E
100
AcDbEntity
  8
0
100
AcDbLine
 10
90.499988
 20
60.0
 30
0.0
 11
90.799988
 21
60.0
 31
0.0
  0
LINE
  5
FE
330
1E
100
AcDbEntity
  8
0
100
AcDbLine
 10
90.95648800000001
 20
90.26315999999999
 30
0.0
 11
93.04348799999999
 21
90.26315999999999
 31
0.0
  0
LINE
  5
FF
330
1E
100
AcDbEntity
  8
0
100
AcDbLine
 10
90.799988
 20
60.0
 30
0.0
 11
91.499988
 21
60.0
 31
0.0
  0
LINE
  5
100
330
1E
100
AcDbEntity
  8
0
100
AcDbLine
 10
91.499988
 20
60.0
 30
0.0
 11
92.69998800000001
 21
60.0
 31
0.0
  0
LINE
  5
101
330
1E
100
AcDbEntity
  8
0
100
AcDbLine
 10
91.499988
 20
6.810580000000009
 30
0.0
 11
92.69998800000001
 21
8.010020000000009
 31
0.0
  0
LINE
  5
102
330
1E
100
AcDbEntity
  8
0
100
AcDbLine
 10
90.499988
 20
4.261770000000009
 30
0.0
 11
90.799988
 21
2.275200000000009
 31
0.0
  0
LINE
  5
103
330
1E
100
AcDbEntity
  8
0
100
AcDbLine
 10
90.499988
 20
4.261770000000009
 30
0.0
 11
90.499988
 21
60.0
 31
0.0
  0
LINE
  5
104
330
1E
100
AcDbEntity
  8
0
100
AcDbLine
 10
90.499988
 20
4.261770000000009
 30
0.0
 11
90.799988
 21
5.611140000000009
 31
0.0
  0
LINE
  5
105
330
1E
100
AcDbEntity
  8
0
100
AcDbLine
 10
90.799988
 20
2.275200000000009
 30
0.0
 11
91.499988
 21
1.15073000000001
 31
0.0
  0
LINE
  5
106
330
1E
100
AcDbEntity
  8
0
100
AcDbLine
 10
92.79998799999999
 20
60.0
 30
0.0
 11
95.29998799999999
 21
60.0
 31
0.0
  0
LINE
  5
107
330
1E
100
AcDbEntity
  8
0
100
AcDbLine
 10
92.69998800000001
 20
8.010020000000009
 30
0.0
 11
94.29998799999999
 21
9.059530000000009
 31
0.0
  0
LINE
  5
108
330
1E
100
AcDbEntity
  8
0
100
AcDbLine
 10
92.69998800000001
 20
60.0
 30
0.0
 11
94.29998799999999
 21
60.0
 31
0.0
  0
LINE
  5
109
330
1E
100
AcDbEntity
  8
0
100
AcDbLine
 10
94.29998799999999
 20
9.059530000000009
 30
0.0
 11
96.09998799999999
 21
9.771700000000009
 31
0.0
  0
LINE
  5
10A
330
1E
100
AcDbEntity
  8
0
100
AcDbLine
 10
93.49998799999999
 20
145.1999999999999
 30
0.0
 11
100.0999879999999
 21
143.1
 31
0.0
  0
LINE
  5
10B
330
1E
100
AcDbEntity
  8
0
100
AcDbLine
 10
93.49998799999999
 20
102.8
 30
0.0
 11
100.0999879999999
 21
104.9
 31
0.0
  0
LINE
  5
10C
330
1E
100
AcDbEntity
  8
0
100
AcDbLine
 10
93.04348799999999
 20
90.26315999999999
 30
0.0
 11
95.434788
 21
90.26315999999999
 31
0.0
  0
LINE
  5
10D
330
1E
100
AcDbEntity
  8
0
100
AcDbLine
 10
92.299988
 20
90.0
 30
0.0
 11
94.999988
 21
90.0
 31
0.0
  0
LINE
  5
10E
330
1E
100
AcDbEntity
  8
0
100
AcDbLine
 10
94.29998799999999
 20
60.0
 30
0.0
 11
96.09998799999999
 21
60.0
 31
0.0
  0
LINE
  5
10F
330
1E
100
AcDbEntity
  8
0
100
AcDbLine
 10
91.499988
 20
1.15073000000001
 30
0.0
 11
92.69998800000001
 21
0.476040000000007
 31
0.0
  0
LINE
  5
110
330
1E
100
AcDbEntity
  8
0
100
AcDbLine
 10
92.69998800000001
 20
0.476040000000007
 30
0.0
 11
94.29998799999999
 21
0.101220000000007
 31
0.0
  0
LINE
  5
111
330
1E
100
AcDbEntity
  8
0
100
AcDbLine
 10
103.2999879999999
 20
0.4760400000000061
 30
0.0
 11
104.4999879999999
 21
1.15073000000001
 31
0.0
  0
LINE
  5
112
330
1E
100
AcDbEntity
  8
0
100
AcDbLine
 10
101.6999879999999
 20
0.101220000000006
 30
0.0
 11
103.2999879999999
 21
0.4760400000000061
 31
0.0
  0
LINE
  5
113
330
1E
100
AcDbEntity
  8
0
100
AcDbLine
 10
105.1999879999999
 20
2.275200000000009
 30
0.0
 11
105.499988
 21
4.261770000000009
 31
0.0
  0
LINE
  5
114
330
1E
100
AcDbEntity
  8
0
100
AcDbLine
 10
104.4999879999999
 20
1.15073000000001
 30
0.0
 11
105.1999879999999
 21
2.275200000000009
 31
0.0
  0
LINE
  5
115
330
1E
100
AcDbEntity
  8
0
100
AcDbLine
 10
105.499988
 20
4.261770000000009
 30
0.0
 11
105.499988
 21
60.0
 31
0.0
  0
LINE
  5
116
330
1E
100
AcDbEntity
  8
0
100
AcDbLine
 10
105.1999879999999
 20
5.611140000000009
 30
0.0
 11
105.499988
 21
4.261770000000009
 31
0.0
  0
LINE
  5
117
330
1E
100
AcDbEntity
  8
0
100
AcDbLine
 10
104.4999879999999
 20
6.810580000000009
 30
0.0
 11
105.1999879999999
 21
5.611140000000009
 31
0.0
  0
LINE
  5
118
330
1E
100
AcDbEntity
  8
0
100
AcDbLine
 10
103.2999879999999
 20
8.010019999999999
 30
0.0
 11
104.4999879999999
 21
6.810580000000009
 31
0.0
  0
LINE
  5
119
330
1E
100
AcDbEntity
  8
0
100
AcDbLine
 10
101.6999879999999
 20
9.059530000000009
 30
0.0
 11
103.2999879999999
 21
8.010019999999999
 31
0.0
  0
LINE
  5
11A
330
1E
100
AcDbEntity
  8
0
100
AcDbLine
 10
99.89998800000002
 20
9.771700000000009
 30
0.0
 11
101.6999879999999
 21
9.059530000000009
 31
0.0
  0
LINE
  5
11B
330
1E
100
AcDbEntity
  8
0
100
AcDbLine
 10
95.29998799999999
 20
60.0
 30
0.0
 11
97.999988
 21
60.0
 31
0.0
  0
LINE
  5
11C
330
1E
100
AcDbEntity
  8
0
100
AcDbLine
 10
95.434788
 20
90.26315999999999
 30
0.0
 11
97.999988
 21
90.26315999999999
 31
0.0
  0
LINE
  5
11D
330
1E
100
AcDbEntity
  8
0
100
AcDbLine
 10
94.999988
 20
90.0
 30
0.0
 11
97.999988
 21
90.0
 31
0.0
  0
LINE
  5
11E
330
1E
100
AcDbEntity
  8
0
100
AcDbLine
 10
99.89998800000002
 20
60.0
 30
0.0
 11
101.6999879999999
 21
60.0
 31
0.0
  0
LINE
  5
11F
330
1E
100
AcDbEntity
  8
0
100
AcDbLine
 10
97.999988
 20
10.0
 30
0.0
 11
99.89998800000002
 21
9.771700000000009
 31
0.0
  0
LINE
  5
120
330
1E
100
AcDbEntity
  8
0
100
AcDbLine
 10
105.1999879999999
 20
60.0
 30
0.0
 11
105.499988
 21
60.0
 31
0.0
  0
LINE
  5
121
330
1E
100
AcDbEntity
  8
0
100
AcDbLine
 10
104.4999879999999
 20
60.0
 30
0.0
 11
105.1999879999999
 21
60.0
 31
0.0
  0
LINE
  5
122
330
1E
100
AcDbEntity
  8
0
100
AcDbLine
 10
103.2999879999999
 20
60.0
 30
0.0
 11
104.4999879999999
 21
60.0
 31
0.0
  0
LINE
  5
123
330
1E
100
AcDbEntity
  8
0
100
AcDbLine
 10
101.6999879999999
 20
60.0
 30
0.0
 11
103.2999879999999
 21
60.0
 31
0.0
  0
LINE
  5
124
330
1E
100
AcDbEntity
  8
0
100
AcDbLine
 10
105.3999879999999
 20
60.0
 30
0.0
 11
107.0999879999999
 21
60.0
 31
0.0
  0
LINE
  5
125
330
1E
100
AcDbEntity
  8
0
100
AcDbLine
 10
103.199988
 20
60.0
 30
0.0
 11
105.3999879999999
 21
60.0
 31
0.0
  0
LINE
  5
126
330
1E
100
AcDbEntity
  8
0
100
AcDbLine
 10
100.6999879999999
 20
60.0
 30
0.0
 11
103.199988
 21
60.0
 31
0.0
  0
LINE
  5
127
330
1E
100
AcDbEntity
  8
0
100
AcDbLine
 10
97.999988
 20
60.0
 30
0.0
 11
100.6999879999999
 21
60.0
 31
0.0
  0
LINE
  5
128
330
1E
100
AcDbEntity
  8
0
100
AcDbLine
 10
97.999988
 20
60.0
 30
0.0
 11
99.89998800000002
 21
60.0
 31
0.0
  0
LINE
  5
129
330
1E
100
AcDbEntity
  8
0
100
AcDbLine
 10
108.4999879999999
 20
60.0
 30
0.0
 11
109.4999879999999
 21
90.0
 31
0.0
  0
LINE
  5
12A
330
1E
100
AcDbEntity
  8
0
100
AcDbLine
 10
108.0999879999999
 20
60.0
 30
0.0
 11
108.4999879999999
 21
60.0
 31
0.0
  0
LINE
  5
12B
330
1E
100
AcDbEntity
  8
0
100
AcDbLine
 10
107.0999879999999
 20
60.0
 30
0.0
 11
108.0999879999999
 21
60.0
 31
0.0
  0
LINE
  5
12C
330
1E
100
AcDbEntity
  8
0
100
AcDbLine
 10
97.999988
 20
90.26315999999999
 30
0.0
 11
100.5649879999999
 21
90.26315999999999
 31
0.0
  0
LINE
  5
12D
330
1E
100
AcDbEntity
  8
0
100
AcDbLine
 10
107.7829879999999
 20
90.0
 30
0.0
 11
107.9999879999999
 21
90.26315999999999
 31
0.0
  0
LINE
  5
12E
330
1E
100
AcDbEntity
  8
0
100
AcDbLine
 10
154.999988
 20
90.0
 30
0.0
 11
154.999988
 21
91.2
 31
0.0
  0
LINE
  5
12F
330
1E
100
AcDbEntity
  8
0
100
AcDbLine
 10
128.999988
 20
90.0
 30
0.0
 11
154.999988
 21
90.0
 31
0.0
  0
LINE
  5
130
330
1E
100
AcDbEntity
  8
0
100
AcDbLine
 10
109.0999879999999
 20
90.0
 30
0.0
 11
109.4999879999999
 21
90.0
 31
0.0
  0
LINE
  5
131
330
1E
100
AcDbEntity
  8
0
100
AcDbLine
 10
107.9999879999999
 20
90.0
 30
0.0
 11
109.0999879999999
 21
90.0
 31
0.0
  0
LINE
  5
132
330
1E
100
AcDbEntity
  8
0
100
AcDbLine
 10
106.0999879999999
 20
90.0
 30
0.0
 11
107.9999879999999
 21
90.0
 31
0.0
  0
LINE
  5
133
330
1E
100
AcDbEntity
  8
0
100
AcDbLine
 10
103.6999879999999
 20
90.0
 30
0.0
 11
106.0999879999999
 21
90.0
 31
0.0
  0
LINE
  5
134
330
1E
100
AcDbEntity
  8
0
100
AcDbLine
 10
100.5649879999999
 20
90.26315999999999
 30
0.0
 11
102.955988
 21
90.26315999999999
 31
0.0
  0
LINE
  5
135
330
1E
100
AcDbEntity
  8
0
100
AcDbLine
 10
102.955988
 20
90.26315999999999
 30
0.0
 11
105.0439879999999
 21
90.26315999999999
 31
0.0
  0
LINE
  5
136
330
1E
100
AcDbEntity
  8
0
100
AcDbLine
 10
105.0439879999999
 20
90.26315999999999
 30
0.0
 11
106.6519879999999
 21
90.26315999999999
 31
0.0
  0
LINE
  5
137
330
1E
100
AcDbEntity
  8
0
100
AcDbLine
 10
106.6519879999999
 20
90.26315999999999
 30
0.0
 11
107.6519879999999
 21
90.26315999999999
 31
0.0
  0
LINE
  5
138
330
1E
100
AcDbEntity
  8
0
100
AcDbLine
 10
107.6519879999999
 20
90.26315999999999
 30
0.0
 11
107.9999879999999
 21
90.26315999999999
 31
0.0
  0
LINE
  5
139
330
1E
100
AcDbEntity
  8
0
100
AcDbLine
 10
107.9999879999999
 20
90.26315999999999
 30
0.0
 11
107.9999879999999
 21
97.5
 31
0.0
  0
LINE
  5
13A
330
1E
100
AcDbEntity
  8
0
100
AcDbLine
 10
126.9999879999999
 20
92.66666999999999
 30
0.0
 11
127.4999879999999
 21
90.666668
 31
0.0
  0
LINE
  5
13B
330
1E
100
AcDbEntity
  8
0
100
AcDbLine
 10
126.9999879999999
 20
92.66666999999999
 30
0.0
 11
126.9999879999999
 21
93.86667
 31
0.0
  0
LINE
  5
13C
330
1E
100
AcDbEntity
  8
0
100
AcDbLine
 10
108.9999879999999
 20
98.50000000000001
 30
0.0
 11
108.9999879999999
 21
99.29999999999999
 31
0.0
  0
LINE
  5
13D
330
1E
100
AcDbEntity
  8
0
100
AcDbLine
 10
107.9999879999999
 20
98.3
 30
0.0
 11
107.9999879999999
 21
97.5
 31
0.0
  0
LINE
  5
13E
330
1E
100
AcDbEntity
  8
0
100
AcDbLine
 10
107.9999879999999
 20
98.3
 30
0.0
 11
107.9999879999999
 21
100.7
 31
0.0
  0
LINE
  5
13F
330
1E
100
AcDbEntity
  8
0
100
AcDbLine
 10
107.9999879999999
 20
100.7
 30
0.0
 11
107.9999879999999
 21
98.3
 31
0.0
  0
LINE
  5
140
330
1E
100
AcDbEntity
  8
0
100
AcDbLine
 10
107.9999879999999
 20
100.7
 30
0.0
 11
107.9999879999999
 21
104.7
 31
0.0
  0
LINE
  5
141
330
1E
100
AcDbEntity
  8
0
100
AcDbLine
 10
107.9999879999999
 20
104.7
 30
0.0
 11
107.9999879999999
 21
100.7
 31
0.0
  0
LINE
  5
142
330
1E
100
AcDbEntity
  8
0
100
AcDbLine
 10
107.9999879999999
 20
104.7
 30
0.0
 11
107.9999879999999
 21
109.8
 31
0.0
  0
LINE
  5
143
330
1E
100
AcDbEntity
  8
0
100
AcDbLine
 10
108.9999879999999
 20
99.29999999999999
 30
0.0
 11
108.9999879999999
 21
98.50000000000001
 31
0.0
  0
LINE
  5
144
330
1E
100
AcDbEntity
  8
0
100
AcDbLine
 10
108.9999879999999
 20
99.29999999999999
 30
0.0
 11
108.9999879999999
 21
101.6
 31
0.0
  0
LINE
  5
145
330
1E
100
AcDbEntity
  8
0
100
AcDbLine
 10
108.9999879999999
 20
101.6
 30
0.0
 11
108.9999879999999
 21
99.29999999999999
 31
0.0
  0
LINE
  5
146
330
1E
100
AcDbEntity
  8
0
100
AcDbLine
 10
108.9999879999999
 20
101.6
 30
0.0
 11
108.9999879999999
 21
105.2999999999999
 31
0.0
  0
LINE
  5
147
330
1E
100
AcDbEntity
  8
0
100
AcDbLine
 10
108.9999879999999
 20
105.2999999999999
 30
0.0
 11
108.9999879999999
 21
101.6
 31
0.0
  0
LINE
  5
148
330
1E
100
AcDbEntity
  8
0
100
AcDbLine
 10
108.9999879999999
 20
105.2999999999999
 30
0.0
 11
108.9999879999999
 21
110.2999999999999
 31
0.0
  0
LINE
  5
149
330
1E
100
AcDbEntity
  8
0
100
AcDbLine
 10
100.399988
 20
104.4999999999999
 30
0.0
 11
106.1999879999999
 21
108.0999999999999
 31
0.0
  0
LINE
  5
14A
330
1E
100
AcDbEntity
  8
0
100
AcDbLine
 10
107.9999879999999
 20
109.8
 30
0.0
 11
107.9999879999999
 21
104.7
 31
0.0
  0
LINE
  5
14B
330
1E
100
AcDbEntity
  8
0
100
AcDbLine
 10
107.9999879999999
 20
109.8
 30
0.0
 11
107.9999879999999
 21
109.964285714286
 31
0.0
  0
LINE
  5
14C
330
1E
100
AcDbEntity
  8
0
100
AcDbLine
 10
107.9999879999999
 20
109.964285714286
 30
0.0
 11
107.9999879999999
 21
109.8
 31
0.0
  0
LINE
  5
14D
330
1E
100
AcDbEntity
  8
0
100
AcDbLine
 10
108.9999879999999
 20
110.2999999999999
 30
0.0
 11
108.9999879999999
 21
105.2999999999999
 31
0.0
  0
LINE
  5
14E
330
1E
100
AcDbEntity
  8
0
100
AcDbLine
 10
108.9999879999999
 20
110.2999999999999
 30
0.0
 11
108.9999879999999
 21
111.0
 31
0.0
  0
LINE
  5
152
330
1E
100
AcDbEntity
  8
0
100
AcDbLine
 10
108.9999879999999
 20
111.0
 30
0.0
 11
108.9999879999999
 21
124.0
 31
0.0
  0
LINE
  5
153
330
1E
100
AcDbEntity
  8
0
100
AcDbLine
 10
108.9999879999999
 20
111.0
 30
0.0
 11
108.9999879999999
 21
110.2999999999999
 31
0.0
  0
LINE
  5
154
330
1E
100
AcDbEntity
  8
0
100
AcDbLine
 10
108.4999879999999
 20
111.2999999999999
 30
0.0
 11
108.4999879999999
 21
124.0
 31
0.0
  0
LINE
  5
155
330
1E
100
AcDbEntity
  8
0
100
AcDbLine
 10
108.4999879999999
 20
111.2999999999999
 30
0.0
 11
108.9999879999999
 21
111.0
 31
0.0
  0
LINE
  5
156
330
1E
100
AcDbEntity
  8
0
100
AcDbLine
 10
105.7999879999999
 20
108.4999999999999
 30
0.0
 11
108.4999879999999
 21
111.2999999999999
 31
0.0
  0
LINE
  5
157
330
1E
100
AcDbEntity
  8
0
100
AcDbLine
 10
100.0999879999999
 20
104.9
 30
0.0
 11
105.7999879999999
 21
108.4999999999999
 31
0.0
  0
LINE
  5
158
330
1E
100
AcDbEntity
  8
0
100
AcDbLine
 10
107.9999879999999
 20
97.5
 30
0.0
 11
108.9999879999999
 21
98.50000000000001
 31
0.0
  0
LINE
  5
159
330
1E
100
AcDbEntity
  8
0
100
AcDbLine
 10
107.9999879999999
 20
97.5
 30
0.0
 11
107.9999879999999
 21
90.26315999999999
 31
0.0
  0
LINE
  5
15A
330
1E
100
AcDbEntity
  8
0
100
AcDbLine
 10
107.9999879999999
 20
97.5
 30
0.0
 11
107.9999879999999
 21
98.3
 31
0.0
  0
LINE
  5
15B
330
1E
100
AcDbEntity
  8
0
100
AcDbLine
 10
118.999988
 20
110.0
 30
0.0
 11
120.9999879999999
 21
111.0
 31
0.0
  0
LINE
  5
15C
330
1E
100
AcDbEntity
  8
0
100
AcDbLine
 10
115.9999879999999
 20
110.0
 30
0.0
 11
118.999988
 21
110.0
 31
0.0
  0
LINE
  5
160
330
1E
100
AcDbEntity
  8
0
100
AcDbLine
 10
120.9999879999999
 20
111.0
 30
0.0
 11
122.9999879999999
 21
113.0
 31
0.0
  0
LINE
  5
161
330
1E
100
AcDbEntity
  8
0
100
AcDbLine
 10
122.9999879999999
 20
113.0
 30
0.0
 11
126.9999879999999
 21
113.0
 31
0.0
  0
LINE
  5
162
330
1E
100
AcDbEntity
  8
0
100
AcDbLine
 10
122.9999879999999
 20
113.0
 30
0.0
 11
122.9999879999999
 21
113.4
 31
0.0
  0
LINE
  5
163
330
1E
100
AcDbEntity
  8
0
100
AcDbLine
 10
112.9999879999999
 20
110.0
 30
0.0
 11
115.9999879999999
 21
110.0
 31
0.0
  0
LINE
  5
164
330
1E
100
AcDbEntity
  8
0
100
AcDbLine
 10
110.9999879999999
 20
111.0
 30
0.0
 11
112.9999879999999
 21
110.0
 31
0.0
  0
LINE
  5
165
330
1E
100
AcDbEntity
  8
0
100
AcDbLine
 10
108.9999879999999
 20
113.0
 30
0.0
 11
110.9999879999999
 21
111.0
 31
0.0
  0
LINE
  5
166
330
1E
100
AcDbEntity
  8
0
100
AcDbLine
 10
126.9999879999999
 20
101.8666999999999
 30
0.0
 11
126.9999879999999
 21
108.4
 31
0.0
  0
LINE
  5
167
330
1E
100
AcDbEntity
  8
0
100
AcDbLine
 10
126.9999879999999
 20
101.8666999999999
 30
0.0
 11
126.9999879999999
 21
96.80001
 31
0.0
  0
LINE
  5
16C
330
1E
100
AcDbEntity
  8
0
100
AcDbLine
 10
122.9999879999999
 20
124.0
 30
0.0
 11
122.9999879999999
 21
121.1999999999999
 31
0.0
  0
LINE
  5
16D
330
1E
100
AcDbEntity
  8
0
100
AcDbLine
 10
122.9999879999999
 20
124.0
 30
0.0
 11
122.9999879999999
 21
126.8
 31
0.0
  0
LINE
  5
16F
330
1E
100
AcDbEntity
  8
0
100
AcDbLine
 10
122.9999879999999
 20
121.1999999999999
 30
0.0
 11
122.9999879999999
 21
118.5
 31
0.0
  0
LINE
  5
170
330
1E
100
AcDbEntity
  8
0
100
AcDbLine
 10
122.9999879999999
 20
121.1999999999999
 30
0.0
 11
122.9999879999999
 21
124.0
 31
0.0
  0
LINE
  5
171
330
1E
100
AcDbEntity
  8
0
100
AcDbLine
 10
122.9999879999999
 20
118.5
 30
0.0
 11
122.9999879999999
 21
116.2
 31
0.0
  0
LINE
  5
172
330
1E
100
AcDbEntity
  8
0
100
AcDbLine
 10
122.9999879999999
 20
118.5
 30
0.0
 11
122.9999879999999
 21
121.1999999999999
 31
0.0
  0
LINE
  5
173
330
1E
100
AcDbEntity
  8
0
100
AcDbLine
 10
122.9999879999999
 20
116.2
 30
0.0
 11
122.9999879999999
 21
114.5
 31
0.0
  0
LINE
  5
174
330
1E
100
AcDbEntity
  8
0
100
AcDbLine
 10
122.9999879999999
 20
116.2
 30
0.0
 11
122.9999879999999
 21
118.5
 31
0.0
  0
LINE
  5
175
330
1E
100
AcDbEntity
  8
0
100
AcDbLine
 10
122.9999879999999
 20
114.5
 30
0.0
 11
122.9999879999999
 21
113.4
 31
0.0
  0
LINE
  5
176
330
1E
100
AcDbEntity
  8
0
100
AcDbLine
 10
122.9999879999999
 20
114.5
 30
0.0
 11
122.9999879999999
 21
116.2
 31
0.0
  0
LINE
  5
177
330
1E
100
AcDbEntity
  8
0
100
AcDbLine
 10
126.9999879999999
 20
123.9999
 30
0.0
 11
126.9999879999999
 21
116.0
 31
0.0
  0
LINE
  5
178
330
1E
100
AcDbEntity
  8
0
100
AcDbLine
 10
126.9999879999999
 20
123.9999
 30
0.0
 11
126.9999879999999
 21
132.0
 31
0.0
  0
LINE
  5
179
330
1E
100
AcDbEntity
  8
0
100
AcDbLine
 10
126.9999879999999
 20
116.0
 30
0.0
 11
126.9999879999999
 21
108.4
 31
0.0
  0
LINE
  5
17A
330
1E
100
AcDbEntity
  8
0
100
AcDbLine
 10
126.9999879999999
 20
116.0
 30
0.0
 11
126.9999879999999
 21
123.9999
 31
0.0
  0
LINE
  5
17B
330
1E
100
AcDbEntity
  8
0
100
AcDbLine
 10
122.9999879999999
 20
113.4
 30
0.0
 11
122.9999879999999
 21
113.0
 31
0.0
  0
LINE
  5
17C
330
1E
100
AcDbEntity
  8
0
100
AcDbLine
 10
122.9999879999999
 20
113.4
 30
0.0
 11
122.9999879999999
 21
114.5
 31
0.0
  0
LINE
  5
181
330
1E
100
AcDbEntity
  8
0
100
AcDbLine
 10
122.9999879999999
 20
126.8
 30
0.0
 11
122.9999879999999
 21
124.0
 31
0.0
  0
LINE
  5
182
330
1E
100
AcDbEntity
  8
0
100
AcDbLine
 10
122.9999879999999
 20
126.8
 30
0.0
 11
122.9999879999999
 21
129.4999999999999
 31
0.0
  0
LINE
  5
183
330
1E
100
AcDbEntity
  8
0
100
AcDbLine
 10
122.9999879999999
 20
129.4999999999999
 30
0.0
 11
122.9999879999999
 21
126.8
 31
0.0
  0
LINE
  5
184
330
1E
100
AcDbEntity
  8
0
100
AcDbLine
 10
122.9999879999999
 20
129.4999999999999
 30
0.0
 11
122.9999879999999
 21
131.8
 31
0.0
  0
LINE
  5
185
330
1E
100
AcDbEntity
  8
0
100
AcDbLine
 10
122.9999879999999
 20
131.8
 30
0.0
 11
122.9999879999999
 21
129.4999999999999
 31
0.0
  0
LINE
  5
186
330
1E
100
AcDbEntity
  8
0
100
AcDbLine
 10
122.9999879999999
 20
131.8
 30
0.0
 11
122.9999879999999
 21
133.4999999999999
 31
0.0
  0
LINE
  5
188
330
1E
100
AcDbEntity
  8
0
100
AcDbLine
 10
122.9999879999999
 20
133.4999999999999
 30
0.0
 11
122.9999879999999
 21
131.8
 31
0.0
  0
LINE
  5
189
330
1E
100
AcDbEntity
  8
0
100
AcDbLine
 10
122.9999879999999
 20
133.4999999999999
 30
0.0
 11
122.9999879999999
 21
134.5999999999999
 31
0.0
  0
LINE
  5
18A
330
1E
100
AcDbEntity
  8
0
100
AcDbLine
 10
126.9999879999999
 20
132.0
 30
0.0
 11
126.9999879999999
 21
123.9999
 31
0.0
  0
LINE
  5
18B
330
1E
100
AcDbEntity
  8
0
100
AcDbLine
 10
122.9999879999999
 20
134.5999999999999
 30
0.0
 11
122.9999879999999
 21
133.4999999999999
 31
0.0
  0
LINE
  5
18C
330
1E
100
AcDbEntity
  8
0
100
AcDbLine
 10
122.9999879999999
 20
134.5999999999999
 30
0.0
 11
122.9999879999999
 21
135.0
 31
0.0
  0
LINE
  5
18D
330
1E
100
AcDbEntity
  8
0
100
AcDbLine
 10
122.9999879999999
 20
135.0
 30
0.0
 11
122.9999879999999
 21
134.5999999999999
 31
0.0
  0
LINE
  5
18E
330
1E
100
AcDbEntity
  8
0
100
AcDbLine
 10
122.9999879999999
 20
135.0
 30
0.0
 11
126.9999879999999
 21
135.0
 31
0.0
  0
LINE
  5
191
330
1E
100
AcDbEntity
  8
0
100
AcDbLine
 10
108.9999879999999
 20
135.0
 30
0.0
 11
110.9999879999999
 21
137.0
 31
0.0
  0
LINE
  5
192
330
1E
100
AcDbEntity
  8
0
100
AcDbLine
 10
108.9999879999999
 20
124.0
 30
0.0
 11
108.9999879999999
 21
111.0
 31
0.0
  0
LINE
  5
193
330
1E
100
AcDbEntity
  8
0
100
AcDbLine
 10
108.9999879999999
 20
124.0
 30
0.0
 11
108.9999879999999
 21
137.0
 31
0.0
  0
LINE
  5
194
330
1E
100
AcDbEntity
  8
0
100
AcDbLine
 10
108.4999879999999
 20
124.0
 30
0.0
 11
108.4999879999999
 21
111.2999999999999
 31
0.0
  0
LINE
  5
195
330
1E
100
AcDbEntity
  8
0
100
AcDbLine
 10
108.4999879999999
 20
124.0
 30
0.0
 11
108.4999879999999
 21
136.6999999999999
 31
0.0
  0
LINE
  5
199
330
1E
100
AcDbEntity
  8
0
100
AcDbLine
 10
108.9999879999999
 20
137.0
 30
0.0
 11
108.9999879999999
 21
124.0
 31
0.0
  0
LINE
  5
19A
330
1E
100
AcDbEntity
  8
0
100
AcDbLine
 10
108.4999879999999
 20
136.6999999999999
 30
0.0
 11
108.9999879999999
 21
137.0
 31
0.0
  0
LINE
  5
19B
330
1E
100
AcDbEntity
  8
0
100
AcDbLine
 10
108.4999879999999
 20
136.6999999999999
 30
0.0
 11
108.4999879999999
 21
124.0
 31
0.0
  0
LINE
  5
19C
330
1E
100
AcDbEntity
  8
0
100
AcDbLine
 10
105.7999879999999
 20
139.5
 30
0.0
 11
108.4999879999999
 21
136.6999999999999
 31
0.0
  0
LINE
  5
19D
330
1E
100
AcDbEntity
  8
0
100
AcDbLine
 10
100.399988
 20
143.5
 30
0.0
 11
106.1999879999999
 21
139.9
 31
0.0
  0
LINE
  5
19E
330
1E
100
AcDbEntity
  8
0
100
AcDbLine
 10
100.0999879999999
 20
143.1
 30
0.0
 11
105.7999879999999
 21
139.5
 31
0.0
  0
LINE
  5
19F
330
1E
100
AcDbEntity
  8
0
100
AcDbLine
 10
115.9999879999999
 20
138.0
 30
0.0
 11
118.999988
 21
138.0
 31
0.0
  0
LINE
  5
1A1
330
1E
100
AcDbEntity
  8
0
100
AcDbLine
 10
118.999988
 20
138.0
 30
0.0
 11
120.9999879999999
 21
137.0
 31
0.0
  0
LINE
  5
1A4
330
1E
100
AcDbEntity
  8
0
100
AcDbLine
 10
120.9999879999999
 20
137.0
 30
0.0
 11
122.9999879999999
 21
135.0
 31
0.0
  0
LINE
  5
1A5
330
1E
100
AcDbEntity
  8
0
100
AcDbLine
 10
112.9999879999999
 20
138.0
 30
0.0
 11
115.9999879999999
 21
138.0
 31
0.0
  0
LINE
  5
1A6
330
1E
100
AcDbEntity
  8
0
100
AcDbLine
 10
110.9999879999999
 20
137.0
 30
0.0
 11
112.9999879999999
 21
138.0
 31
0.0
  0
LINE
  5
1A7
330
1E
100
AcDbEntity
  8
0
100
AcDbLine
 10
126.9999879999999
 20
151.2
 30
0.0
 11
126.9999879999999
 21
146.1332999999999
 31
0.0
  0
LINE
  5
1A8
330
1E
100
AcDbEntity
  8
0
100
AcDbLine
 10
126.9999879999999
 20
151.2
 30
0.0
 11
126.9999879999999
 21
154.1332999999999
 31
0.0
  0
LINE
  5
1A9
330
1E
100
AcDbEntity
  8
0
100
AcDbLine
 10
126.9999879999999
 20
154.1332999999999
 30
0.0
 11
126.9999879999999
 21
151.2
 31
0.0
  0
LINE
  5
1AA
330
1E
100
AcDbEntity
  8
0
100
AcDbLine
 10
126.9999879999999
 20
154.1332999999999
 30
0.0
 11
126.9999879999999
 21
155.3333
 31
0.0
  0
LINE
  5
1AB
330
1E
100
AcDbEntity
  8
0
100
AcDbLine
 10
126.9999879999999
 20
146.1332999999999
 30
0.0
 11
126.9999879999999
 21
139.5999999999999
 31
0.0
  0
LINE
  5
1AC
330
1E
100
AcDbEntity
  8
0
100
AcDbLine
 10
126.9999879999999
 20
146.1332999999999
 30
0.0
 11
126.9999879999999
 21
151.2
 31
0.0
  0
LINE
  5
1AD
330
1E
100
AcDbEntity
  8
0
100
AcDbLine
 10
126.9999879999999
 20
155.3333
 30
0.0
 11
127.4999879999999
 21
157.3333
 31
0.0
  0
LINE
  5
1AE
330
1E
100
AcDbEntity
  8
0
100
AcDbLine
 10
126.9999879999999
 20
155.3333
 30
0.0
 11
126.9999879999999
 21
154.1332999999999
 31
0.0
  0
LINE
  5
1AF
330
1E
100
AcDbEntity
  8
0
100
AcDbLine
 10
126.9999879999999
 20
135.0
 30
0.0
 11
126.9999879999999
 21
139.5999999999999
 31
0.0
  0
LINE
  5
1B0
330
1E
100
AcDbEntity
  8
0
100
AcDbLine
 10
126.9999879999999
 20
139.5999999999999
 30
0.0
 11
126.9999879999999
 21
146.1332999999999
 31
0.0
  0
LINE
  5
1B1
330
1E
100
AcDbEntity
  8
0
100
AcDbLine
 10
126.9999879999999
 20
139.5999999999999
 30
0.0
 11
126.9999879999999
 21
135.0
 31
0.0
  0
LINE
  5
1B2
330
1E
100
AcDbEntity
  8
0
100
AcDbLine
 10
126.9999879999999
 20
113.0
 30
0.0
 11
126.9999879999999
 21
108.4
 31
0.0
  0
LINE
  5
1B3
330
1E
100
AcDbEntity
  8
0
100
AcDbLine
 10
126.9999879999999
 20
108.4
 30
0.0
 11
126.9999879999999
 21
101.8666999999999
 31
0.0
  0
LINE
  5
1B4
330
1E
100
AcDbEntity
  8
0
100
AcDbLine
 10
126.9999879999999
 20
108.4
 30
0.0
 11
126.9999879999999
 21
113.0
 31
0.0
  0
LINE
  5
1B5
330
1E
100
AcDbEntity
  8
0
100
AcDbLine
 10
126.9999879999999
 20
108.4
 30
0.0
 11
126.9999879999999
 21
116.0
 31
0.0
  0
LINE
  5
1B6
330
1E
100
AcDbEntity
  8
0
100
AcDbLine
 10
126.9999879999999
 20
96.80001
 30
0.0
 11
126.9999879999999
 21
93.86667
 31
0.0
  0
LINE
  5
1B7
330
1E
100
AcDbEntity
  8
0
100
AcDbLine
 10
126.9999879999999
 20
96.80001
 30
0.0
 11
126.9999879999999
 21
101.8666999999999
 31
0.0
  0
LINE
  5
1B8
330
1E
100
AcDbEntity
  8
0
100
AcDbLine
 10
154.999988
 20
94.53329999999999
 30
0.0
 11
154.999988
 21
100.0
 31
0.0
  0
LINE
  5
1B9
330
1E
100
AcDbEntity
  8
0
100
AcDbLine
 10
154.999988
 20
100.0
 30
0.0
 11
154.999988
 21
94.53333999999999
 31
0.0
  0
LINE
  5
1BA
330
1E
100
AcDbEntity
  8
0
100
AcDbLine
 10
154.999988
 20
100.0
 30
0.0
 11
154.999988
 21
107.0667
 31
0.0
  0
LINE
  5
1BB
330
1E
100
AcDbEntity
  8
0
100
AcDbLine
 10
154.999988
 20
94.53333999999999
 30
0.0
 11
154.999988
 21
91.2
 31
0.0
  0
LINE
  5
1BC
330
1E
100
AcDbEntity
  8
0
100
AcDbLine
 10
154.999988
 20
91.2
 30
0.0
 11
154.999988
 21
90.0
 31
0.0
  0
LINE
  5
1BD
330
1E
100
AcDbEntity
  8
0
100
AcDbLine
 10
154.999988
 20
91.2
 30
0.0
 11
154.999988
 21
94.53329999999999
 31
0.0
  0
LINE
  5
1BE
330
1E
100
AcDbEntity
  8
0
100
AcDbLine
 10
127.4999879999999
 20
95.20000999999998
 30
0.0
 11
127.4999879999999
 21
100.4
 31
0.0
  0
LINE
  5
1BF
330
1E
100
AcDbEntity
  8
0
100
AcDbLine
 10
127.4999879999999
 20
132.5333
 30
0.0
 11
127.4999879999999
 21
124.0001
 31
0.0
  0
LINE
  5
1C0
330
1E
100
AcDbEntity
  8
0
100
AcDbLine
 10
127.4999879999999
 20
132.5333
 30
0.0
 11
127.4999879999999
 21
140.5332999999999
 31
0.0
  0
LINE
  5
1C1
330
1E
100
AcDbEntity
  8
0
100
AcDbLine
 10
127.4999879999999
 20
140.5332999999999
 30
0.0
 11
127.4999879999999
 21
132.5333
 31
0.0
  0
LINE
  5
1C2
330
1E
100
AcDbEntity
  8
0
100
AcDbLine
 10
127.4999879999999
 20
140.5332999999999
 30
0.0
 11
127.4999879999999
 21
147.5999999999999
 31
0.0
  0
LINE
  5
1C3
330
1E
100
AcDbEntity
  8
0
100
AcDbLine
 10
127.4999879999999
 20
147.5999999999999
 30
0.0
 11
127.4999879999999
 21
140.5332999999999
 31
0.0
  0
LINE
  5
1C4
330
1E
100
AcDbEntity
  8
0
100
AcDbLine
 10
127.4999879999999
 20
147.5999999999999
 30
0.0
 11
127.4999879999999
 21
152.8
 31
0.0
  0
LINE
  5
1C5
330
1E
100
AcDbEntity
  8
0
100
AcDbLine
 10
127.4999879999999
 20
152.8
 30
0.0
 11
127.4999879999999
 21
147.5999999999999
 31
0.0
  0
LINE
  5
1C6
330
1E
100
AcDbEntity
  8
0
100
AcDbLine
 10
127.4999879999999
 20
152.8
 30
0.0
 11
127.4999879999999
 21
156.1332999999999
 31
0.0
  0
LINE
  5
1C7
330
1E
100
AcDbEntity
  8
0
100
AcDbLine
 10
127.4999879999999
 20
156.1332999999999
 30
0.0
 11
127.4999879999999
 21
152.8
 31
0.0
  0
LINE
  5
1C8
330
1E
100
AcDbEntity
  8
0
100
AcDbLine
 10
127.4999879999999
 20
156.1332999999999
 30
0.0
 11
127.4999879999999
 21
157.3333
 31
0.0
  0
LINE
  5
1C9
330
1E
100
AcDbEntity
  8
0
100
AcDbLine
 10
127.4999879999999
 20
157.3333
 30
0.0
 11
128.999988
 21
158.0
 31
0.0
  0
LINE
  5
1CA
330
1E
100
AcDbEntity
  8
0
100
AcDbLine
 10
127.4999879999999
 20
157.3333
 30
0.0
 11
127.4999879999999
 21
156.1332999999999
 31
0.0
  0
LINE
  5
1CB
330
1E
100
AcDbEntity
  8
0
100
AcDbLine
 10
127.4999879999999
 20
124.0001
 30
0.0
 11
127.4999879999999
 21
115.4667
 31
0.0
  0
LINE
  5
1CC
330
1E
100
AcDbEntity
  8
0
100
AcDbLine
 10
127.4999879999999
 20
124.0001
 30
0.0
 11
127.4999879999999
 21
132.5333
 31
0.0
  0
LINE
  5
1CD
330
1E
100
AcDbEntity
  8
0
100
AcDbLine
 10
127.4999879999999
 20
115.4667
 30
0.0
 11
127.4999879999999
 21
107.4667
 31
0.0
  0
LINE
  5
1CE
330
1E
100
AcDbEntity
  8
0
100
AcDbLine
 10
127.4999879999999
 20
115.4667
 30
0.0
 11
127.4999879999999
 21
124.0001
 31
0.0
  0
LINE
  5
1CF
330
1E
100
AcDbEntity
  8
0
100
AcDbLine
 10
154.999988
 20
132.8
 30
0.0
 11
154.999988
 21
124.0001
 31
0.0
  0
LINE
  5
1D0
330
1E
100
AcDbEntity
  8
0
100
AcDbLine
 10
154.999988
 20
132.8
 30
0.0
 11
154.999988
 21
140.9332999999999
 31
0.0
  0
LINE
  5
1D1
330
1E
100
AcDbEntity
  8
0
100
AcDbLine
 10
154.999988
 20
140.9332999999999
 30
0.0
 11
154.999988
 21
132.8
 31
0.0
  0
LINE
  5
1D2
330
1E
100
AcDbEntity
  8
0
100
AcDbLine
 10
154.999988
 20
140.9332999999999
 30
0.0
 11
154.999988
 21
148.0
 31
0.0
  0
LINE
  5
1D3
330
1E
100
AcDbEntity
  8
0
100
AcDbLine
 10
154.999988
 20
148.0
 30
0.0
 11
154.999988
 21
140.9332999999999
 31
0.0
  0
LINE
  5
1D4
330
1E
100
AcDbEntity
  8
0
100
AcDbLine
 10
154.999988
 20
148.0
 30
0.0
 11
154.999988
 21
153.4666999999999
 31
0.0
  0
LINE
  5
1D5
330
1E
100
AcDbEntity
  8
0
100
AcDbLine
 10
154.999988
 20
153.4666999999999
 30
0.0
 11
154.999988
 21
148.0
 31
0.0
  0
LINE
  5
1D6
330
1E
100
AcDbEntity
  8
0
100
AcDbLine
 10
154.999988
 20
153.4666999999999
 30
0.0
 11
154.999988
 21
156.8
 31
0.0
  0
LINE
  5
1D7
330
1E
100
AcDbEntity
  8
0
100
AcDbLine
 10
154.999988
 20
156.8
 30
0.0
 11
154.999988
 21
153.4666999999999
 31
0.0
  0
LINE
  5
1D8
330
1E
100
AcDbEntity
  8
0
100
AcDbLine
 10
154.999988
 20
156.8
 30
0.0
 11
154.999988
 21
158.0
 31
0.0
  0
LINE
  5
1D9
330
1E
100
AcDbEntity
  8
0
100
AcDbLine
 10
154.999988
 20
158.0
 30
0.0
 11
154.999988
 21
156.8
 31
0.0
  0
LINE
  5
1DA
330
1E
100
AcDbEntity
  8
0
100
AcDbLine
 10
128.999988
 20
158.0
 30
0.0
 11
154.999988
 21
158.0
 31
0.0
  0
LINE
  5
1DB
330
1E
100
AcDbEntity
  8
0
100
AcDbLine
 10
154.999988
 20
124.0001
 30
0.0
 11
154.999988
 21
115.2
 31
0.0
  0
LINE
  5
1DC
330
1E
100
AcDbEntity
  8
0
100
AcDbLine
 10
154.999988
 20
124.0001
 30
0.0
 11
154.999988
 21
132.8
 31
0.0
  0
LINE
  5
1DD
330
1E
100
AcDbEntity
  8
0
100
AcDbLine
 10
154.999988
 20
115.2
 30
0.0
 11
154.999988
 21
107.0667
 31
0.0
  0
LINE
  5
1DE
330
1E
100
AcDbEntity
  8
0
100
AcDbLine
 10
154.999988
 20
115.2
 30
0.0
 11
154.999988
 21
124.0001
 31
0.0
  0
LINE
  5
1DF
330
1E
100
AcDbEntity
  8
0
100
AcDbLine
 10
154.999988
 20
107.0667
 30
0.0
 11
154.999988
 21
100.0
 31
0.0
  0
LINE
  5
1E0
330
1E
100
AcDbEntity
  8
0
100
AcDbLine
 10
154.999988
 20
107.0667
 30
0.0
 11
154.999988
 21
115.2
 31
0.0
  0
LINE
  5
1E1
330
1E
100
AcDbEntity
  8
0
100
AcDbLine
 10
127.4999879999999
 20
107.4667
 30
0.0
 11
127.4999879999999
 21
100.4
 31
0.0
  0
LINE
  5
1E2
330
1E
100
AcDbEntity
  8
0
100
AcDbLine
 10
127.4999879999999
 20
107.4667
 30
0.0
 11
127.4999879999999
 21
115.4667
 31
0.0
  0
LINE
  5
1E3
330
1E
100
AcDbEntity
  8
0
100
AcDbLine
 10
127.4999879999999
 20
100.4
 30
0.0
 11
127.4999879999999
 21
95.20000999999998
 31
0.0
  0
LINE
  5
1E4
330
1E
100
AcDbEntity
  8
0
100
AcDbLine
 10
127.4999879999999
 20
100.4
 30
0.0
 11
127.4999879999999
 21
107.4667
 31
0.0
  0
LINE
  5
1E5
330
1E
100
AcDbEntity
  8
0
100
AcDbLine
 10
127.4999879999999
 20
91.86666999999999
 30
0.0
 11
127.4999879999999
 21
90.666668
 31
0.0
  0
LINE
  5
1E6
330
1E
100
AcDbEntity
  8
0
100
AcDbLine
 10
127.4999879999999
 20
91.86666999999999
 30
0.0
 11
127.4999879999999
 21
95.20000999999998
 31
0.0
  0
LINE
  5
1E7
330
1E
100
AcDbEntity
  8
0
100
AcDbLine
 10
127.4999879999999
 20
90.666668
 30
0.0
 11
128.999988
 21
90.0
 31
0.0
  0
LINE
  5
1E8
330
1E
100
AcDbEntity
  8
0
100
AcDbLine
 10
127.4999879999999
 20
90.666668
 30
0.0
 11
127.4999879999999
 21
91.86666999999999
 31
0.0
  0
LINE
  5
1E9
330
1E
100
AcDbEntity
  8
0
100
AcDbLine
 10
126.9999879999999
 20
93.86667
 30
0.0
 11
126.9999879999999
 21
92.66666999999999
 31
0.0
  0
LINE
  5
1EA
330
1E
100
AcDbEntity
  8
0
100
AcDbLine
 10
126.9999879999999
 20
93.86667
 30
0.0
 11
126.9999879999999
 21
96.80001
 31
0.0
  0
LINE
  5
1EB
330
1E
100
AcDbEntity
  8
0
100
AcDbLine
 10
100.999988
 20
90.0
 30
0.0
 11
103.6999879999999
 21
90.0
 31
0.0
  0
LINE
  5
1EC
330
1E
100
AcDbEntity
  8
0
100
AcDbLine
 10
97.999988
 20
90.0
 30
0.0
 11
100.999988
 21
90.0
 31
0.0
  0
LINE
  5
1ED
330
1E
100
AcDbEntity
  8
0
100
AcDbLine
 10
105.499988
 20
60.0
 30
0.0
 11
107.0999879999999
 21
60.0
 31
0.0
  0
LINE
  5
1EE
330
1E
100
AcDbEntity
  8
0
100
AcDbLine
 10
105.499988
 20
60.0
 30
0.0
 11
105.499988
 21
4.261770000000009
 31
0.0
  0
LINE
  5
1EF
330
1E
100
AcDbEntity
  8
0
100
AcDbLine
 10
96.09998799999999
 20
60.0
 30
0.0
 11
97.999988
 21
60.0
 31
0.0
  0
LINE
  5
1F0
330
1E
100
AcDbEntity
  8
0
100
AcDbLine
 10
96.09998799999999
 20
9.771700000000009
 30
0.0
 11
97.999988
 21
10.0
 31
0.0
  0
LINE
  5
1F1
330
1E
100
AcDbEntity
  8
0
100
AcDbLine
 10
94.29998799999999
 20
0.101220000000007
 30
0.0
 11
96.09998799999999
 21
0.0262500000000068
 31
0.0
  0
LINE
  5
1F2
330
1E
100
AcDbEntity
  8
0
100
AcDbLine
 10
96.09998799999999
 20
0.0262500000000068
 30
0.0
 11
97.999988
 21
0.0000000000000067
 31
0.0
  0
LINE
  5
1F3
330
1E
100
AcDbEntity
  8
0
100
AcDbLine
 10
88.899988
 20
60.0
 30
0.0
 11
90.499988
 21
60.0
 31
0.0
  0
LINE
  5
1F4
330
1E
100
AcDbEntity
  8
0
100
AcDbLine
 10
88.899988
 20
60.0
 30
0.0
 11
90.599988
 21
60.0
 31
0.0
  0
LINE
  5
1F9
330
1E
100
AcDbEntity
  8
0
100
AcDbLine
 10
110.9999879999999
 20
137.0
 30
0.0
 11
110.9999879999999
 21
111.0
 31
0.0
  0
LINE
  5
1FA
330
1E
100
AcDbEntity
  8
0
100
AcDbLine
 10
120.9999879999999
 20
137.0
 30
0.0
 11
120.9999879999999
 21
111.0
 31
0.0
  0
LINE
  5
1FB
330
1E
100
AcDbEntity
  8
0
100
AcDbLine
 10
106.1999879999999
 20
108.0999999999999
 30
0.0
 11
107.9999879999999
 21
109.8
 31
0.0
  0
LINE
  5
1FC
330
1E
100
AcDbEntity
  8
0
100
AcDbLine
 10
107.9999879999999
 20
109.8
 30
0.0
 11
108.9999879999999
 21
111.0
 31
0.0
  0
LINE
  5
1FD
330
1E
100
AcDbEntity
  8
0
100
AcDbLine
 10
93.69998800000001
 20
102.2999999999999
 30
0.0
 11
100.399988
 21
104.4999999999999
 31
0.0
  0
LINE
  5
1FE
330
1E
100
AcDbEntity
  8
0
100
AcDbLine
 10
86.499988
 20
101.5
 30
0.0
 11
80.699988
 21
102.2999999999999
 31
0.0
  0
LINE
  5
1FF
330
1E
100
AcDbEntity
  8
0
100
AcDbLine
 10
70.59998799999999
 20
108.0999999999999
 30
0.0
 11
67.07597996309743
 21
112.7341026410991
 31
0.0
  0
LINE
  5
200
330
1E
100
AcDbEntity
  8
0
100
AcDbLine
 10
67.07597996309743
 20
112.7341026410991
 30
0.0
 11
64.88604562008595
 21
118.2276367344168
 31
0.0
  0
LINE
  5
201
330
1E
100
AcDbEntity
  8
0
100
AcDbLine
 10
64.88604562008595
 20
118.2276367344168
 30
0.0
 11
63.99219576394978
 21
124.0338105152646
 31
0.0
  0
LINE
  5
202
330
1E
100
AcDbEntity
  8
0
100
AcDbLine
 10
63.99219576394978
 20
124.0338105152646
 30
0.0
 11
64.799988
 21
129.8
 31
0.0
  0
LINE
  5
203
330
1E
100
AcDbEntity
  8
0
100
AcDbLine
 10
106.1999879999999
 20
139.9
 30
0.0
 11
108.9999879999999
 21
137.0
 31
0.0
  0
LINE
  5
204
330
1E
100
AcDbEntity
  8
0
100
AcDbLine
 10
80.699988
 20
145.6999999999999
 30
0.0
 11
86.499988
 21
146.5
 31
0.0
  0
LINE
  5
205
330
1E
100
AcDbEntity
  8
0
100
AcDbLine
 10
86.499988
 20
146.5
 30
0.0
 11
93.66685593528178
 21
145.6320321648613
 31
0.0
  0
LINE
  5
206
330
1E
100
AcDbEntity
  8
0
100
AcDbLine
 10
93.66685593528178
 20
145.6320321648613
 30
0.0
 11
100.399988
 21
143.5
 31
0.0
  0
ENDSEC
  0
SECTION
  2
OBJECTS
  0
DICTIONARY
  5
C
330
0
100
AcDbDictionary
  3
ACAD_GROUP
350
D
  3
ACAD_LAYOUT
350
19
  3
ACAD_MLINESTYLE
350
16
  3
ACAD_PLOTSETTINGS
350
18
  3
ACAD_PLOTSTYLENAME
350
E
  3
ACDBHEADERROUNDTRIPXREC
350
20A
  3
ACDBVARIABLEDICTIONARY
350
207
  0
DICTIONARY
  5
22C
330
1E
100
AcDbDictionary
280
     1
  3
ACAD_LAYOUTSELFREF
360
22D
  0
DICTIONARY
  5
22A
330
1A
100
AcDbDictionary
280
     1
  3
ACAD_LAYOUTSELFREF
360
22B
  0
DICTIONARY
  5
D
102
{ACAD_REACTORS
330
C
102
}
330
C
100
AcDbDictionary
  0
DICTIONARY
  5
19
102
{ACAD_REACTORS
330
C
102
}
330
C
100
AcDbDictionary
  0
DICTIONARY
  5
16
102
{ACAD_REACTORS
330
C
102
}
330
C
100
AcDbDictionary
  3
STANDARD
350
17
  0
DICTIONARY
  5
18
102
{ACAD_REACTORS
330
C
102
}
330
C
100
AcDbDictionary
  0
ACDBDICTIONARYWDFLT
  5
E
102
{ACAD_REACTORS
330
C
102
}
330
C
100
AcDbDictionary
281
     1
  3
Normal
350
F
100
AcDbDictionaryWithDefault
340
F
  0
DICTIONARY
  5
20A
102
{ACAD_REACTORS
330
C
102
}
330
C
100
AcDbDictionary
  3
CEPSNTYPE
350
214
  3
FINGERPRINTGUID
350
215
  3
HYPERLINKBASE
350
20D
  3
INSUNITS
350
213
  3
LAYOUTDICT
350
20F
  3
LWETCUNION
350
212
  3
PLOTSETDICT
350
210
  3
PLOTSTYLNAMDICT
350
211
  3
PSVPSCALE
350
217
  3
PUCSBASE
350
21A
  3
PUCSORGBACK
350
220
  3
PUCSORGBOTTOM
350
21C
  3
PUCSORGFRONT
350
21F
  3
PUCSORGLEFT
350
21D
  3
PUCSORGRIGHT
350
21E
  3
PUCSORGTOP
350
21B
  3
PUCSORTHOREF
350
218
  3
PUCSORTHOVIEW
350
219
  3
STYLESHEET
350
20E
  3
TSTACKALIGN
350
20B
  3
TSTACKSIZE
350
20C
  3
UCSBASE
350
223
  3
UCSORGBACK
350
229
  3
UCSORGBOTTOM
350
225
  3
UCSORGFRONT
350
228
  3
UCSORGLEFT
350
226
  3
UCSORGRIGHT
350
227
  3
UCSORGTOP
350
224
  3
UCSORTHOREF
350
221
  3
UCSORTHOVIEW
350
222
  3
VERSIONGUID
350
216
  0
DICTIONARY
  5
207
102
{ACAD_REACTORS
330
C
102
}
330
C
100
AcDbDictionary
  3
DIMASSOC
350
208
  0
XRECORD
  5
22D
102
{ACAD_REACTORS
330
22C
102
}
330
22C
100
AcDbXrecord
340
1E
  0
XRECORD
  5
22B
102
{ACAD_REACTORS
330
22A
102
}
330
22A
100
AcDbXrecord
340
1A
  0
MLINESTYLE
  5
17
102
{ACAD_REACTORS
330
16
102
}
330
16
100
AcDbMlineStyle
  2
STANDARD
 70
     0
  3

 62
   256
 51
90.0
 52
90.0
 71
     2
 49
0.5
 62
   256
  6
BYLAYER
 49
-0.5
 62
   256
  6
BYLAYER
  0
ACDBPLACEHOLDER
  5
F
102
{ACAD_REACTORS
330
E
102
}
330
E
100
AcDbPlaceHolder
280
     0
  0
XRECORD
  5
214
102
{ACAD_REACTORS
330
20A
102
}
330
20A
100
AcDbXrecord
 90
        0
  0
XRECORD
  5
215
102
{ACAD_REACTORS
330
20A
102
}
330
20A
100
AcDbXrecord
  1
{42FDF9DD-A4CF-4E82-8598-AB2693D9E50F}
  0
XRECORD
  5
20D
102
{ACAD_REACTORS
330
20A
102
}
330
20A
100
AcDbXrecord
  1

  0
XRECORD
  5
213
102
{ACAD_REACTORS
330
20A
102
}
330
20A
100
AcDbXrecord
 90
        0
  0
XRECORD
  5
20F
102
{ACAD_REACTORS
330
20A
102
}
330
20A
100
AcDbXrecord
340
19
  0
XRECORD
  5
212
102
{ACAD_REACTORS
330
20A
102
}
330
20A
100
AcDbXrecord
 90
    10781
  0
XRECORD
  5
210
102
{ACAD_REACTORS
330
20A
102
}
330
20A
100
AcDbXrecord
340
18
  0
XRECORD
  5
211
102
{ACAD_REACTORS
330
20A
102
}
330
20A
100
AcDbXrecord
340
E
  0
XRECORD
  5
217
102
{ACAD_REACTORS
330
20A
102
}
330
20A
100
AcDbXrecord
 40
0.0
  0
XRECORD
  5
21A
102
{ACAD_REACTORS
330
20A
102
}
330
20A
100
AcDbXrecord
340
0
  0
XRECORD
  5
220
102
{ACAD_REACTORS
330
20A
102
}
330
20A
100
AcDbXrecord
 10
0.0
 20
0.0
 30
0.0
  0
XRECORD
  5
21C
102
{ACAD_REACTORS
330
20A
102
}
330
20A
100
AcDbXrecord
 10
0.0
 20
0.0
 30
0.0
  0
XRECORD
  5
21F
102
{ACAD_REACTORS
330
20A
102
}
330
20A
100
AcDbXrecord
 10
0.0
 20
0.0
 30
0.0
  0
XRECORD
  5
21D
102
{ACAD_REACTORS
330
20A
102
}
330
20A
100
AcDbXrecord
 10
0.0
 20
0.0
 30
0.0
  0
XRECORD
  5
21E
102
{ACAD_REACTORS
330
20A
102
}
330
20A
100
AcDbXrecord
 10
0.0
 20
0.0
 30
0.0
  0
XRECORD
  5
21B
102
{ACAD_REACTORS
330
20A
102
}
330
20A
100
AcDbXrecord
 10
0.0
 20
0.0
 30
0.0
  0
XRECORD
  5
218
102
{ACAD_REACTORS
330
20A
102
}
330
20A
100
AcDbXrecord
340
0
  0
XRECORD
  5
219
102
{ACAD_REACTORS
330
20A
102
}
330
20A
100
AcDbXrecord
 70
     0
  0
XRECORD
  5
20E
102
{ACAD_REACTORS
330
20A
102
}
330
20A
100
AcDbXrecord
  1

  0
XRECORD
  5
20B
102
{ACAD_REACTORS
330
20A
102
}
330
20A
100
AcDbXrecord
 90
        1
  0
XRECORD
  5
20C
102
{ACAD_REACTORS
330
20A
102
}
330
20A
100
AcDbXrecord
 90
       70
  0
XRECORD
  5
223
102
{ACAD_REACTORS
330
20A
102
}
330
20A
100
AcDbXrecord
340
0
  0
XRECORD
  5
229
102
{ACAD_REACTORS
330
20A
102
}
330
20A
100
AcDbXrecord
 10
0.0
 20
0.0
 30
0.0
  0
XRECORD
  5
225
102
{ACAD_REACTORS
330
20A
102
}
330
20A
100
AcDbXrecord
 10
0.0
 20
0.0
 30
0.0
  0
XRECORD
  5
228
102
{ACAD_REACTORS
330
20A
102
}
330
20A
100
AcDbXrecord
 10
0.0
 20
0.0
 30
0.0
  0
XRECORD
  5
226
102
{ACAD_REACTORS
330
20A
102
}
330
20A
100
AcDbXrecord
 10
0.0
 20
0.0
 30
0.0
  0
XRECORD
  5
227
102
{ACAD_REACTORS
330
20A
102
}
330
20A
100
AcDbXrecord
 10
0.0
 20
0.0
 30
0.0
  0
XRECORD
  5
224
102
{ACAD_REACTORS
330
20A
102
}
330
20A
100
AcDbXrecord
 10
0.0
 20
0.0
 30
0.0
  0
XRECORD
  5
221
102
{ACAD_REACTORS
330
20A
102
}
330
20A
100
AcDbXrecord
340
0
  0
XRECORD
  5
222
102
{ACAD_REACTORS
330
20A
102
}
330
20A
100
AcDbXrecord
 70
     1
  0
XRECORD
  5
216
102
{ACAD_REACTORS
330
20A
102
}
330
20A
100
AcDbXrecord
  1
{E5C337E6-996A-44DA-8B14-C11F15F68FAD}
  0
DICTIONARYVAR
  5
208
102
{ACAD_REACTORS
330
207
102
}
330
207
100
DictionaryVariables
280
     0
  1
1
  0
ENDSEC
  0
EOF
