999
Erzeugt mit innoplus bad 
0
SECTION
2
HEADER
9
$ACADVER
1
AC1009
9
$DWGCODEPAGE
3
ISO8859-1
0
ENDSEC
0
SECTION
2
TABLES
0
TABLE
2
LAYER
70
1
0
LAYER
2
0
70
0
62
7
6
CONTINUOUS
0
ENDTAB
0
ENDSEC
0
SECTION
2
ENTITIES
0
LINE
8
0
6
CONTINUOUS
10
0.000000
20
0.090237
30
0.0
11
0.016794
21
0.088344
31
0.0
0
LINE
8
0
6
CONTINUOUS
10
0.016794
20
0.088344
30
0.0
11
0.032746
21
0.082762
31
0.0
0
LINE
8
0
6
CONTINUOUS
10
0.047057
20
0.073771
30
0.0
11
0.032746
21
0.082762
31
0.0
0
LINE
8
0
6
CONTINUOUS
10
0.059007
20
0.061820
30
0.0
11
0.047057
21
0.073771
31
0.0
0
LINE
8
0
6
CONTINUOUS
10
0.059007
20
0.061820
30
0.0
11
0.067999
21
0.047510
31
0.0
0
LINE
8
0
6
CONTINUOUS
10
0.067999
20
0.047510
30
0.0
11
0.073581
21
0.031558
31
0.0
0
LINE
8
0
6
CONTINUOUS
10
0.073581
20
0.031558
30
0.0
11
0.075473
21
0.014764
31
0.0
0
LINE
8
0
6
CONTINUOUS
10
0.075473
20
0.014764
30
0.0
11
0.073581
21
-0.002031
31
0.0
0
LINE
8
0
6
CONTINUOUS
10
0.067999
20
-0.017983
30
0.0
11
0.073581
21
-0.002031
31
0.0
0
LINE
8
0
6
CONTINUOUS
10
0.059007
20
-0.032293
30
0.0
11
0.067999
21
-0.017983
31
0.0
0
LINE
8
0
6
CONTINUOUS
10
0.047057
20
-0.044244
30
0.0
11
0.059007
21
-0.032293
31
0.0
0
LINE
8
0
6
CONTINUOUS
10
0.032747
20
-0.053235
30
0.0
11
0.047057
21
-0.044244
31
0.0
0
LINE
8
0
6
CONTINUOUS
10
0.016794
20
-0.058817
30
0.0
11
0.032747
21
-0.053235
31
0.0
0
LINE
8
0
6
CONTINUOUS
10
0.005672
20
-0.060070
30
0.0
11
0.016794
21
-0.058817
31
0.0
0
LINE
8
0
6
CONTINUOUS
10
-0.016794
20
-0.058817
30
0.0
11
-0.005672
21
-0.060070
31
0.0
0
LINE
8
0
6
CONTINUOUS
10
-0.032747
20
-0.053235
30
0.0
11
-0.016794
21
-0.058817
31
0.0
0
LINE
8
0
6
CONTINUOUS
10
-0.032747
20
-0.053235
30
0.0
11
-0.047057
21
-0.044244
31
0.0
0
LINE
8
0
6
CONTINUOUS
10
-0.059007
20
-0.032293
30
0.0
11
-0.047057
21
-0.044244
31
0.0
0
LINE
8
0
6
CONTINUOUS
10
-0.059007
20
-0.032293
30
0.0
11
-0.067999
21
-0.017983
31
0.0
0
LINE
8
0
6
CONTINUOUS
10
-0.073581
20
-0.002031
30
0.0
11
-0.067999
21
-0.017983
31
0.0
0
LINE
8
0
6
CONTINUOUS
10
-0.075473
20
0.014763
30
0.0
11
-0.073581
21
-0.002031
31
0.0
0
LINE
8
0
6
CONTINUOUS
10
-0.075473
20
0.014763
30
0.0
11
-0.073581
21
0.031558
31
0.0
0
LINE
8
0
6
CONTINUOUS
10
-0.067999
20
0.047510
30
0.0
11
-0.073581
21
0.031558
31
0.0
0
LINE
8
0
6
CONTINUOUS
10
-0.059007
20
0.061820
30
0.0
11
-0.067999
21
0.047510
31
0.0
0
LINE
8
0
6
CONTINUOUS
10
-0.047057
20
0.073771
30
0.0
11
-0.059007
21
0.061820
31
0.0
0
LINE
8
0
6
CONTINUOUS
10
-0.032747
20
0.082762
30
0.0
11
-0.047057
21
0.073771
31
0.0
0
LINE
8
0
6
CONTINUOUS
10
-0.016794
20
0.088344
30
0.0
11
-0.032747
21
0.082762
31
0.0
0
LINE
8
0
6
CONTINUOUS
10
-0.016794
20
0.088344
30
0.0
11
0.000000
21
0.090237
31
0.0
0
LINE
8
0
6
CONTINUOUS
10
0.000000
20
0.066407
30
0.0
11
-0.003749
21
0.065880
31
0.0
0
LINE
8
0
6
CONTINUOUS
10
-0.003749
20
0.065880
30
0.0
11
-0.007263
21
0.064474
31
0.0
0
LINE
8
0
6
CONTINUOUS
10
-0.007263
20
0.064474
30
0.0
11
-0.010368
21
0.062131
31
0.0
0
LINE
8
0
6
CONTINUOUS
10
-0.010368
20
0.062131
30
0.0
11
-0.012710
21
0.059027
31
0.0
0
LINE
8
0
6
CONTINUOUS
10
-0.012710
20
0.059027
30
0.0
11
-0.014116
21
0.055512
31
0.0
0
LINE
8
0
6
CONTINUOUS
10
-0.014116
20
0.055512
30
0.0
11
-0.014643
21
0.051763
31
0.0
0
LINE
8
0
6
CONTINUOUS
10
0.000000
20
0.037120
30
0.0
11
0.003749
21
0.037647
31
0.0
0
LINE
8
0
6
CONTINUOUS
10
0.003749
20
0.037647
30
0.0
11
0.007263
21
0.039053
31
0.0
0
LINE
8
0
6
CONTINUOUS
10
0.007263
20
0.039053
30
0.0
11
0.010368
21
0.041396
31
0.0
0
LINE
8
0
6
CONTINUOUS
10
0.010368
20
0.041396
30
0.0
11
0.012711
21
0.044500
31
0.0
0
LINE
8
0
6
CONTINUOUS
10
0.012711
20
0.044500
30
0.0
11
0.014116
21
0.048015
31
0.0
0
LINE
8
0
6
CONTINUOUS
10
0.014116
20
0.048015
30
0.0
11
0.014643
21
0.051763
31
0.0
0
LINE
8
0
6
CONTINUOUS
10
0.003749
20
0.065880
30
0.0
11
0.000000
21
0.066407
31
0.0
0
LINE
8
0
6
CONTINUOUS
10
0.007263
20
0.064474
30
0.0
11
0.003749
21
0.065880
31
0.0
0
LINE
8
0
6
CONTINUOUS
10
0.010368
20
0.062131
30
0.0
11
0.007263
21
0.064474
31
0.0
0
LINE
8
0
6
CONTINUOUS
10
0.012711
20
0.059027
30
0.0
11
0.010368
21
0.062131
31
0.0
0
LINE
8
0
6
CONTINUOUS
10
0.014116
20
0.055512
30
0.0
11
0.012711
21
0.059027
31
0.0
0
LINE
8
0
6
CONTINUOUS
10
0.014643
20
0.051763
30
0.0
11
0.014116
21
0.055512
31
0.0
0
LINE
8
0
6
CONTINUOUS
10
-0.003749
20
0.037647
30
0.0
11
0.000000
21
0.037120
31
0.0
0
LINE
8
0
6
CONTINUOUS
10
-0.007263
20
0.039053
30
0.0
11
-0.003749
21
0.037647
31
0.0
0
LINE
8
0
6
CONTINUOUS
10
-0.010368
20
0.041396
30
0.0
11
-0.007263
21
0.039053
31
0.0
0
LINE
8
0
6
CONTINUOUS
10
-0.012710
20
0.044500
30
0.0
11
-0.010368
21
0.041396
31
0.0
0
LINE
8
0
6
CONTINUOUS
10
-0.014116
20
0.048015
30
0.0
11
-0.012710
21
0.044500
31
0.0
0
LINE
8
0
6
CONTINUOUS
10
-0.014643
20
0.051763
30
0.0
11
-0.014116
21
0.048015
31
0.0
0
LINE
8
0
6
CONTINUOUS
10
0.000000
20
0.066402
30
0.0
11
-0.003747
21
0.065875
31
0.0
0
LINE
8
0
6
CONTINUOUS
10
-0.003633
20
0.065444
30
0.0
11
0.000000
21
0.065954
31
0.0
0
LINE
8
0
6
CONTINUOUS
10
-0.010364
20
0.062127
30
0.0
11
-0.012706
21
0.059024
31
0.0
0
LINE
8
0
6
CONTINUOUS
10
-0.012317
20
0.058805
30
0.0
11
-0.010048
21
0.061811
31
0.0
0
LINE
8
0
6
CONTINUOUS
10
0.000000
20
0.037125
30
0.0
11
0.003747
21
0.037652
31
0.0
0
LINE
8
0
6
CONTINUOUS
10
0.003633
20
0.038083
30
0.0
11
0.000000
21
0.037572
31
0.0
0
LINE
8
0
6
CONTINUOUS
10
0.007261
20
0.039057
30
0.0
11
0.010364
21
0.041399
31
0.0
0
LINE
8
0
6
CONTINUOUS
10
0.010048
20
0.041716
30
0.0
11
0.007041
21
0.039447
31
0.0
0
LINE
8
0
6
CONTINUOUS
10
0.007261
20
0.064470
30
0.0
11
0.003747
21
0.065875
31
0.0
0
LINE
8
0
6
CONTINUOUS
10
0.007041
20
0.064080
30
0.0
11
0.003633
21
0.065444
31
0.0
0
LINE
8
0
6
CONTINUOUS
10
0.012706
20
0.059024
30
0.0
11
0.010364
21
0.062127
31
0.0
0
LINE
8
0
6
CONTINUOUS
10
0.012317
20
0.058805
30
0.0
11
0.010048
21
0.061811
31
0.0
0
LINE
8
0
6
CONTINUOUS
10
-0.014638
20
0.051763
30
0.0
11
-0.014111
21
0.048016
31
0.0
0
LINE
8
0
6
CONTINUOUS
10
-0.014191
20
0.051763
30
0.0
11
-0.013680
21
0.048131
31
0.0
0
LINE
8
0
6
CONTINUOUS
10
0.003747
20
0.065875
30
0.0
11
0.000000
21
0.066402
31
0.0
0
LINE
8
0
6
CONTINUOUS
10
0.003633
20
0.065444
30
0.0
11
0.000000
21
0.065954
31
0.0
0
LINE
8
0
6
CONTINUOUS
10
0.014111
20
0.055511
30
0.0
11
0.012706
21
0.059024
31
0.0
0
LINE
8
0
6
CONTINUOUS
10
0.013680
20
0.055396
30
0.0
11
0.012317
21
0.058805
31
0.0
0
LINE
8
0
6
CONTINUOUS
10
0.010364
20
0.062127
30
0.0
11
0.007261
21
0.064470
31
0.0
0
LINE
8
0
6
CONTINUOUS
10
0.010048
20
0.061811
30
0.0
11
0.007041
21
0.064080
31
0.0
0
LINE
8
0
6
CONTINUOUS
10
-0.003747
20
0.065875
30
0.0
11
-0.007261
21
0.064470
31
0.0
0
LINE
8
0
6
CONTINUOUS
10
-0.007041
20
0.064080
30
0.0
11
-0.003633
21
0.065444
31
0.0
0
LINE
8
0
6
CONTINUOUS
10
-0.012706
20
0.044503
30
0.0
11
-0.010364
21
0.041399
31
0.0
0
LINE
8
0
6
CONTINUOUS
10
-0.012317
20
0.044722
30
0.0
11
-0.010048
21
0.041716
31
0.0
0
LINE
8
0
6
CONTINUOUS
10
-0.010364
20
0.041399
30
0.0
11
-0.007261
21
0.039057
31
0.0
0
LINE
8
0
6
CONTINUOUS
10
-0.010048
20
0.041716
30
0.0
11
-0.007041
21
0.039447
31
0.0
0
LINE
8
0
6
CONTINUOUS
10
0.003747
20
0.037652
30
0.0
11
0.007261
21
0.039057
31
0.0
0
LINE
8
0
6
CONTINUOUS
10
0.007041
20
0.039447
30
0.0
11
0.003633
21
0.038083
31
0.0
0
LINE
8
0
6
CONTINUOUS
10
-0.007261
20
0.064470
30
0.0
11
-0.010364
21
0.062127
31
0.0
0
LINE
8
0
6
CONTINUOUS
10
-0.010048
20
0.061811
30
0.0
11
-0.007041
21
0.064080
31
0.0
0
LINE
8
0
6
CONTINUOUS
10
-0.003747
20
0.037652
30
0.0
11
0.000000
21
0.037125
31
0.0
0
LINE
8
0
6
CONTINUOUS
10
-0.003633
20
0.038083
30
0.0
11
0.000000
21
0.037572
31
0.0
0
LINE
8
0
6
CONTINUOUS
10
0.014111
20
0.048016
30
0.0
11
0.014638
21
0.051763
31
0.0
0
LINE
8
0
6
CONTINUOUS
10
0.014191
20
0.051763
30
0.0
11
0.013680
21
0.048131
31
0.0
0
LINE
8
0
6
CONTINUOUS
10
0.014638
20
0.051763
30
0.0
11
0.014111
21
0.055511
31
0.0
0
LINE
8
0
6
CONTINUOUS
10
0.014191
20
0.051763
30
0.0
11
0.013680
21
0.055396
31
0.0
0
LINE
8
0
6
CONTINUOUS
10
0.012706
20
0.044503
30
0.0
11
0.014111
21
0.048016
31
0.0
0
LINE
8
0
6
CONTINUOUS
10
0.013680
20
0.048131
30
0.0
11
0.012317
21
0.044722
31
0.0
0
LINE
8
0
6
CONTINUOUS
10
-0.012706
20
0.059024
30
0.0
11
-0.014111
21
0.055511
31
0.0
0
LINE
8
0
6
CONTINUOUS
10
-0.013680
20
0.055396
30
0.0
11
-0.012317
21
0.058805
31
0.0
0
LINE
8
0
6
CONTINUOUS
10
-0.014111
20
0.048016
30
0.0
11
-0.012706
21
0.044503
31
0.0
0
LINE
8
0
6
CONTINUOUS
10
-0.013680
20
0.048131
30
0.0
11
-0.012317
21
0.044722
31
0.0
0
LINE
8
0
6
CONTINUOUS
10
0.010364
20
0.041399
30
0.0
11
0.012706
21
0.044503
31
0.0
0
LINE
8
0
6
CONTINUOUS
10
0.012317
20
0.044722
30
0.0
11
0.010048
21
0.041716
31
0.0
0
LINE
8
0
6
CONTINUOUS
10
-0.014111
20
0.055511
30
0.0
11
-0.014638
21
0.051763
31
0.0
0
LINE
8
0
6
CONTINUOUS
10
-0.014191
20
0.051763
30
0.0
11
-0.013680
21
0.055396
31
0.0
0
LINE
8
0
6
CONTINUOUS
10
-0.007261
20
0.039057
30
0.0
11
-0.003747
21
0.037652
31
0.0
0
LINE
8
0
6
CONTINUOUS
10
-0.007041
20
0.039447
30
0.0
11
-0.003633
21
0.038083
31
0.0
0
LINE
8
0
6
CONTINUOUS
10
-0.005672
20
-0.054623
30
0.0
11
-0.005672
21
-0.088255
31
0.0
0
LINE
8
0
6
CONTINUOUS
10
-0.007782
20
-0.043861
30
0.0
11
-0.006911
21
-0.045368
31
0.0
0
LINE
8
0
6
CONTINUOUS
10
-0.011160
20
-0.041767
30
0.0
11
-0.008606
21
-0.043197
31
0.0
0
LINE
8
0
6
CONTINUOUS
10
-0.005994
20
-0.047881
30
0.0
11
-0.005590
21
-0.050897
31
0.0
0
LINE
8
0
6
CONTINUOUS
10
-0.005181
20
-0.050574
30
0.0
11
-0.005691
21
-0.047778
31
0.0
0
LINE
8
0
6
CONTINUOUS
10
-0.002171
20
-0.048480
30
0.0
11
-0.002171
21
-0.051645
31
0.0
0
LINE
8
0
6
CONTINUOUS
10
-0.005590
20
-0.050897
30
0.0
11
-0.005672
21
-0.054623
31
0.0
0
LINE
8
0
6
CONTINUOUS
10
-0.005241
20
-0.054331
30
0.0
11
-0.005181
21
-0.050574
31
0.0
0
LINE
8
0
6
CONTINUOUS
10
-0.008606
20
-0.043197
30
0.0
11
-0.007782
21
-0.043861
31
0.0
0
LINE
8
0
6
CONTINUOUS
10
-0.006212
20
-0.047103
30
0.0
11
-0.005994
21
-0.047881
31
0.0
0
LINE
8
0
6
CONTINUOUS
10
-0.006911
20
-0.045368
30
0.0
11
-0.006212
21
-0.047103
31
0.0
0
LINE
8
0
6
CONTINUOUS
10
-0.002171
20
-0.086878
30
0.0
11
-0.002171
21
-0.087369
31
0.0
0
LINE
8
0
6
CONTINUOUS
10
0.000000
20
-0.087255
30
0.0
11
-0.002171
21
-0.087369
31
0.0
0
LINE
8
0
6
CONTINUOUS
10
-0.004582
20
-0.087917
30
0.0
11
-0.005241
21
-0.088176
31
0.0
0
LINE
8
0
6
CONTINUOUS
10
-0.002171
20
-0.087369
30
0.0
11
-0.003091
21
-0.087530
31
0.0
0
LINE
8
0
6
CONTINUOUS
10
-0.005672
20
-0.088255
30
0.0
11
-0.005672
21
-0.088746
31
0.0
0
LINE
8
0
6
CONTINUOUS
10
-0.005241
20
-0.088176
30
0.0
11
-0.005672
21
-0.088746
31
0.0
0
LINE
8
0
6
CONTINUOUS
10
-0.005672
20
-0.088746
30
0.0
11
-0.005241
21
-0.089316
31
0.0
0
LINE
8
0
6
CONTINUOUS
10
-0.005241
20
-0.089316
30
0.0
11
-0.004011
21
-0.089800
31
0.0
0
LINE
8
0
6
CONTINUOUS
10
-0.004011
20
-0.089800
30
0.0
11
-0.002171
21
-0.090123
31
0.0
0
LINE
8
0
6
CONTINUOUS
10
-0.002171
20
-0.090123
30
0.0
11
0.000000
21
-0.090237
31
0.0
0
LINE
8
0
6
CONTINUOUS
10
-0.002171
20
-0.051645
30
0.0
11
-0.002171
21
-0.086878
31
0.0
0
LINE
8
0
6
CONTINUOUS
10
-0.021690
20
-0.016477
30
0.0
11
-0.022500
21
-0.022237
31
0.0
0
LINE
8
0
6
CONTINUOUS
10
-0.022500
20
-0.022237
30
0.0
11
-0.021690
21
-0.027997
31
0.0
0
LINE
8
0
6
CONTINUOUS
10
-0.011160
20
-0.002707
30
0.0
11
-0.015930
21
-0.006307
31
0.0
0
LINE
8
0
6
CONTINUOUS
10
-0.005760
20
-0.000547
30
0.0
11
-0.011160
21
-0.002707
31
0.0
0
LINE
8
0
6
CONTINUOUS
10
0.000000
20
0.000263
30
0.0
11
-0.005760
21
-0.000547
31
0.0
0
LINE
8
0
6
CONTINUOUS
10
-0.015930
20
-0.006307
30
0.0
11
-0.019530
21
-0.011077
31
0.0
0
LINE
8
0
6
CONTINUOUS
10
-0.019530
20
-0.033397
30
0.0
11
-0.015930
21
-0.038167
31
0.0
0
LINE
8
0
6
CONTINUOUS
10
-0.021690
20
-0.027997
30
0.0
11
-0.019530
21
-0.033397
31
0.0
0
LINE
8
0
6
CONTINUOUS
10
-0.015930
20
-0.038167
30
0.0
11
-0.011160
21
-0.041767
31
0.0
0
LINE
8
0
6
CONTINUOUS
10
-0.019530
20
-0.011077
30
0.0
11
-0.021690
21
-0.016477
31
0.0
0
LINE
8
0
6
CONTINUOUS
10
-0.004035
20
-0.050192
30
0.0
11
-0.004053
21
-0.054132
31
0.0
0
LINE
8
0
6
CONTINUOUS
10
-0.004643
20
-0.047718
30
0.0
11
-0.004035
21
-0.050192
31
0.0
0
LINE
8
0
6
CONTINUOUS
10
-0.007116
20
-0.043969
30
0.0
11
-0.008125
21
-0.043256
31
0.0
0
LINE
8
0
6
CONTINUOUS
10
-0.011160
20
-0.041767
30
0.0
11
-0.008125
21
-0.043256
31
0.0
0
LINE
8
0
6
CONTINUOUS
10
-0.005888
20
-0.045464
30
0.0
11
-0.007116
21
-0.043969
31
0.0
0
LINE
8
0
6
CONTINUOUS
10
-0.004968
20
-0.046982
30
0.0
11
-0.005888
21
-0.045464
31
0.0
0
LINE
8
0
6
CONTINUOUS
10
-0.007333
20
-0.043934
30
0.0
11
-0.007782
21
-0.043861
31
0.0
0
LINE
8
0
6
CONTINUOUS
10
-0.004968
20
-0.046982
30
0.0
11
-0.004643
21
-0.047718
31
0.0
0
LINE
8
0
6
CONTINUOUS
10
-0.004053
20
-0.054132
30
0.0
11
-0.004011
21
-0.087201
31
0.0
0
LINE
8
0
6
CONTINUOUS
10
-0.004011
20
-0.087692
30
0.0
11
-0.004582
21
-0.087917
31
0.0
0
LINE
8
0
6
CONTINUOUS
10
-0.003091
20
-0.087530
30
0.0
11
-0.004011
21
-0.087692
31
0.0
0
LINE
8
0
6
CONTINUOUS
10
0.005672
20
-0.088255
30
0.0
11
0.005672
21
-0.054623
31
0.0
0
LINE
8
0
6
CONTINUOUS
10
0.006911
20
-0.045368
30
0.0
11
0.007782
21
-0.043861
31
0.0
0
LINE
8
0
6
CONTINUOUS
10
0.000000
20
-0.038792
30
0.0
11
0.000000
21
-0.043249
31
0.0
0
LINE
8
0
6
CONTINUOUS
10
0.008606
20
-0.043197
30
0.0
11
0.011160
21
-0.041767
31
0.0
0
LINE
8
0
6
CONTINUOUS
10
0.005691
20
-0.047778
30
0.0
11
0.005181
21
-0.050574
31
0.0
0
LINE
8
0
6
CONTINUOUS
10
0.005590
20
-0.050897
30
0.0
11
0.005994
21
-0.047881
31
0.0
0
LINE
8
0
6
CONTINUOUS
10
0.000000
20
-0.043249
30
0.0
11
0.000000
21
-0.047630
31
0.0
0
LINE
8
0
6
CONTINUOUS
10
0.000000
20
-0.047630
30
0.0
11
0.000000
21
-0.050855
31
0.0
0
LINE
8
0
6
CONTINUOUS
10
0.002171
20
-0.051645
30
0.0
11
0.002171
21
-0.048480
31
0.0
0
LINE
8
0
6
CONTINUOUS
10
0.005181
20
-0.050574
30
0.0
11
0.005241
21
-0.054331
31
0.0
0
LINE
8
0
6
CONTINUOUS
10
0.005672
20
-0.054623
30
0.0
11
0.005590
21
-0.050897
31
0.0
0
LINE
8
0
6
CONTINUOUS
10
0.007782
20
-0.043861
30
0.0
11
0.008606
21
-0.043197
31
0.0
0
LINE
8
0
6
CONTINUOUS
10
0.005994
20
-0.047881
30
0.0
11
0.006212
21
-0.047103
31
0.0
0
LINE
8
0
6
CONTINUOUS
10
0.000000
20
-0.033667
30
0.0
11
0.000000
21
-0.038792
31
0.0
0
LINE
8
0
6
CONTINUOUS
10
0.006212
20
-0.047103
30
0.0
11
0.006911
21
-0.045368
31
0.0
0
LINE
8
0
6
CONTINUOUS
10
0.002171
20
-0.087369
30
0.0
11
0.002171
21
-0.086878
31
0.0
0
LINE
8
0
6
CONTINUOUS
10
0.000000
20
-0.086765
30
0.0
11
0.000000
21
-0.087255
31
0.0
0
LINE
8
0
6
CONTINUOUS
10
0.002171
20
-0.087369
30
0.0
11
0.000000
21
-0.087255
31
0.0
0
LINE
8
0
6
CONTINUOUS
10
0.005241
20
-0.088176
30
0.0
11
0.004582
21
-0.087917
31
0.0
0
LINE
8
0
6
CONTINUOUS
10
0.003091
20
-0.087530
30
0.0
11
0.002171
21
-0.087369
31
0.0
0
LINE
8
0
6
CONTINUOUS
10
0.005672
20
-0.088746
30
0.0
11
0.005672
21
-0.088255
31
0.0
0
LINE
8
0
6
CONTINUOUS
10
0.005672
20
-0.088746
30
0.0
11
0.005241
21
-0.088176
31
0.0
0
LINE
8
0
6
CONTINUOUS
10
0.005241
20
-0.089316
30
0.0
11
0.005672
21
-0.088746
31
0.0
0
LINE
8
0
6
CONTINUOUS
10
0.004011
20
-0.089800
30
0.0
11
0.005241
21
-0.089316
31
0.0
0
LINE
8
0
6
CONTINUOUS
10
0.002171
20
-0.090123
30
0.0
11
0.004011
21
-0.089800
31
0.0
0
LINE
8
0
6
CONTINUOUS
10
0.000000
20
-0.090237
30
0.0
11
0.002171
21
-0.090123
31
0.0
0
LINE
8
0
6
CONTINUOUS
10
0.000000
20
-0.050855
30
0.0
11
0.000000
21
-0.086765
31
0.0
0
LINE
8
0
6
CONTINUOUS
10
0.002171
20
-0.086878
30
0.0
11
0.002171
21
-0.051645
31
0.0
0
LINE
8
0
6
CONTINUOUS
10
0.022500
20
-0.022237
30
0.0
11
0.021690
21
-0.016477
31
0.0
0
LINE
8
0
6
CONTINUOUS
10
0.021690
20
-0.027997
30
0.0
11
0.022500
21
-0.022237
31
0.0
0
LINE
8
0
6
CONTINUOUS
10
0.015930
20
-0.006307
30
0.0
11
0.011160
21
-0.002707
31
0.0
0
LINE
8
0
6
CONTINUOUS
10
0.011160
20
-0.002707
30
0.0
11
0.005760
21
-0.000547
31
0.0
0
LINE
8
0
6
CONTINUOUS
10
0.005760
20
-0.000547
30
0.0
11
0.000000
21
0.000263
31
0.0
0
LINE
8
0
6
CONTINUOUS
10
0.019530
20
-0.011077
30
0.0
11
0.015930
21
-0.006307
31
0.0
0
LINE
8
0
6
CONTINUOUS
10
0.015930
20
-0.038167
30
0.0
11
0.019530
21
-0.033397
31
0.0
0
LINE
8
0
6
CONTINUOUS
10
0.019530
20
-0.033397
30
0.0
11
0.021690
21
-0.027997
31
0.0
0
LINE
8
0
6
CONTINUOUS
10
0.011160
20
-0.041767
30
0.0
11
0.015930
21
-0.038167
31
0.0
0
LINE
8
0
6
CONTINUOUS
10
0.021690
20
-0.016477
30
0.0
11
0.019530
21
-0.011077
31
0.0
0
LINE
8
0
6
CONTINUOUS
10
0.004053
20
-0.054132
30
0.0
11
0.004035
21
-0.050192
31
0.0
0
LINE
8
0
6
CONTINUOUS
10
0.004035
20
-0.050192
30
0.0
11
0.004643
21
-0.047718
31
0.0
0
LINE
8
0
6
CONTINUOUS
10
0.008125
20
-0.043256
30
0.0
11
0.007116
21
-0.043969
31
0.0
0
LINE
8
0
6
CONTINUOUS
10
0.008125
20
-0.043256
30
0.0
11
0.011160
21
-0.041767
31
0.0
0
LINE
8
0
6
CONTINUOUS
10
0.007116
20
-0.043969
30
0.0
11
0.005888
21
-0.045464
31
0.0
0
LINE
8
0
6
CONTINUOUS
10
0.005888
20
-0.045464
30
0.0
11
0.004968
21
-0.046982
31
0.0
0
LINE
8
0
6
CONTINUOUS
10
0.007782
20
-0.043861
30
0.0
11
0.007333
21
-0.043934
31
0.0
0
LINE
8
0
6
CONTINUOUS
10
0.004643
20
-0.047718
30
0.0
11
0.004968
21
-0.046982
31
0.0
0
LINE
8
0
6
CONTINUOUS
10
0.004011
20
-0.087201
30
0.0
11
0.004053
21
-0.054132
31
0.0
0
LINE
8
0
6
CONTINUOUS
10
0.004582
20
-0.087917
30
0.0
11
0.004011
21
-0.087692
31
0.0
0
LINE
8
0
6
CONTINUOUS
10
0.004011
20
-0.087692
30
0.0
11
0.003091
21
-0.087530
31
0.0
0
LINE
8
0
6
CONTINUOUS
10
0.000000
20
-0.027595
30
0.0
11
0.000000
21
-0.033667
31
0.0
0
ENDSEC
0
EOF
