  0
SECTION
  2
HEADER
  9
$ACADVER
  1
AC1015
  9
$ACADMAINTVER
 70
    13
  9
$DWGCODEPAGE
  3
ANSI_1252
  9
$INSBASE
 10
0.0
 20
0.0
 30
0.0
  9
$EXTMIN
 10
-0.174150000000001
 20
0.123500000000014
 30
0.0
  9
$EXTMAX
 10
53.17415
 20
131.8764999999999
 30
0.0
  9
$LIMMIN
 10
0.0
 20
0.0
  9
$LIMMAX
 10
12.0
 20
9.0
  9
$ORTHOMODE
 70
     0
  9
$REGENMODE
 70
     1
  9
$FILLMODE
 70
     1
  9
$QTEXTMODE
 70
     0
  9
$MIRRTEXT
 70
     1
  9
$LTSCALE
 40
1.0
  9
$ATTMODE
 70
     1
  9
$TEXTSIZE
 40
0.2
  9
$TRACEWID
 40
0.05
  9
$TEXTSTYLE
  7
Standard
  9
$CLAYER
  8
0
  9
$CELTYPE
  6
Continuous
  9
$CECOLOR
 62
   256
  9
$CELTSCALE
 40
1.0
  9
$DISPSILH
 70
     0
  9
$DIMSCALE
 40
1.0
  9
$DIMASZ
 40
0.18
  9
$DIMEXO
 40
0.0625
  9
$DIMDLI
 40
0.38
  9
$DIMRND
 40
0.0
  9
$DIMDLE
 40
0.0
  9
$DIMEXE
 40
0.18
  9
$DIMTP
 40
0.0
  9
$DIMTM
 40
0.0
  9
$DIMTXT
 40
0.18
  9
$DIMCEN
 40
0.09
  9
$DIMTSZ
 40
0.0
  9
$DIMTOL
 70
     0
  9
$DIMLIM
 70
     0
  9
$DIMTIH
 70
     1
  9
$DIMTOH
 70
     1
  9
$DIMSE1
 70
     0
  9
$DIMSE2
 70
     0
  9
$DIMTAD
 70
     0
  9
$DIMZIN
 70
     0
  9
$DIMBLK
  1

  9
$DIMASO
 70
     1
  9
$DIMSHO
 70
     1
  9
$DIMPOST
  1

  9
$DIMAPOST
  1

  9
$DIMALT
 70
     0
  9
$DIMALTD
 70
     2
  9
$DIMALTF
 40
25.4
  9
$DIMLFAC
 40
1.0
  9
$DIMTOFL
 70
     0
  9
$DIMTVP
 40
0.0
  9
$DIMTIX
 70
     0
  9
$DIMSOXD
 70
     0
  9
$DIMSAH
 70
     0
  9
$DIMBLK1
  1

  9
$DIMBLK2
  1

  9
$DIMSTYLE
  2
Standard
  9
$DIMCLRD
 70
     0
  9
$DIMCLRE
 70
     0
  9
$DIMCLRT
 70
     0
  9
$DIMTFAC
 40
1.0
  9
$DIMGAP
 40
0.09
  9
$DIMJUST
 70
     0
  9
$DIMSD1
 70
     0
  9
$DIMSD2
 70
     0
  9
$DIMTOLJ
 70
     1
  9
$DIMTZIN
 70
     0
  9
$DIMALTZ
 70
     0
  9
$DIMALTTZ
 70
     0
  9
$DIMUPT
 70
     0
  9
$DIMDEC
 70
     4
  9
$DIMTDEC
 70
     4
  9
$DIMALTU
 70
     2
  9
$DIMALTTD
 70
     2
  9
$DIMTXSTY
  7
Standard
  9
$DIMAUNIT
 70
     0
  9
$DIMADEC
 70
     0
  9
$DIMALTRND
 40
0.0
  9
$DIMAZIN
 70
     0
  9
$DIMDSEP
 70
    46
  9
$DIMATFIT
 70
     3
  9
$DIMFRAC
 70
     0
  9
$DIMLDRBLK
  1

  9
$DIMLUNIT
 70
     2
  9
$DIMLWD
 70
    -2
  9
$DIMLWE
 70
    -2
  9
$DIMTMOVE
 70
     0
  9
$LUNITS
 70
     2
  9
$LUPREC
 70
     4
  9
$SKETCHINC
 40
0.1
  9
$FILLETRAD
 40
0.0
  9
$AUNITS
 70
     0
  9
$AUPREC
 70
     0
  9
$MENU
  1
.
  9
$ELEVATION
 40
0.0
  9
$PELEVATION
 40
0.0
  9
$THICKNESS
 40
0.0
  9
$LIMCHECK
 70
     0
  9
$CHAMFERA
 40
0.0
  9
$CHAMFERB
 40
0.0
  9
$CHAMFERC
 40
0.0
  9
$CHAMFERD
 40
0.0
  9
$SKPOLY
 70
     0
  9
$TDCREATE
 40
2455653.893402233
  9
$TDUCREATE
 40
2455653.810068900
  9
$TDUPDATE
 40
2455653.899878287
  9
$TDUUPDATE
 40
2455653.816544953
  9
$TDINDWG
 40
0.0064762384
  9
$TDUSRTIMER
 40
0.0064762384
  9
$USRTIMER
 70
     1
  9
$ANGBASE
 50
0.0
  9
$ANGDIR
 70
     0
  9
$PDMODE
 70
     0
  9
$PDSIZE
 40
0.0
  9
$PLINEWID
 40
0.0
  9
$SPLFRAME
 70
     0
  9
$SPLINETYPE
 70
     6
  9
$SPLINESEGS
 70
     8
  9
$HANDSEED
  5
231
  9
$SURFTAB1
 70
     6
  9
$SURFTAB2
 70
     6
  9
$SURFTYPE
 70
     6
  9
$SURFU
 70
     6
  9
$SURFV
 70
     6
  9
$UCSBASE
  2

  9
$UCSNAME
  2

  9
$UCSORG
 10
0.0
 20
0.0
 30
0.0
  9
$UCSXDIR
 10
1.0
 20
0.0
 30
0.0
  9
$UCSYDIR
 10
0.0
 20
1.0
 30
0.0
  9
$UCSORTHOREF
  2

  9
$UCSORTHOVIEW
 70
     1
  9
$UCSORGTOP
 10
0.0
 20
0.0
 30
0.0
  9
$UCSORGBOTTOM
 10
0.0
 20
0.0
 30
0.0
  9
$UCSORGLEFT
 10
0.0
 20
0.0
 30
0.0
  9
$UCSORGRIGHT
 10
0.0
 20
0.0
 30
0.0
  9
$UCSORGFRONT
 10
0.0
 20
0.0
 30
0.0
  9
$UCSORGBACK
 10
0.0
 20
0.0
 30
0.0
  9
$PUCSBASE
  2

  9
$PUCSNAME
  2

  9
$PUCSORG
 10
0.0
 20
0.0
 30
0.0
  9
$PUCSXDIR
 10
1.0
 20
0.0
 30
0.0
  9
$PUCSYDIR
 10
0.0
 20
1.0
 30
0.0
  9
$PUCSORTHOREF
  2

  9
$PUCSORTHOVIEW
 70
     0
  9
$PUCSORGTOP
 10
0.0
 20
0.0
 30
0.0
  9
$PUCSORGBOTTOM
 10
0.0
 20
0.0
 30
0.0
  9
$PUCSORGLEFT
 10
0.0
 20
0.0
 30
0.0
  9
$PUCSORGRIGHT
 10
0.0
 20
0.0
 30
0.0
  9
$PUCSORGFRONT
 10
0.0
 20
0.0
 30
0.0
  9
$PUCSORGBACK
 10
0.0
 20
0.0
 30
0.0
  9
$USERI1
 70
     0
  9
$USERI2
 70
     0
  9
$USERI3
 70
     0
  9
$USERI4
 70
     0
  9
$USERI5
 70
     0
  9
$USERR1
 40
0.0
  9
$USERR2
 40
0.0
  9
$USERR3
 40
0.0
  9
$USERR4
 40
0.0
  9
$USERR5
 40
0.0
  9
$WORLDVIEW
 70
     1
  9
$SHADEDGE
 70
     3
  9
$SHADEDIF
 70
    70
  9
$TILEMODE
 70
     1
  9
$MAXACTVP
 70
    64
  9
$PINSBASE
 10
0.0
 20
0.0
 30
0.0
  9
$PLIMCHECK
 70
     0
  9
$PEXTMIN
 10
1.000000000000000E+20
 20
1.000000000000000E+20
 30
1.000000000000000E+20
  9
$PEXTMAX
 10
-1.000000000000000E+20
 20
-1.000000000000000E+20
 30
-1.000000000000000E+20
  9
$PLIMMIN
 10
0.0
 20
0.0
  9
$PLIMMAX
 10
12.0
 20
9.0
  9
$UNITMODE
 70
     0
  9
$VISRETAIN
 70
     1
  9
$PLINEGEN
 70
     0
  9
$PSLTSCALE
 70
     1
  9
$TREEDEPTH
 70
  3020
  9
$CMLSTYLE
  2
Standard
  9
$CMLJUST
 70
     0
  9
$CMLSCALE
 40
1.0
  9
$PROXYGRAPHICS
 70
     1
  9
$MEASUREMENT
 70
     0
  9
$CELWEIGHT
370
    -1
  9
$ENDCAPS
280
     0
  9
$JOINSTYLE
280
     0
  9
$LWDISPLAY
290
     0
  9
$INSUNITS
 70
     0
  9
$HYPERLINKBASE
  1

  9
$STYLESHEET
  1

  9
$XEDIT
290
     1
  9
$CEPSNTYPE
380
     0
  9
$PSTYLEMODE
290
     1
  9
$FINGERPRINTGUID
  2
{21E07BE8-13C7-40F6-B688-35AAA1CE628C}
  9
$VERSIONGUID
  2
{3734C64F-C399-4DEB-A891-D57F80B9B2D8}
  9
$EXTNAMES
290
     1
  9
$PSVPSCALE
 40
0.0
  9
$OLESTARTUP
290
     0
  0
ENDSEC
  0
SECTION
  2
CLASSES
  0
CLASS
  1
ACDBDICTIONARYWDFLT
  2
AcDbDictionaryWithDefault
  3
AutoCAD 2000
 90
        0
280
     0
281
     0
  0
CLASS
  1
ACDBPLACEHOLDER
  2
AcDbPlaceHolder
  3
AutoCAD 2000
 90
        0
280
     0
281
     0
  0
CLASS
  1
LAYOUT
  2
AcDbLayout
  3
AutoCAD 2000
 90
        0
280
     0
281
     0
  0
CLASS
  1
DICTIONARYVAR
  2
AcDbDictionaryVar
  3
AutoCAD 2000
 90
        0
280
     0
281
     0
  0
ENDSEC
  0
SECTION
  2
TABLES
  0
TABLE
  2
VPORT
  5
8
330
0
100
AcDbSymbolTable
 70
     3
  0
VPORT
  5
230
330
8
100
AcDbSymbolTableRecord
100
AcDbViewportTableRecord
  2
*Active
 70
     0
 10
0.0
 20
0.0
 11
1.0
 21
1.0
 12
26.5
 22
66.0
 13
0.0
 23
0.0
 14
1.0
 24
1.0
 15
0.0
 25
0.0
 16
0.0
 26
0.0
 36
1.0
 17
0.0
 27
0.0
 37
0.0
 40
132.6442266065388
 41
2.073363431151241
 42
50.0
 43
0.0
 44
0.0
 50
0.0
 51
0.0
 71
     0
 72
   100
 73
     1
 74
     3
 75
     0
 76
     0
 77
     0
 78
     0
281
     0
 65
     1
110
0.0
120
0.0
130
0.0
111
1.0
121
0.0
131
0.0
112
0.0
122
1.0
132
0.0
 79
     1
146
0.0
  0
ENDTAB
  0
TABLE
  2
LTYPE
  5
5
330
0
100
AcDbSymbolTable
 70
     1
  0
LTYPE
  5
13
330
5
100
AcDbSymbolTableRecord
100
AcDbLinetypeTableRecord
  2
ByBlock
 70
     0
  3

 72
    65
 73
     0
 40
0.0
  0
LTYPE
  5
14
330
5
100
AcDbSymbolTableRecord
100
AcDbLinetypeTableRecord
  2
ByLayer
 70
     0
  3

 72
    65
 73
     0
 40
0.0
  0
LTYPE
  5
15
330
5
100
AcDbSymbolTableRecord
100
AcDbLinetypeTableRecord
  2
Continuous
 70
     0
  3
Solid line
 72
    65
 73
     0
 40
0.0
  0
ENDTAB
  0
TABLE
  2
LAYER
  5
2
330
0
100
AcDbSymbolTable
 70
     1
  0
LAYER
  5
10
330
2
100
AcDbSymbolTableRecord
100
AcDbLayerTableRecord
  2
0
 70
     0
 62
     7
  6
Continuous
370
    -3
390
F
  0
ENDTAB
  0
TABLE
  2
STYLE
  5
3
330
0
100
AcDbSymbolTable
 70
     1
  0
STYLE
  5
11
330
3
100
AcDbSymbolTableRecord
100
AcDbTextStyleTableRecord
  2
Standard
 70
     0
 40
0.0
 41
1.0
 50
0.0
 71
     0
 42
0.2
  3
txt
  4

  0
ENDTAB
  0
TABLE
  2
VIEW
  5
6
330
0
100
AcDbSymbolTable
 70
     0
  0
ENDTAB
  0
TABLE
  2
UCS
  5
7
330
0
100
AcDbSymbolTable
 70
     0
  0
ENDTAB
  0
TABLE
  2
APPID
  5
9
330
0
100
AcDbSymbolTable
 70
     1
  0
APPID
  5
12
330
9
100
AcDbSymbolTableRecord
100
AcDbRegAppTableRecord
  2
ACAD
 70
     0
  0
ENDTAB
  0
TABLE
  2
DIMSTYLE
  5
A
330
0
100
AcDbSymbolTable
 70
     1
100
AcDbDimStyleTable
 71
     0
  0
DIMSTYLE
105
229
330
A
100
AcDbSymbolTableRecord
100
AcDbDimStyleTableRecord
  2
Standard
 70
     0
340
11
  0
ENDTAB
  0
TABLE
  2
BLOCK_RECORD
  5
1
330
0
100
AcDbSymbolTable
 70
     0
  0
BLOCK_RECORD
  5
1E
330
1
100
AcDbSymbolTableRecord
100
AcDbBlockTableRecord
  2
*Model_Space
340
21
  0
BLOCK_RECORD
  5
1A
330
1
100
AcDbSymbolTableRecord
100
AcDbBlockTableRecord
  2
*Paper_Space
340
1D
  0
ENDTAB
  0
ENDSEC
  0
SECTION
  2
BLOCKS
  0
BLOCK
  5
1F
330
1E
100
AcDbEntity
  8
0
100
AcDbBlockBegin
  2
*Model_Space
 70
     0
 10
0.0
 20
0.0
 30
0.0
  3
*Model_Space
  1

  0
ENDBLK
  5
20
330
1E
100
AcDbEntity
  8
0
100
AcDbBlockEnd
  0
BLOCK
  5
1B
330
1A
100
AcDbEntity
 67
     1
  8
0
100
AcDbBlockBegin
  2
*Paper_Space
 70
     0
 10
0.0
 20
0.0
 30
0.0
  3
*Paper_Space
  1

  0
ENDBLK
  5
1C
330
1A
100
AcDbEntity
 67
     1
  8
0
100
AcDbBlockEnd
  0
ENDSEC
  0
SECTION
  2
ENTITIES
  0
LINE
  5
22
330
1E
100
AcDbEntity
  8
0
100
AcDbLine
 10
4.047659999999999
 20
3.90130000000002
 30
0.0
 11
4.14111
 21
3.43640000000002
 31
0.0
  0
LINE
  5
23
330
1E
100
AcDbEntity
  8
0
100
AcDbLine
 10
4.42798
 20
2.771700000000009
 30
0.0
 11
4.96998
 21
2.087000000000009
 31
0.0
  0
LINE
  5
24
330
1E
100
AcDbEntity
  8
0
100
AcDbLine
 10
4.14111
 20
3.43640000000002
 30
0.0
 11
4.42798
 21
2.771700000000009
 31
0.0
  0
LINE
  5
25
330
1E
100
AcDbEntity
  8
0
100
AcDbLine
 10
4.96998
 20
2.087000000000009
 30
0.0
 11
5.09053
 21
1.97970000000001
 31
0.0
  0
LINE
  5
26
330
1E
100
AcDbEntity
  8
0
100
AcDbLine
 10
6.48008
 20
1.23570000000002
 30
0.0
 11
7.027689999999999
 21
1.099600000000009
 31
0.0
  0
LINE
  5
27
330
1E
100
AcDbEntity
  8
0
100
AcDbLine
 10
7.027689999999999
 20
1.099600000000009
 30
0.0
 11
8.162129999999999
 21
0.939100000000012
 31
0.0
  0
LINE
  5
28
330
1E
100
AcDbEntity
  8
0
100
AcDbLine
 10
5.72316
 20
1.54530000000001
 30
0.0
 11
6.48008
 21
1.23570000000002
 31
0.0
  0
LINE
  5
29
330
1E
100
AcDbEntity
  8
0
100
AcDbLine
 10
5.09053
 20
1.97970000000001
 30
0.0
 11
5.72316
 21
1.54530000000001
 31
0.0
  0
LINE
  5
2A
330
1E
100
AcDbEntity
  8
0
100
AcDbLine
 10
3.785069999999999
 20
14.2431
 30
0.0
 11
3.836469999999999
 21
11.6332
 31
0.0
  0
LINE
  5
2B
330
1E
100
AcDbEntity
  8
0
100
AcDbLine
 10
3.77853
 20
14.5955
 30
0.0
 11
3.785069999999999
 21
14.2431
 31
0.0
  0
LINE
  5
2C
330
1E
100
AcDbEntity
  8
0
100
AcDbLine
 10
3.836469999999999
 20
11.6332
 30
0.0
 11
3.87665
 21
9.501400000000009
 31
0.0
  0
LINE
  5
2D
330
1E
100
AcDbEntity
  8
0
100
AcDbLine
 10
3.87665
 20
9.501400000000009
 30
0.0
 11
3.9159
 21
7.368700000000009
 31
0.0
  0
LINE
  5
2E
330
1E
100
AcDbEntity
  8
0
100
AcDbLine
 10
3.9159
 20
7.368700000000009
 30
0.0
 11
3.95515
 21
5.236800000000009
 31
0.0
  0
LINE
  5
2F
330
1E
100
AcDbEntity
  8
0
100
AcDbLine
 10
3.95515
 20
5.236800000000009
 30
0.0
 11
3.95888
 21
4.978600000000009
 31
0.0
  0
LINE
  5
30
330
1E
100
AcDbEntity
  8
0
100
AcDbLine
 10
3.95888
 20
4.978600000000009
 30
0.0
 11
4.0243
 21
4.18830000000002
 31
0.0
  0
LINE
  5
31
330
1E
100
AcDbEntity
  8
0
100
AcDbLine
 10
4.0243
 20
4.18830000000002
 30
0.0
 11
4.047659999999999
 21
3.90130000000002
 31
0.0
  0
LINE
  5
33
330
1E
100
AcDbEntity
  8
0
100
AcDbLine
 10
11.81394999999999
 20
0.5832000000000109
 30
0.0
 11
15.47805
 21
0.32850000000001
 31
0.0
  0
LINE
  5
34
330
1E
100
AcDbEntity
  8
0
100
AcDbLine
 10
8.162129999999999
 20
0.939100000000012
 30
0.0
 11
11.81394999999999
 21
0.5832000000000109
 31
0.0
  0
LINE
  5
35
330
1E
100
AcDbEntity
  8
0
100
AcDbLine
 10
3.75423
 20
17.3379
 30
0.0
 11
3.767309999999999
 21
15.9466
 31
0.0
  0
LINE
  5
36
330
1E
100
AcDbEntity
  8
0
100
AcDbLine
 10
3.767309999999999
 20
15.9466
 30
0.0
 11
3.77853
 21
14.5955
 31
0.0
  0
LINE
  5
3B
330
1E
100
AcDbEntity
  8
0
100
AcDbLine
 10
22.82585
 20
0.123500000000014
 30
0.0
 11
26.50205
 21
0.175000000000013
 31
0.0
  0
LINE
  5
3C
330
1E
100
AcDbEntity
  8
0
100
AcDbLine
 10
26.50205
 20
0.175000000000013
 30
0.0
 11
30.17364999999999
 21
0.32850000000001
 31
0.0
  0
LINE
  5
44
330
1E
100
AcDbEntity
  8
0
100
AcDbLine
 10
30.17364999999999
 20
0.32850000000001
 30
0.0
 11
33.83764999999999
 21
0.5832000000000109
 31
0.0
  0
LINE
  5
48
330
1E
100
AcDbEntity
  8
0
100
AcDbLine
 10
19.14965
 20
0.175000000000013
 30
0.0
 11
22.82585
 21
0.123500000000014
 31
0.0
  0
LINE
  5
49
330
1E
100
AcDbEntity
  8
0
100
AcDbLine
 10
15.47805
 20
0.32850000000001
 30
0.0
 11
19.14965
 21
0.175000000000013
 31
0.0
  0
LINE
  5
4C
330
1E
100
AcDbEntity
  8
0
100
AcDbLine
 10
2.7964
 20
80.37350000000001
 30
0.0
 11
2.87022
 21
75.3695
 31
0.0
  0
LINE
  5
4D
330
1E
100
AcDbEntity
  8
0
100
AcDbLine
 10
2.533819999999999
 20
93.6265
 30
0.0
 11
2.569329999999999
 21
92.4295
 31
0.0
  0
LINE
  5
4E
330
1E
100
AcDbEntity
  8
0
100
AcDbLine
 10
2.49737
 20
94.6315
 30
0.0
 11
2.533819999999999
 21
93.6265
 31
0.0
  0
LINE
  5
4F
330
1E
100
AcDbEntity
  8
0
100
AcDbLine
 10
2.444109999999999
 20
96.04750000000001
 30
0.0
 11
2.49737
 21
94.6315
 31
0.0
  0
LINE
  5
50
330
1E
100
AcDbEntity
  8
0
100
AcDbLine
 10
2.569329999999999
 20
92.4295
 30
0.0
 11
2.60577
 21
90.8805
 31
0.0
  0
LINE
  5
51
330
1E
100
AcDbEntity
  8
0
100
AcDbLine
 10
2.569329999999999
 20
92.4295
 30
0.0
 11
2.6067
 21
90.8815
 31
0.0
  0
LINE
  5
52
330
1E
100
AcDbEntity
  8
0
100
AcDbLine
 10
2.705759999999999
 20
85.87749999999999
 30
0.0
 11
2.75434
 21
83.0315
 31
0.0
  0
LINE
  5
53
330
1E
100
AcDbEntity
  8
0
100
AcDbLine
 10
2.705759999999999
 20
85.87850000000001
 30
0.0
 11
2.75434
 21
83.0315
 31
0.0
  0
LINE
  5
54
330
1E
100
AcDbEntity
  8
0
100
AcDbLine
 10
2.6067
 20
90.8815
 30
0.0
 11
2.637539999999999
 21
89.42950000000001
 31
0.0
  0
LINE
  5
55
330
1E
100
AcDbEntity
  8
0
100
AcDbLine
 10
2.637539999999999
 20
89.42950000000001
 30
0.0
 11
2.68988
 21
86.74049999999999
 31
0.0
  0
LINE
  5
56
330
1E
100
AcDbEntity
  8
0
100
AcDbLine
 10
2.68988
 20
86.74049999999999
 30
0.0
 11
2.705759999999999
 21
85.87850000000001
 31
0.0
  0
LINE
  5
57
330
1E
100
AcDbEntity
  8
0
100
AcDbLine
 10
2.68988
 20
86.74049999999999
 30
0.0
 11
2.705759999999999
 21
85.87749999999999
 31
0.0
  0
LINE
  5
58
330
1E
100
AcDbEntity
  8
0
100
AcDbLine
 10
2.60577
 20
90.8805
 30
0.0
 11
2.637539999999999
 21
89.42950000000001
 31
0.0
  0
LINE
  5
59
330
1E
100
AcDbEntity
  8
0
100
AcDbLine
 10
2.75434
 20
83.0315
 30
0.0
 11
2.7964
 21
80.37350000000001
 31
0.0
  0
LINE
  5
5A
330
1E
100
AcDbEntity
  8
0
100
AcDbLine
 10
0.6538499999999991
 20
96.7125
 30
0.0
 11
2.581969898484119
 21
91.8922002537897
 31
0.0
  0
LINE
  5
5B
330
1E
100
AcDbEntity
  8
0
100
AcDbLine
 10
2.2488
 20
99.92449999999999
 30
0.0
 11
2.28805
 21
99.3785
 31
0.0
  0
LINE
  5
5C
330
1E
100
AcDbEntity
  8
0
100
AcDbLine
 10
2.21048
 20
100.3824999999999
 30
0.0
 11
2.2488
 21
99.92449999999999
 31
0.0
  0
LINE
  5
5D
330
1E
100
AcDbEntity
  8
0
100
AcDbLine
 10
2.173099999999999
 20
100.7454999999999
 30
0.0
 11
2.21048
 21
100.3824999999999
 31
0.0
  0
LINE
  5
5E
330
1E
100
AcDbEntity
  8
0
100
AcDbLine
 10
2.02265
 20
99.8535
 30
0.0
 11
2.28129
 21
98.4585
 31
0.0
  0
LINE
  5
5F
330
1E
100
AcDbEntity
  8
0
100
AcDbLine
 10
1.861369999999999
 20
101.3784999999999
 30
0.0
 11
2.02265
 21
99.8535
 31
0.0
  0
LINE
  5
60
330
1E
100
AcDbEntity
  8
0
100
AcDbLine
 10
2.40579
 20
97.0235
 30
0.0
 11
2.444109999999999
 21
96.04750000000001
 31
0.0
  0
LINE
  5
61
330
1E
100
AcDbEntity
  8
0
100
AcDbLine
 10
2.368409999999999
 20
97.91949999999999
 30
0.0
 11
2.40579
 21
97.0235
 31
0.0
  0
LINE
  5
62
330
1E
100
AcDbEntity
  8
0
100
AcDbLine
 10
2.28805
 20
99.3785
 30
0.0
 11
2.343487616688859
 21
98.47933093823922
 31
0.0
  0
LINE
  5
63
330
1E
100
AcDbEntity
  8
0
100
AcDbLine
 10
2.33291
 20
98.7265
 30
0.0
 11
2.368409999999999
 21
97.91949999999999
 31
0.0
  0
LINE
  5
64
330
1E
100
AcDbEntity
  8
0
100
AcDbLine
 10
2.28129
 20
98.4585
 30
0.0
 11
2.35620880565199
 21
98.18207263960841
 31
0.0
  0
LINE
  5
67
330
1E
100
AcDbEntity
  8
0
100
AcDbLine
 10
0.6538499999999991
 20
96.7125
 30
0.0
 11
2.581969898484119
 21
91.8922002537897
 31
0.0
  0
LINE
  5
68
330
1E
100
AcDbEntity
  8
0
100
AcDbLine
 10
3.66078
 20
25.8958
 30
0.0
 11
3.684149999999999
 21
23.95329999999999
 31
0.0
  0
LINE
  5
69
330
1E
100
AcDbEntity
  8
0
100
AcDbLine
 10
3.684149999999999
 20
23.95329999999999
 30
0.0
 11
3.70378
 21
22.2375
 31
0.0
  0
LINE
  5
6A
330
1E
100
AcDbEntity
  8
0
100
AcDbLine
 10
3.70378
 20
22.2375
 30
0.0
 11
3.72153
 21
20.561
 31
0.0
  0
LINE
  5
6B
330
1E
100
AcDbEntity
  8
0
100
AcDbLine
 10
3.72153
 20
20.561
 30
0.0
 11
3.738339999999999
 21
18.9264
 31
0.0
  0
LINE
  5
6C
330
1E
100
AcDbEntity
  8
0
100
AcDbLine
 10
3.738339999999999
 20
18.9264
 30
0.0
 11
3.75423
 21
17.3379
 31
0.0
  0
LINE
  5
6D
330
1E
100
AcDbEntity
  8
0
100
AcDbLine
 10
3.60659
 20
30.28869999999999
 30
0.0
 11
3.63649
 21
27.8734
 31
0.0
  0
LINE
  5
6E
330
1E
100
AcDbEntity
  8
0
100
AcDbLine
 10
3.63649
 20
27.8734
 30
0.0
 11
3.66078
 21
25.8958
 31
0.0
  0
LINE
  5
6F
330
1E
100
AcDbEntity
  8
0
100
AcDbLine
 10
3.574819999999999
 20
32.7241
 30
0.0
 11
3.60659
 21
30.28869999999999
 31
0.0
  0
LINE
  5
70
330
1E
100
AcDbEntity
  8
0
100
AcDbLine
 10
3.444919999999999
 20
42.3113
 30
0.0
 11
3.53183
 21
35.97509999999999
 31
0.0
  0
LINE
  5
71
330
1E
100
AcDbEntity
  8
0
100
AcDbLine
 10
3.53183
 20
35.97509999999999
 30
0.0
 11
3.574819999999999
 21
32.7241
 31
0.0
  0
LINE
  5
72
330
1E
100
AcDbEntity
  8
0
100
AcDbLine
 10
3.23187
 20
51.8927
 30
0.0
 11
3.444919999999999
 21
42.3113
 31
0.0
  0
LINE
  5
73
330
1E
100
AcDbEntity
  8
0
100
AcDbLine
 10
2.827669999999999
 20
100.7654999999999
 30
0.0
 11
2.830389999999999
 21
101.0515
 31
0.0
  0
LINE
  5
74
330
1E
100
AcDbEntity
  8
0
100
AcDbLine
 10
2.827669999999999
 20
100.7654999999999
 30
0.0
 11
2.82857
 21
100.3585
 31
0.0
  0
LINE
  5
75
330
1E
100
AcDbEntity
  8
0
100
AcDbLine
 10
2.829479999999999
 20
100.4915
 30
0.0
 11
2.83767
 21
99.5615
 31
0.0
  0
LINE
  5
76
330
1E
100
AcDbEntity
  8
0
100
AcDbLine
 10
2.829479999999999
 20
100.4915
 30
0.0
 11
2.83313
 21
99.9225
 31
0.0
  0
LINE
  5
77
330
1E
100
AcDbEntity
  8
0
100
AcDbLine
 10
2.82857
 20
100.3585
 30
0.0
 11
2.830389999999999
 21
100.9735
 31
0.0
  0
LINE
  5
78
330
1E
100
AcDbEntity
  8
0
100
AcDbLine
 10
2.827669999999999
 20
100.5275
 30
0.0
 11
2.83313
 21
99.85649999999999
 31
0.0
  0
LINE
  5
79
330
1E
100
AcDbEntity
  8
0
100
AcDbLine
 10
2.827669999999999
 20
100.5275
 30
0.0
 11
2.832219999999999
 21
100.9925
 31
0.0
  0
LINE
  5
7A
330
1E
100
AcDbEntity
  8
0
100
AcDbLine
 10
2.827669999999999
 20
100.5275
 30
0.0
 11
2.84039
 21
101.4035
 31
0.0
  0
LINE
  5
7B
330
1E
100
AcDbEntity
  8
0
100
AcDbLine
 10
2.827669999999999
 20
100.5275
 30
0.0
 11
2.830389999999999
 21
100.9735
 31
0.0
  0
LINE
  5
7C
330
1E
100
AcDbEntity
  8
0
100
AcDbLine
 10
2.82857
 20
100.9705
 30
0.0
 11
2.828945900597189
 21
100.8996571951449
 31
0.0
  0
LINE
  5
7D
330
1E
100
AcDbEntity
  8
0
100
AcDbLine
 10
2.82857
 20
100.9705
 30
0.0
 11
2.83313
 21
101.2825
 31
0.0
  0
LINE
  5
7E
330
1E
100
AcDbEntity
  8
0
100
AcDbLine
 10
2.828716969504549
 20
101.1439924989919
 30
0.0
 11
2.829479999999999
 21
101.3454999999999
 31
0.0
  0
LINE
  5
7F
330
1E
100
AcDbEntity
  8
0
100
AcDbLine
 10
2.827669999999999
 20
100.8674999999999
 30
0.0
 11
2.82857
 21
101.1051795580109
 31
0.0
  0
LINE
  5
80
330
1E
100
AcDbEntity
  8
0
100
AcDbLine
 10
2.83313
 20
99.9225
 30
0.0
 11
2.83767
 21
99.5615
 31
0.0
  0
LINE
  5
81
330
1E
100
AcDbEntity
  8
0
100
AcDbLine
 10
3.115059999999999
 20
57.896
 30
0.0
 11
3.23187
 21
51.8927
 31
0.0
  0
LINE
  5
82
330
1E
100
AcDbEntity
  8
0
100
AcDbLine
 10
3.05525
 20
62.0001
 30
0.0
 11
3.115059999999999
 21
57.896
 31
0.0
  0
LINE
  5
83
330
1E
100
AcDbEntity
  8
0
100
AcDbLine
 10
2.966479999999999
 20
68.49330000000001
 30
0.0
 11
3.05525
 21
62.0001
 31
0.0
  0
LINE
  5
84
330
1E
100
AcDbEntity
  8
0
100
AcDbLine
 10
2.87022
 20
75.3695
 30
0.0
 11
2.966479999999999
 21
68.49330000000001
 31
0.0
  0
LINE
  5
85
330
1E
100
AcDbEntity
  8
0
100
AcDbLine
 10
3.72924
 20
67.3053
 30
0.0
 11
3.927369999999999
 21
60.1869
 31
0.0
  0
LINE
  5
86
330
1E
100
AcDbEntity
  8
0
100
AcDbLine
 10
3.927369999999999
 20
60.1869
 30
0.0
 11
4.02553
 21
56.6274
 31
0.0
  0
LINE
  5
87
330
1E
100
AcDbEntity
  8
0
100
AcDbLine
 10
3.04579
 20
91.91450000000001
 30
0.0
 11
3.078509999999999
 21
90.7435
 31
0.0
  0
LINE
  5
88
330
1E
100
AcDbEntity
  8
0
100
AcDbLine
 10
3.01398
 20
93.04149999999999
 30
0.0
 11
3.04579
 21
91.91450000000001
 31
0.0
  0
LINE
  5
89
330
1E
100
AcDbEntity
  8
0
100
AcDbLine
 10
2.98399
 20
94.12550000000001
 30
0.0
 11
3.01398
 21
93.04149999999999
 31
0.0
  0
LINE
  5
8A
330
1E
100
AcDbEntity
  8
0
100
AcDbLine
 10
3.149399999999999
 20
88.21049999999999
 30
0.0
 11
3.18757
 21
86.8435
 31
0.0
  0
LINE
  5
8B
330
1E
100
AcDbEntity
  8
0
100
AcDbLine
 10
3.275729999999999
 20
83.6705
 30
0.0
 11
3.307539999999999
 21
82.53249999999999
 31
0.0
  0
LINE
  5
8C
330
1E
100
AcDbEntity
  8
0
100
AcDbLine
 10
3.307539999999999
 20
82.53249999999999
 30
0.0
 11
3.433869999999999
 21
77.98350000000001
 31
0.0
  0
LINE
  5
8D
330
1E
100
AcDbEntity
  8
0
100
AcDbLine
 10
3.18757
 20
86.8435
 30
0.0
 11
3.231199999999999
 21
85.2965
 31
0.0
  0
LINE
  5
8E
330
1E
100
AcDbEntity
  8
0
100
AcDbLine
 10
3.11214
 20
89.52949999999999
 30
0.0
 11
3.149399999999999
 21
88.21049999999999
 31
0.0
  0
LINE
  5
8F
330
1E
100
AcDbEntity
  8
0
100
AcDbLine
 10
3.078509999999999
 20
90.7435
 30
0.0
 11
3.11214
 21
89.52949999999999
 31
0.0
  0
LINE
  5
90
330
1E
100
AcDbEntity
  8
0
100
AcDbLine
 10
2.86856
 20
98.38450000000001
 30
0.0
 11
3.275729999999999
 21
83.6705
 31
0.0
  0
LINE
  5
91
330
1E
100
AcDbEntity
  8
0
100
AcDbLine
 10
2.86856
 20
98.38450000000001
 30
0.0
 11
3.231199999999999
 21
85.2965
 31
0.0
  0
LINE
  5
92
330
1E
100
AcDbEntity
  8
0
100
AcDbLine
 10
2.89765
 20
97.2555
 30
0.0
 11
2.93764
 21
95.78050000000001
 31
0.0
  0
LINE
  5
93
330
1E
100
AcDbEntity
  8
0
100
AcDbLine
 10
2.93764
 20
95.78050000000001
 30
0.0
 11
2.98399
 21
94.12550000000001
 31
0.0
  0
LINE
  5
94
330
1E
100
AcDbEntity
  8
0
100
AcDbLine
 10
2.861299999999999
 20
98.60050000000001
 30
0.0
 11
2.88947
 21
97.6025
 31
0.0
  0
LINE
  5
95
330
1E
100
AcDbEntity
  8
0
100
AcDbLine
 10
3.433869999999999
 20
77.98350000000001
 30
0.0
 11
3.72924
 21
67.3053
 31
0.0
  0
LINE
  5
96
330
1E
100
AcDbEntity
  8
0
100
AcDbLine
 10
2.83767
 20
99.5615
 30
0.0
 11
2.861299999999999
 21
98.60050000000001
 31
0.0
  0
LINE
  5
97
330
1E
100
AcDbEntity
  8
0
100
AcDbLine
 10
2.832219999999999
 20
100.9925
 30
0.0
 11
2.84039
 21
101.4035
 31
0.0
  0
LINE
  5
98
330
1E
100
AcDbEntity
  8
0
100
AcDbLine
 10
2.830240815522279
 20
100.949038133432
 30
0.0
 11
2.830389999999999
 21
101.0515
 31
0.0
  0
LINE
  5
99
330
1E
100
AcDbEntity
  8
0
100
AcDbLine
 10
2.83070449550619
 20
100.9931415691589
 30
0.0
 11
2.83313
 21
101.2825
 31
0.0
  0
LINE
  5
9A
330
1E
100
AcDbEntity
  8
0
100
AcDbLine
 10
2.831309999999999
 20
99.9825
 30
0.0
 11
2.83313
 21
99.85649999999999
 31
0.0
  0
LINE
  5
9B
330
1E
100
AcDbEntity
  8
0
100
AcDbLine
 10
2.831309999999999
 20
99.9825
 30
0.0
 11
2.83767
 21
99.5615
 31
0.0
  0
LINE
  5
9C
330
1E
100
AcDbEntity
  8
0
100
AcDbLine
 10
2.829479999999999
 20
101.3454999999999
 30
0.0
 11
2.829479999999999
 21
101.4355
 31
0.0
  0
LINE
  5
9D
330
1E
100
AcDbEntity
  8
0
100
AcDbLine
 10
4.02553
 20
56.6274
 30
0.0
 11
4.184569999999999
 21
50.95069999999999
 31
0.0
  0
LINE
  5
9E
330
1E
100
AcDbEntity
  8
0
100
AcDbLine
 10
4.51358
 20
39.65559999999999
 30
0.0
 11
4.5781
 21
37.56369999999999
 31
0.0
  0
LINE
  5
9F
330
1E
100
AcDbEntity
  8
0
100
AcDbLine
 10
4.5781
 20
37.56369999999999
 30
0.0
 11
4.643539999999999
 21
35.4879
 31
0.0
  0
LINE
  5
A0
330
1E
100
AcDbEntity
  8
0
100
AcDbLine
 10
5.035249999999999
 20
29.6004
 30
0.0
 11
5.356069999999999
 21
28.93029999999999
 31
0.0
  0
LINE
  5
A1
330
1E
100
AcDbEntity
  8
0
100
AcDbLine
 10
4.908009999999999
 20
30.0768
 30
0.0
 11
5.035249999999999
 21
29.6004
 31
0.0
  0
LINE
  5
A2
330
1E
100
AcDbEntity
  8
0
100
AcDbLine
 10
4.79441
 20
31.025
 30
0.0
 11
4.908009999999999
 21
30.0768
 31
0.0
  0
LINE
  5
A3
330
1E
100
AcDbEntity
  8
0
100
AcDbLine
 10
4.778039999999999
 20
31.4035
 30
0.0
 11
4.79441
 21
31.025
 31
0.0
  0
LINE
  5
A4
330
1E
100
AcDbEntity
  8
0
100
AcDbLine
 10
4.70988
 20
33.4317
 30
0.0
 11
4.778039999999999
 21
31.4035
 31
0.0
  0
LINE
  5
A5
330
1E
100
AcDbEntity
  8
0
100
AcDbLine
 10
4.643539999999999
 20
35.4879
 30
0.0
 11
4.70988
 21
33.4317
 31
0.0
  0
LINE
  5
A6
330
1E
100
AcDbEntity
  8
0
100
AcDbLine
 10
4.450859999999999
 20
41.7593
 30
0.0
 11
4.51358
 21
39.65559999999999
 31
0.0
  0
LINE
  5
A7
330
1E
100
AcDbEntity
  8
0
100
AcDbLine
 10
4.38815
 20
43.87189999999999
 30
0.0
 11
4.450859999999999
 21
41.7593
 31
0.0
  0
LINE
  5
A8
330
1E
100
AcDbEntity
  8
0
100
AcDbLine
 10
5.356069999999999
 20
28.93029999999999
 30
0.0
 11
5.421509999999999
 21
28.837
 31
0.0
  0
LINE
  5
A9
330
1E
100
AcDbEntity
  8
0
100
AcDbLine
 10
8.498849999999999
 20
27.1361
 30
0.0
 11
12.06605
 21
26.7477
 31
0.0
  0
LINE
  5
AA
330
1E
100
AcDbEntity
  8
0
100
AcDbLine
 10
7.0647
 20
27.4662
 30
0.0
 11
7.52821
 21
27.3111
 31
0.0
  0
LINE
  5
AB
330
1E
100
AcDbEntity
  8
0
100
AcDbLine
 10
6.424869999999999
 20
27.8044
 30
0.0
 11
7.0647
 21
27.4662
 31
0.0
  0
LINE
  5
AC
330
1E
100
AcDbEntity
  8
0
100
AcDbLine
 10
5.87684
 20
28.2575
 30
0.0
 11
6.424869999999999
 21
27.8044
 31
0.0
  0
LINE
  5
AD
330
1E
100
AcDbEntity
  8
0
100
AcDbLine
 10
7.52821
 20
27.3111
 30
0.0
 11
8.498849999999999
 21
27.1361
 31
0.0
  0
LINE
  5
AE
330
1E
100
AcDbEntity
  8
0
100
AcDbLine
 10
5.421509999999999
 20
28.837
 30
0.0
 11
5.87684
 21
28.2575
 31
0.0
  0
LINE
  5
AF
330
1E
100
AcDbEntity
  8
0
100
AcDbLine
 10
4.26546
 20
48.115
 30
0.0
 11
4.38815
 21
43.87189999999999
 31
0.0
  0
LINE
  5
B0
330
1E
100
AcDbEntity
  8
0
100
AcDbLine
 10
4.184569999999999
 20
50.95069999999999
 30
0.0
 11
4.26546
 21
48.115
 31
0.0
  0
LINE
  5
B1
330
1E
100
AcDbEntity
  8
0
100
AcDbLine
 10
2.829479999999999
 20
101.4355
 30
0.0
 11
2.83976002136233
 21
101.6362282613969
 31
0.0
  0
LINE
  5
B2
330
1E
100
AcDbEntity
  8
0
100
AcDbLine
 10
2.829479999999999
 20
101.4355
 30
0.0
 11
2.843119999999999
 21
101.8164999999999
 31
0.0
  0
LINE
  5
B3
330
1E
100
AcDbEntity
  8
0
100
AcDbLine
 10
2.829479999999999
 20
101.4355
 30
0.0
 11
2.829479999999999
 21
101.3454999999999
 31
0.0
  0
LINE
  5
B4
330
1E
100
AcDbEntity
  8
0
100
AcDbLine
 10
2.825849999999999
 20
101.4904999999999
 30
0.0
 11
2.82875803752122
 21
101.208939398924
 31
0.0
  0
LINE
  5
B5
330
1E
100
AcDbEntity
  8
0
100
AcDbLine
 10
2.825849999999999
 20
101.4904999999999
 30
0.0
 11
2.827669999999999
 21
101.7104999999999
 31
0.0
  0
LINE
  5
B6
330
1E
100
AcDbEntity
  8
0
100
AcDbLine
 10
2.843119999999999
 20
101.8164999999999
 30
0.0
 11
2.85857
 21
102.1474999999999
 31
0.0
  0
LINE
  5
B7
330
1E
100
AcDbEntity
  8
0
100
AcDbLine
 10
2.85857
 20
102.1474999999999
 30
0.0
 11
2.91219
 21
103.0505
 31
0.0
  0
LINE
  5
B8
330
1E
100
AcDbEntity
  8
0
100
AcDbLine
 10
2.827669999999999
 20
101.7104999999999
 30
0.0
 11
2.906729999999999
 21
103.3095
 31
0.0
  0
LINE
  5
BB
330
1E
100
AcDbEntity
  8
0
100
AcDbLine
 10
15.64594999999999
 20
26.4849
 30
0.0
 11
19.23415
 21
26.3333
 31
0.0
  0
LINE
  5
CF
330
1E
100
AcDbEntity
  8
0
100
AcDbLine
 10
12.06605
 20
26.7477
 30
0.0
 11
15.64594999999999
 21
26.4849
 31
0.0
  0
LINE
  5
D0
330
1E
100
AcDbEntity
  8
0
100
AcDbLine
 10
-0.174150000000001
 20
102.6005
 30
0.0
 11
0.6538499999999991
 21
108.4885
 31
0.0
  0
LINE
  5
D1
330
1E
100
AcDbEntity
  8
0
100
AcDbLine
 10
-0.174150000000001
 20
102.6005
 30
0.0
 11
0.6538499999999991
 21
96.7125
 31
0.0
  0
LINE
  5
D2
330
1E
100
AcDbEntity
  8
0
100
AcDbLine
 10
1.825849999999999
 20
102.5584999999999
 30
0.0
 11
1.86049
 21
103.6624999999999
 31
0.0
  0
LINE
  5
D3
330
1E
100
AcDbEntity
  8
0
100
AcDbLine
 10
1.825849999999999
 20
102.5584999999999
 30
0.0
 11
1.861369999999999
 21
101.3784999999999
 31
0.0
  0
LINE
  5
D4
330
1E
100
AcDbEntity
  8
0
100
AcDbLine
 10
2.44713
 20
107.2554999999999
 30
0.0
 11
2.98841
 21
108.9225
 31
0.0
  0
LINE
  5
D5
330
1E
100
AcDbEntity
  8
0
100
AcDbLine
 10
2.06559
 20
105.4724999999999
 30
0.0
 11
2.44713
 21
107.2554999999999
 31
0.0
  0
LINE
  5
D6
330
1E
100
AcDbEntity
  8
0
100
AcDbLine
 10
1.86049
 20
103.6624999999999
 30
0.0
 11
2.06559
 21
105.4724999999999
 31
0.0
  0
LINE
  5
D7
330
1E
100
AcDbEntity
  8
0
100
AcDbLine
 10
0.6538499999999991
 20
108.4885
 30
0.0
 11
2.86185
 21
114.0085
 31
0.0
  0
LINE
  5
D8
330
1E
100
AcDbEntity
  8
0
100
AcDbLine
 10
0.6538499999999991
 20
108.4885
 30
0.0
 11
2.86185
 21
114.0085
 31
0.0
  0
LINE
  5
D9
330
1E
100
AcDbEntity
  8
0
100
AcDbLine
 10
2.906729999999999
 20
103.3095
 30
0.0
 11
3.001259999999999
 21
104.1965
 31
0.0
  0
LINE
  5
DA
330
1E
100
AcDbEntity
  8
0
100
AcDbLine
 10
3.001259999999999
 20
104.1965
 30
0.0
 11
3.13395
 21
105.0794999999999
 31
0.0
  0
LINE
  5
DB
330
1E
100
AcDbEntity
  8
0
100
AcDbLine
 10
3.13395
 20
105.0794999999999
 30
0.0
 11
3.307539999999999
 21
105.9565
 31
0.0
  0
LINE
  5
DC
330
1E
100
AcDbEntity
  8
0
100
AcDbLine
 10
3.307539999999999
 20
105.9565
 30
0.0
 11
3.522019999999999
 21
106.8255
 31
0.0
  0
LINE
  5
DD
330
1E
100
AcDbEntity
  8
0
100
AcDbLine
 10
3.522019999999999
 20
106.8255
 30
0.0
 11
3.88193
 21
107.9935
 31
0.0
  0
LINE
  5
DE
330
1E
100
AcDbEntity
  8
0
100
AcDbLine
 10
3.00714
 20
108.9954999999999
 30
0.0
 11
3.03217
 21
109.0694999999999
 31
0.0
  0
LINE
  5
DF
330
1E
100
AcDbEntity
  8
0
100
AcDbLine
 10
2.98841
 20
108.9225
 30
0.0
 11
3.00714
 21
108.9954999999999
 31
0.0
  0
LINE
  5
E0
330
1E
100
AcDbEntity
  8
0
100
AcDbLine
 10
3.76934
 20
110.7565
 30
0.0
 11
3.807199999999999
 21
110.8275
 31
0.0
  0
LINE
  5
E1
330
1E
100
AcDbEntity
  8
0
100
AcDbLine
 10
3.03217
 20
109.0694999999999
 30
0.0
 11
3.76934
 21
110.7565
 31
0.0
  0
LINE
  5
E2
330
1E
100
AcDbEntity
  8
0
100
AcDbLine
 10
3.807199999999999
 20
110.8275
 30
0.0
 11
5.25034
 21
113.2495
 31
0.0
  0
LINE
  5
E3
330
1E
100
AcDbEntity
  8
0
100
AcDbLine
 10
3.88193
 20
107.9935
 30
0.0
 11
4.318179999999999
 21
109.1374999999999
 31
0.0
  0
LINE
  5
E4
330
1E
100
AcDbEntity
  8
0
100
AcDbLine
 10
5.41514
 20
111.3495
 30
0.0
 11
6.10041
 21
112.4475
 31
0.0
  0
LINE
  5
E5
330
1E
100
AcDbEntity
  8
0
100
AcDbLine
 10
4.82803
 20
110.2554999999999
 30
0.0
 11
5.41514
 21
111.3495
 31
0.0
  0
LINE
  5
E6
330
1E
100
AcDbEntity
  8
0
100
AcDbLine
 10
4.318179999999999
 20
109.1374999999999
 30
0.0
 11
4.82803
 21
110.2554999999999
 31
0.0
  0
LINE
  5
E7
330
1E
100
AcDbEntity
  8
0
100
AcDbLine
 10
5.25034
 20
113.2495
 30
0.0
 11
5.402409999999999
 21
113.4454999999999
 31
0.0
  0
LINE
  5
E8
330
1E
100
AcDbEntity
  8
0
100
AcDbLine
 10
5.402409999999999
 20
113.4454999999999
 30
0.0
 11
7.06831
 21
115.4765
 31
0.0
  0
LINE
  5
E9
330
1E
100
AcDbEntity
  8
0
100
AcDbLine
 10
6.10041
 20
112.4475
 30
0.0
 11
6.86566
 21
113.5105
 31
0.0
  0
LINE
  5
EA
330
1E
100
AcDbEntity
  8
0
100
AcDbLine
 10
2.893193471956689
 20
102.6795727506959
 30
0.0
 11
2.91219
 21
103.0505
 31
0.0
  0
LINE
  5
ED
330
1E
100
AcDbEntity
  8
0
100
AcDbLine
 10
7.06831
 20
115.4765
 30
0.0
 11
8.986310000000001
 21
117.2275
 31
0.0
  0
LINE
  5
EF
330
1E
100
AcDbEntity
  8
0
100
AcDbLine
 10
7.099249999999999
 20
115.5105
 30
0.0
 11
7.139669999999999
 21
115.5534999999999
 31
0.0
  0
LINE
  5
F0
330
1E
100
AcDbEntity
  8
0
100
AcDbLine
 10
2.86185
 20
114.0085
 30
0.0
 11
6.54185
 21
118.8845
 31
0.0
  0
LINE
  5
F1
330
1E
100
AcDbEntity
  8
0
100
AcDbLine
 10
6.86566
 20
113.5105
 30
0.0
 11
7.70816
 21
114.5275
 31
0.0
  0
LINE
  5
F5
330
1E
100
AcDbEntity
  8
0
100
AcDbLine
 10
8.624269999999999
 20
115.4955
 30
0.0
 11
9.956649999999999
 21
116.6945
 31
0.0
  0
LINE
  5
F6
330
1E
100
AcDbEntity
  8
0
100
AcDbLine
 10
7.70816
 20
114.5275
 30
0.0
 11
8.624269999999999
 21
115.4955
 31
0.0
  0
LINE
  5
FA
330
1E
100
AcDbEntity
  8
0
100
AcDbLine
 10
8.986310000000001
 20
117.2275
 30
0.0
 11
9.359799999999999
 21
117.5624999999999
 31
0.0
  0
LINE
  5
FC
330
1E
100
AcDbEntity
  8
0
100
AcDbLine
 10
9.359799999999999
 20
117.5624999999999
 30
0.0
 11
11.58555
 21
119.0585
 31
0.0
  0
LINE
  5
FD
330
1E
100
AcDbEntity
  8
0
100
AcDbLine
 10
6.54185
 20
118.8845
 30
0.0
 11
11.41785
 21
122.5644999999999
 31
0.0
  0
LINE
  5
FE
330
1E
100
AcDbEntity
  8
0
100
AcDbLine
 10
11.58555
 20
119.0585
 30
0.0
 11
11.85965
 21
119.2385
 31
0.0
  0
LINE
  5
FF
330
1E
100
AcDbEntity
  8
0
100
AcDbLine
 10
11.85965
 20
119.2385
 30
0.0
 11
14.25455
 21
120.4154999999999
 31
0.0
  0
LINE
  5
100
330
1E
100
AcDbEntity
  8
0
100
AcDbLine
 10
11.41785
 20
122.5644999999999
 30
0.0
 11
16.93785
 21
124.7724999999999
 31
0.0
  0
LINE
  5
101
330
1E
100
AcDbEntity
  8
0
100
AcDbLine
 10
12.95035
 20
118.7305
 30
0.0
 11
14.07555
 21
119.3105
 31
0.0
  0
LINE
  5
102
330
1E
100
AcDbEntity
  8
0
100
AcDbLine
 10
14.25455
 20
120.4154999999999
 30
0.0
 11
16.73035
 21
121.2795
 31
0.0
  0
LINE
  5
103
330
1E
100
AcDbEntity
  8
0
100
AcDbLine
 10
14.07555
 20
119.3105
 30
0.0
 11
15.23525
 21
119.8185
 31
0.0
  0
LINE
  5
104
330
1E
100
AcDbEntity
  8
0
100
AcDbLine
 10
11.40265
 20
117.7775
 30
0.0
 11
12.95035
 21
118.7305
 31
0.0
  0
LINE
  5
105
330
1E
100
AcDbEntity
  8
0
100
AcDbLine
 10
9.956649999999999
 20
116.6945
 30
0.0
 11
11.40265
 21
117.7775
 31
0.0
  0
LINE
  5
106
330
1E
100
AcDbEntity
  8
0
100
AcDbLine
 10
15.23525
 20
119.8185
 30
0.0
 11
16.42395
 21
120.2535
 31
0.0
  0
LINE
  5
107
330
1E
100
AcDbEntity
  8
0
100
AcDbLine
 10
16.42395
 20
120.2535
 30
0.0
 11
17.63455
 21
120.6124999999999
 31
0.0
  0
LINE
  5
108
330
1E
100
AcDbEntity
  8
0
100
AcDbLine
 10
17.63455
 20
120.6124999999999
 30
0.0
 11
18.86145
 21
120.8935
 31
0.0
  0
LINE
  5
109
330
1E
100
AcDbEntity
  8
0
100
AcDbLine
 10
16.73035
 20
121.2795
 30
0.0
 11
19.23525
 21
121.8334999999999
 31
0.0
  0
LINE
  5
10A
330
1E
100
AcDbEntity
  8
0
100
AcDbLine
 10
19.23525
 20
121.8334999999999
 30
0.0
 11
20.97815
 21
122.0464999999999
 31
0.0
  0
LINE
  5
10B
330
1E
100
AcDbEntity
  8
0
100
AcDbLine
 10
16.93785
 20
124.7724999999999
 30
0.0
 11
22.82585
 21
125.6005
 31
0.0
  0
LINE
  5
10C
330
1E
100
AcDbEntity
  8
0
100
AcDbLine
 10
18.86145
 20
120.8935
 30
0.0
 11
20.09665
 21
121.0984999999999
 31
0.0
  0
LINE
  5
10F
330
1E
100
AcDbEntity
  8
0
100
AcDbLine
 10
22.82585
 20
26.2821
 30
0.0
 11
26.41754999999999
 21
26.3333
 31
0.0
  0
LINE
  5
110
330
1E
100
AcDbEntity
  8
0
100
AcDbLine
 10
22.82585
 20
26.2821
 30
0.0
 11
26.41754999999999
 21
26.3333
 31
0.0
  0
LINE
  5
125
330
1E
100
AcDbEntity
  8
0
100
AcDbLine
 10
19.23415
 20
26.3333
 30
0.0
 11
22.82585
 21
26.2821
 31
0.0
  0
LINE
  5
126
330
1E
100
AcDbEntity
  8
0
100
AcDbLine
 10
20.09665
 20
121.0984999999999
 30
0.0
 11
21.33344999999999
 21
121.2274999999999
 31
0.0
  0
LINE
  5
12A
330
1E
100
AcDbEntity
  8
0
100
AcDbLine
 10
22.82585
 20
122.1235
 30
0.0
 11
24.67354999999999
 21
122.0464999999999
 31
0.0
  0
LINE
  5
12C
330
1E
100
AcDbEntity
  8
0
100
AcDbLine
 10
20.97815
 20
122.0464999999999
 30
0.0
 11
22.82585
 21
122.1235
 31
0.0
  0
LINE
  5
133
330
1E
100
AcDbEntity
  8
0
100
AcDbLine
 10
22.82585
 20
125.6005
 30
0.0
 11
28.71385
 21
124.7724999999999
 31
0.0
  0
LINE
  5
135
330
1E
100
AcDbEntity
  8
0
100
AcDbLine
 10
22.82585
 20
121.2825
 30
0.0
 11
24.31824999999999
 21
121.2274999999999
 31
0.0
  0
LINE
  5
136
330
1E
100
AcDbEntity
  8
0
100
AcDbLine
 10
21.33344999999999
 20
121.2274999999999
 30
0.0
 11
22.82585
 21
121.2825
 31
0.0
  0
LINE
  5
137
330
1E
100
AcDbEntity
  8
0
100
AcDbLine
 10
30.00574999999999
 20
26.4849
 30
0.0
 11
33.58565
 21
26.7477
 31
0.0
  0
LINE
  5
138
330
1E
100
AcDbEntity
  8
0
100
AcDbLine
 10
26.41754999999999
 20
26.3333
 30
0.0
 11
30.00574999999999
 21
26.4849
 31
0.0
  0
LINE
  5
13E
330
1E
100
AcDbEntity
  8
0
100
AcDbLine
 10
26.79025
 20
120.8935
 30
0.0
 11
28.01715
 21
120.6124999999999
 31
0.0
  0
LINE
  5
13F
330
1E
100
AcDbEntity
  8
0
100
AcDbLine
 10
28.01715
 20
120.6124999999999
 30
0.0
 11
29.22775
 21
120.2535
 31
0.0
  0
LINE
  5
140
330
1E
100
AcDbEntity
  8
0
100
AcDbLine
 10
26.41635
 20
121.8334999999999
 30
0.0
 11
28.92135
 21
121.2795
 31
0.0
  0
LINE
  5
141
330
1E
100
AcDbEntity
  8
0
100
AcDbLine
 10
24.67354999999999
 20
122.0464999999999
 30
0.0
 11
26.41635
 21
121.8334999999999
 31
0.0
  0
LINE
  5
142
330
1E
100
AcDbEntity
  8
0
100
AcDbLine
 10
28.71385
 20
124.7724999999999
 30
0.0
 11
34.23384999999999
 21
122.5644999999999
 31
0.0
  0
LINE
  5
143
330
1E
100
AcDbEntity
  8
0
100
AcDbLine
 10
24.31824999999999
 20
121.2274999999999
 30
0.0
 11
25.55505
 21
121.0984999999999
 31
0.0
  0
LINE
  5
144
330
1E
100
AcDbEntity
  8
0
100
AcDbLine
 10
25.55505
 20
121.0984999999999
 30
0.0
 11
26.79025
 21
120.8935
 31
0.0
  0
LINE
  5
147
330
1E
100
AcDbEntity
  8
0
100
AcDbLine
 10
28.92135
 20
121.2795
 30
0.0
 11
31.39715
 21
120.4154999999999
 31
0.0
  0
LINE
  5
148
330
1E
100
AcDbEntity
  8
0
100
AcDbLine
 10
29.22775
 20
120.2535
 30
0.0
 11
30.41645
 21
119.8185
 31
0.0
  0
LINE
  5
149
330
1E
100
AcDbEntity
  8
0
100
AcDbLine
 10
30.41645
 20
119.8185
 30
0.0
 11
31.57614999999999
 21
119.3105
 31
0.0
  0
LINE
  5
150
330
1E
100
AcDbEntity
  8
0
100
AcDbLine
 10
38.62404999999999
 20
1.099600000000009
 30
0.0
 11
39.17155
 21
1.23570000000002
 31
0.0
  0
LINE
  5
151
330
1E
100
AcDbEntity
  8
0
100
AcDbLine
 10
39.92855
 20
1.54530000000001
 30
0.0
 11
40.56115
 21
1.97970000000001
 31
0.0
  0
LINE
  5
152
330
1E
100
AcDbEntity
  8
0
100
AcDbLine
 10
39.17155
 20
1.23570000000002
 30
0.0
 11
39.92855
 21
1.54530000000001
 31
0.0
  0
LINE
  5
153
330
1E
100
AcDbEntity
  8
0
100
AcDbLine
 10
37.48955
 20
0.939100000000012
 30
0.0
 11
38.62404999999999
 21
1.099600000000009
 31
0.0
  0
LINE
  5
154
330
1E
100
AcDbEntity
  8
0
100
AcDbLine
 10
40.56115
 20
1.97970000000001
 30
0.0
 11
40.68164999999999
 21
2.087000000000009
 31
0.0
  0
LINE
  5
155
330
1E
100
AcDbEntity
  8
0
100
AcDbLine
 10
41.51055
 20
3.43640000000002
 30
0.0
 11
41.60395
 21
3.90130000000002
 31
0.0
  0
LINE
  5
156
330
1E
100
AcDbEntity
  8
0
100
AcDbLine
 10
41.22375
 20
2.771700000000009
 30
0.0
 11
41.51055
 21
3.43640000000002
 31
0.0
  0
LINE
  5
157
330
1E
100
AcDbEntity
  8
0
100
AcDbLine
 10
41.69274999999999
 20
4.978600000000009
 30
0.0
 11
41.69655
 21
5.236800000000009
 31
0.0
  0
LINE
  5
158
330
1E
100
AcDbEntity
  8
0
100
AcDbLine
 10
41.69655
 20
5.236800000000009
 30
0.0
 11
41.73575
 21
7.368700000000009
 31
0.0
  0
LINE
  5
159
330
1E
100
AcDbEntity
  8
0
100
AcDbLine
 10
41.73575
 20
7.368700000000009
 30
0.0
 11
41.77505
 21
9.501400000000009
 31
0.0
  0
LINE
  5
15A
330
1E
100
AcDbEntity
  8
0
100
AcDbLine
 10
41.77505
 20
9.501400000000009
 30
0.0
 11
41.81524999999999
 21
11.6332
 31
0.0
  0
LINE
  5
15B
330
1E
100
AcDbEntity
  8
0
100
AcDbLine
 10
41.81524999999999
 20
11.6332
 30
0.0
 11
41.86655
 21
14.2431
 31
0.0
  0
LINE
  5
15C
330
1E
100
AcDbEntity
  8
0
100
AcDbLine
 10
41.86655
 20
14.2431
 30
0.0
 11
41.87305
 21
14.5955
 31
0.0
  0
LINE
  5
15D
330
1E
100
AcDbEntity
  8
0
100
AcDbLine
 10
41.87305
 20
14.5955
 30
0.0
 11
41.88435
 21
15.9466
 31
0.0
  0
LINE
  5
15E
330
1E
100
AcDbEntity
  8
0
100
AcDbLine
 10
41.62745
 20
4.18830000000002
 30
0.0
 11
41.69274999999999
 21
4.978600000000009
 31
0.0
  0
LINE
  5
15F
330
1E
100
AcDbEntity
  8
0
100
AcDbLine
 10
41.60395
 20
3.90130000000002
 30
0.0
 11
41.62745
 21
4.18830000000002
 31
0.0
  0
LINE
  5
160
330
1E
100
AcDbEntity
  8
0
100
AcDbLine
 10
40.68164999999999
 20
2.087000000000009
 30
0.0
 11
41.22375
 21
2.771700000000009
 31
0.0
  0
LINE
  5
161
330
1E
100
AcDbEntity
  8
0
100
AcDbLine
 10
33.83764999999999
 20
0.5832000000000109
 30
0.0
 11
37.48955
 21
0.939100000000012
 31
0.0
  0
LINE
  5
162
330
1E
100
AcDbEntity
  8
0
100
AcDbLine
 10
31.39715
 20
120.4154999999999
 30
0.0
 11
33.79195
 21
119.2385
 31
0.0
  0
LINE
  5
163
330
1E
100
AcDbEntity
  8
0
100
AcDbLine
 10
41.88435
 20
15.9466
 30
0.0
 11
41.89745
 21
17.3379
 31
0.0
  0
LINE
  5
164
330
1E
100
AcDbEntity
  8
0
100
AcDbLine
 10
41.89745
 20
17.3379
 30
0.0
 11
41.91335
 21
18.9264
 31
0.0
  0
LINE
  5
165
330
1E
100
AcDbEntity
  8
0
100
AcDbLine
 10
41.91335
 20
18.9264
 30
0.0
 11
41.93014999999999
 21
20.561
 31
0.0
  0
LINE
  5
166
330
1E
100
AcDbEntity
  8
0
100
AcDbLine
 10
41.93014999999999
 20
20.561
 30
0.0
 11
41.94785
 21
22.2375
 31
0.0
  0
LINE
  5
167
330
1E
100
AcDbEntity
  8
0
100
AcDbLine
 10
41.94785
 20
22.2375
 30
0.0
 11
41.96755
 21
23.95329999999999
 31
0.0
  0
LINE
  5
168
330
1E
100
AcDbEntity
  8
0
100
AcDbLine
 10
41.99085
 20
25.8958
 30
0.0
 11
42.01525
 21
27.8734
 31
0.0
  0
LINE
  5
169
330
1E
100
AcDbEntity
  8
0
100
AcDbLine
 10
41.96755
 20
23.95329999999999
 30
0.0
 11
41.99085
 21
25.8958
 31
0.0
  0
LINE
  5
16A
330
1E
100
AcDbEntity
  8
0
100
AcDbLine
 10
31.57614999999999
 20
119.3105
 30
0.0
 11
32.70134999999999
 21
118.7305
 31
0.0
  0
LINE
  5
16B
330
1E
100
AcDbEntity
  8
0
100
AcDbLine
 10
38.12345
 20
27.3111
 30
0.0
 11
38.58705
 21
27.4662
 31
0.0
  0
LINE
  5
16C
330
1E
100
AcDbEntity
  8
0
100
AcDbLine
 10
37.15285
 20
27.1361
 30
0.0
 11
38.12345
 21
27.3111
 31
0.0
  0
LINE
  5
16D
330
1E
100
AcDbEntity
  8
0
100
AcDbLine
 10
39.22684999999999
 20
27.8044
 30
0.0
 11
39.77485
 21
28.2575
 31
0.0
  0
LINE
  5
16E
330
1E
100
AcDbEntity
  8
0
100
AcDbLine
 10
39.77485
 20
28.2575
 30
0.0
 11
40.23024999999999
 21
28.837
 31
0.0
  0
LINE
  5
16F
330
1E
100
AcDbEntity
  8
0
100
AcDbLine
 10
38.58705
 20
27.4662
 30
0.0
 11
39.22684999999999
 21
27.8044
 31
0.0
  0
LINE
  5
170
330
1E
100
AcDbEntity
  8
0
100
AcDbLine
 10
40.23655
 20
111.3495
 30
0.0
 11
40.82365
 21
110.2554999999999
 31
0.0
  0
LINE
  5
172
330
1E
100
AcDbEntity
  8
0
100
AcDbLine
 10
37.02745
 20
115.4955
 30
0.0
 11
37.94355
 21
114.5275
 31
0.0
  0
LINE
  5
173
330
1E
100
AcDbEntity
  8
0
100
AcDbLine
 10
40.24925
 20
113.4454999999999
 30
0.0
 11
40.40135
 21
113.2495
 31
0.0
  0
LINE
  5
177
330
1E
100
AcDbEntity
  8
0
100
AcDbLine
 10
39.1030326925086
 20
114.7653826925089
 30
0.0
 11
39.81615
 21
115.4784999999999
 31
0.0
  0
LINE
  5
17B
330
1E
100
AcDbEntity
  8
0
100
AcDbLine
 10
39.81615
 20
115.4784999999999
 30
0.0
 11
40.61314999999999
 21
116.2754999999999
 31
0.0
  0
LINE
  5
17C
330
1E
100
AcDbEntity
  8
0
100
AcDbLine
 10
39.13797406881439
 20
114.8003240688139
 30
0.0
 11
40.24925
 21
113.4454999999999
 31
0.0
  0
LINE
  5
17D
330
1E
100
AcDbEntity
  8
0
100
AcDbLine
 10
38.78595
 20
113.5105
 30
0.0
 11
39.55125
 21
112.4475
 31
0.0
  0
LINE
  5
17E
330
1E
100
AcDbEntity
  8
0
100
AcDbLine
 10
37.94355
 20
114.5275
 30
0.0
 11
38.78595
 21
113.5105
 31
0.0
  0
LINE
  5
17F
330
1E
100
AcDbEntity
  8
0
100
AcDbLine
 10
39.55125
 20
112.4475
 30
0.0
 11
40.23655
 21
111.3495
 31
0.0
  0
LINE
  5
180
330
1E
100
AcDbEntity
  8
0
100
AcDbLine
 10
40.74374999999999
 20
30.0768
 30
0.0
 11
40.85734999999999
 21
31.025
 31
0.0
  0
LINE
  5
181
330
1E
100
AcDbEntity
  8
0
100
AcDbLine
 10
40.61645
 20
29.6004
 30
0.0
 11
40.74374999999999
 21
30.0768
 31
0.0
  0
LINE
  5
182
330
1E
100
AcDbEntity
  8
0
100
AcDbLine
 10
40.85734999999999
 20
31.025
 30
0.0
 11
40.87365
 21
31.4035
 31
0.0
  0
LINE
  5
183
330
1E
100
AcDbEntity
  8
0
100
AcDbLine
 10
40.40135
 20
113.2495
 30
0.0
 11
41.84445
 21
110.8275
 31
0.0
  0
LINE
  5
184
330
1E
100
AcDbEntity
  8
0
100
AcDbLine
 10
40.82365
 20
110.2554999999999
 30
0.0
 11
41.33345
 21
109.1374999999999
 31
0.0
  0
LINE
  5
185
330
1E
100
AcDbEntity
  8
0
100
AcDbLine
 10
41.07355
 20
37.56369999999999
 30
0.0
 11
41.13815
 21
39.65559999999999
 31
0.0
  0
LINE
  5
186
330
1E
100
AcDbEntity
  8
0
100
AcDbLine
 10
41.00814999999999
 20
35.4879
 30
0.0
 11
41.07355
 21
37.56369999999999
 31
0.0
  0
LINE
  5
187
330
1E
100
AcDbEntity
  8
0
100
AcDbLine
 10
41.20085
 20
41.7593
 30
0.0
 11
41.26355
 21
43.87189999999999
 31
0.0
  0
LINE
  5
188
330
1E
100
AcDbEntity
  8
0
100
AcDbLine
 10
41.33345
 20
109.1374999999999
 30
0.0
 11
41.76975
 21
107.9935
 31
0.0
  0
LINE
  5
189
330
1E
100
AcDbEntity
  8
0
100
AcDbLine
 10
41.26355
 20
43.87189999999999
 30
0.0
 11
41.38625
 21
48.115
 31
0.0
  0
LINE
  5
18A
330
1E
100
AcDbEntity
  8
0
100
AcDbLine
 10
41.13815
 20
39.65559999999999
 30
0.0
 11
41.20085
 21
41.7593
 31
0.0
  0
LINE
  5
18B
330
1E
100
AcDbEntity
  8
0
100
AcDbLine
 10
40.94174999999999
 20
33.4317
 30
0.0
 11
41.00814999999999
 21
35.4879
 31
0.0
  0
LINE
  5
18C
330
1E
100
AcDbEntity
  8
0
100
AcDbLine
 10
40.87365
 20
31.4035
 30
0.0
 11
40.94174999999999
 21
33.4317
 31
0.0
  0
LINE
  5
18D
330
1E
100
AcDbEntity
  8
0
100
AcDbLine
 10
40.29565
 20
28.93029999999999
 30
0.0
 11
40.61645
 21
29.6004
 31
0.0
  0
LINE
  5
18E
330
1E
100
AcDbEntity
  8
0
100
AcDbLine
 10
40.23024999999999
 20
28.837
 30
0.0
 11
40.29565
 21
28.93029999999999
 31
0.0
  0
LINE
  5
18F
330
1E
100
AcDbEntity
  8
0
100
AcDbLine
 10
42.04514999999999
 20
30.28869999999999
 30
0.0
 11
42.07685
 21
32.7241
 31
0.0
  0
LINE
  5
190
330
1E
100
AcDbEntity
  8
0
100
AcDbLine
 10
42.01525
 20
27.8734
 30
0.0
 11
42.04514999999999
 21
30.28869999999999
 31
0.0
  0
LINE
  5
191
330
1E
100
AcDbEntity
  8
0
100
AcDbLine
 10
42.11985
 20
35.97509999999999
 30
0.0
 11
42.20674999999999
 21
42.3113
 31
0.0
  0
LINE
  5
192
330
1E
100
AcDbEntity
  8
0
100
AcDbLine
 10
42.07685
 20
32.7241
 30
0.0
 11
42.11985
 21
35.97509999999999
 31
0.0
  0
LINE
  5
193
330
1E
100
AcDbEntity
  8
0
100
AcDbLine
 10
42.20674999999999
 20
42.3113
 30
0.0
 11
42.41984999999999
 21
51.8927
 31
0.0
  0
LINE
  5
194
330
1E
100
AcDbEntity
  8
0
100
AcDbLine
 10
41.62625
 20
56.6274
 30
0.0
 11
41.72424999999999
 21
60.1869
 31
0.0
  0
LINE
  5
195
330
1E
100
AcDbEntity
  8
0
100
AcDbLine
 10
41.72424999999999
 20
60.1869
 30
0.0
 11
41.92244999999999
 21
67.3053
 31
0.0
  0
LINE
  5
196
330
1E
100
AcDbEntity
  8
0
100
AcDbLine
 10
41.92244999999999
 20
67.3053
 30
0.0
 11
42.21784999999999
 21
77.98350000000001
 31
0.0
  0
LINE
  5
197
330
1E
100
AcDbEntity
  8
0
100
AcDbLine
 10
42.21784999999999
 20
77.98350000000001
 30
0.0
 11
42.34415
 21
82.53249999999999
 31
0.0
  0
LINE
  5
198
330
1E
100
AcDbEntity
  8
0
100
AcDbLine
 10
42.68525
 20
68.49330000000001
 30
0.0
 11
42.78145
 21
75.3695
 31
0.0
  0
LINE
  5
199
330
1E
100
AcDbEntity
  8
0
100
AcDbLine
 10
42.59644999999999
 20
62.0001
 30
0.0
 11
42.68525
 21
68.49330000000001
 31
0.0
  0
LINE
  5
19A
330
1E
100
AcDbEntity
  8
0
100
AcDbLine
 10
42.53655
 20
57.896
 30
0.0
 11
42.59644999999999
 21
62.0001
 31
0.0
  0
LINE
  5
19B
330
1E
100
AcDbEntity
  8
0
100
AcDbLine
 10
42.41984999999999
 20
51.8927
 30
0.0
 11
42.53655
 21
57.896
 31
0.0
  0
LINE
  5
19C
330
1E
100
AcDbEntity
  8
0
100
AcDbLine
 10
42.34415
 20
82.53249999999999
 30
0.0
 11
42.37595
 21
83.6705
 31
0.0
  0
LINE
  5
19D
330
1E
100
AcDbEntity
  8
0
100
AcDbLine
 10
42.42054999999999
 20
85.2965
 30
0.0
 11
42.78315
 21
98.38450000000001
 31
0.0
  0
LINE
  5
19E
330
1E
100
AcDbEntity
  8
0
100
AcDbLine
 10
42.42054999999999
 20
85.2965
 30
0.0
 11
42.46414999999999
 21
86.8435
 31
0.0
  0
LINE
  5
19F
330
1E
100
AcDbEntity
  8
0
100
AcDbLine
 10
42.46414999999999
 20
86.8435
 30
0.0
 11
42.50234999999999
 21
88.21049999999999
 31
0.0
  0
LINE
  5
1A0
330
1E
100
AcDbEntity
  8
0
100
AcDbLine
 10
42.53955
 20
89.52949999999999
 30
0.0
 11
42.57315
 21
90.7435
 31
0.0
  0
LINE
  5
1A1
330
1E
100
AcDbEntity
  8
0
100
AcDbLine
 10
42.57315
 20
90.7435
 30
0.0
 11
42.60584999999999
 21
91.91450000000001
 31
0.0
  0
LINE
  5
1A2
330
1E
100
AcDbEntity
  8
0
100
AcDbLine
 10
42.60584999999999
 20
91.91450000000001
 30
0.0
 11
42.63765
 21
93.04149999999999
 31
0.0
  0
LINE
  5
1A3
330
1E
100
AcDbEntity
  8
0
100
AcDbLine
 10
42.63765
 20
93.04149999999999
 30
0.0
 11
42.66774999999999
 21
94.12550000000001
 31
0.0
  0
LINE
  5
1A4
330
1E
100
AcDbEntity
  8
0
100
AcDbLine
 10
42.50234999999999
 20
88.21049999999999
 30
0.0
 11
42.53955
 21
89.52949999999999
 31
0.0
  0
LINE
  5
1A5
330
1E
100
AcDbEntity
  8
0
100
AcDbLine
 10
42.66774999999999
 20
94.12550000000001
 30
0.0
 11
42.71405
 21
95.78050000000001
 31
0.0
  0
LINE
  5
1A6
330
1E
100
AcDbEntity
  8
0
100
AcDbLine
 10
42.37595
 20
83.6705
 30
0.0
 11
42.78315
 21
98.38450000000001
 31
0.0
  0
LINE
  5
1A7
330
1E
100
AcDbEntity
  8
0
100
AcDbLine
 10
42.78145
 20
75.3695
 30
0.0
 11
42.85524999999999
 21
80.37350000000001
 31
0.0
  0
LINE
  5
1A8
330
1E
100
AcDbEntity
  8
0
100
AcDbLine
 10
42.79044999999999
 20
98.60050000000001
 30
0.0
 11
42.81405
 21
99.5615
 31
0.0
  0
LINE
  5
1A9
330
1E
100
AcDbEntity
  8
0
100
AcDbLine
 10
42.76214999999999
 20
97.6025
 30
0.0
 11
42.78954999999999
 21
98.5865
 31
0.0
  0
LINE
  5
1AA
330
1E
100
AcDbEntity
  8
0
100
AcDbLine
 10
42.76214999999999
 20
97.6025
 30
0.0
 11
42.79044999999999
 21
98.60050000000001
 31
0.0
  0
LINE
  5
1AB
330
1E
100
AcDbEntity
  8
0
100
AcDbLine
 10
42.81855
 20
99.85649999999999
 30
0.0
 11
42.82404999999999
 21
100.5275
 31
0.0
  0
LINE
  5
1AC
330
1E
100
AcDbEntity
  8
0
100
AcDbLine
 10
42.81855
 20
99.85649999999999
 30
0.0
 11
42.82045
 21
99.9825
 31
0.0
  0
LINE
  5
1AD
330
1E
100
AcDbEntity
  8
0
100
AcDbLine
 10
42.81405
 20
99.5615
 30
0.0
 11
42.82045
 21
99.9825
 31
0.0
  0
LINE
  5
1AE
330
1E
100
AcDbEntity
  8
0
100
AcDbLine
 10
42.81405
 20
99.5615
 30
0.0
 11
42.82224999999999
 21
100.4915
 31
0.0
  0
LINE
  5
1AF
330
1E
100
AcDbEntity
  8
0
100
AcDbLine
 10
42.81405
 20
99.5615
 30
0.0
 11
42.81855
 21
99.9225
 31
0.0
  0
LINE
  5
1B0
330
1E
100
AcDbEntity
  8
0
100
AcDbLine
 10
42.81855
 20
99.9225
 30
0.0
 11
42.82224999999999
 21
100.4915
 31
0.0
  0
LINE
  5
1B1
330
1E
100
AcDbEntity
  8
0
100
AcDbLine
 10
42.71405
 20
95.78050000000001
 30
0.0
 11
42.75405
 21
97.2555
 31
0.0
  0
LINE
  5
1B2
330
1E
100
AcDbEntity
  8
0
100
AcDbLine
 10
42.12975
 20
106.8255
 30
0.0
 11
42.34415
 21
105.9565
 31
0.0
  0
LINE
  5
1B3
330
1E
100
AcDbEntity
  8
0
100
AcDbLine
 10
42.34415
 20
105.9565
 30
0.0
 11
42.51775
 21
105.0794999999999
 31
0.0
  0
LINE
  5
1B4
330
1E
100
AcDbEntity
  8
0
100
AcDbLine
 10
42.81134999999999
 20
101.4035
 30
0.0
 11
42.81945
 21
100.9925
 31
0.0
  0
LINE
  5
1B5
330
1E
100
AcDbEntity
  8
0
100
AcDbLine
 10
42.81134999999999
 20
101.4035
 30
0.0
 11
42.82404999999999
 21
100.5275
 31
0.0
  0
LINE
  5
1B6
330
1E
100
AcDbEntity
  8
0
100
AcDbLine
 10
42.79314999999999
 20
102.1474999999999
 30
0.0
 11
42.80854999999999
 21
101.8164999999999
 31
0.0
  0
LINE
  5
1B7
330
1E
100
AcDbEntity
  8
0
100
AcDbLine
 10
42.74495
 20
103.3095
 30
0.0
 11
42.82404999999999
 21
101.7104999999999
 31
0.0
  0
LINE
  5
1B8
330
1E
100
AcDbEntity
  8
0
100
AcDbLine
 10
42.80854999999999
 20
101.8164999999999
 30
0.0
 11
42.82224999999999
 21
101.4355
 31
0.0
  0
LINE
  5
1B9
330
1E
100
AcDbEntity
  8
0
100
AcDbLine
 10
42.8119905068919
 20
101.635609678376
 30
0.0
 11
42.82224999999999
 21
101.4355
 31
0.0
  0
LINE
  5
1BA
330
1E
100
AcDbEntity
  8
0
100
AcDbLine
 10
42.73945
 20
103.0505
 30
0.0
 11
42.7584389038452
 21
102.6801246411829
 31
0.0
  0
LINE
  5
1BB
330
1E
100
AcDbEntity
  8
0
100
AcDbLine
 10
42.73945
 20
103.0505
 30
0.0
 11
42.79314999999999
 21
102.1474999999999
 31
0.0
  0
LINE
  5
1BC
330
1E
100
AcDbEntity
  8
0
100
AcDbLine
 10
42.65044999999999
 20
104.1965
 30
0.0
 11
42.74495
 21
103.3095
 31
0.0
  0
LINE
  5
1BD
330
1E
100
AcDbEntity
  8
0
100
AcDbLine
 10
42.51775
 20
105.0794999999999
 30
0.0
 11
42.65044999999999
 21
104.1965
 31
0.0
  0
LINE
  5
1BE
330
1E
100
AcDbEntity
  8
0
100
AcDbLine
 10
42.64455
 20
108.9954999999999
 30
0.0
 11
42.66325
 21
108.9225
 31
0.0
  0
LINE
  5
1BF
330
1E
100
AcDbEntity
  8
0
100
AcDbLine
 10
41.88235
 20
110.7565
 30
0.0
 11
42.61954999999999
 21
109.0694999999999
 31
0.0
  0
LINE
  5
1C0
330
1E
100
AcDbEntity
  8
0
100
AcDbLine
 10
42.61954999999999
 20
109.0694999999999
 30
0.0
 11
42.64455
 21
108.9954999999999
 31
0.0
  0
LINE
  5
1C1
330
1E
100
AcDbEntity
  8
0
100
AcDbLine
 10
42.66325
 20
108.9225
 30
0.0
 11
43.20454999999999
 21
107.2554999999999
 31
0.0
  0
LINE
  5
1C2
330
1E
100
AcDbEntity
  8
0
100
AcDbLine
 10
41.84445
 20
110.8275
 30
0.0
 11
41.88235
 21
110.7565
 31
0.0
  0
LINE
  5
1C3
330
1E
100
AcDbEntity
  8
0
100
AcDbLine
 10
42.78985
 20
114.0085
 30
0.0
 11
44.99785
 21
108.4885
 31
0.0
  0
LINE
  5
1C4
330
1E
100
AcDbEntity
  8
0
100
AcDbLine
 10
41.76975
 20
107.9935
 30
0.0
 11
42.12975
 21
106.8255
 31
0.0
  0
LINE
  5
1C5
330
1E
100
AcDbEntity
  8
0
100
AcDbLine
 10
42.81945
 20
100.9925
 30
0.0
 11
42.82404999999999
 21
100.5275
 31
0.0
  0
LINE
  5
1C6
330
1E
100
AcDbEntity
  8
0
100
AcDbLine
 10
42.81855
 20
101.2825
 30
0.0
 11
42.82314999999999
 21
100.9705
 31
0.0
  0
LINE
  5
1C7
330
1E
100
AcDbEntity
  8
0
100
AcDbLine
 10
42.81855
 20
101.2825
 30
0.0
 11
42.8209566460587
 21
100.9978879443589
 31
0.0
  0
LINE
  5
1C8
330
1E
100
AcDbEntity
  8
0
100
AcDbLine
 10
42.82135
 20
100.9735
 30
0.0
 11
42.82314999999999
 21
100.3585
 31
0.0
  0
LINE
  5
1C9
330
1E
100
AcDbEntity
  8
0
100
AcDbLine
 10
42.82135
 20
100.9735
 30
0.0
 11
42.82404999999999
 21
100.5275
 31
0.0
  0
LINE
  5
1CA
330
1E
100
AcDbEntity
  8
0
100
AcDbLine
 10
42.82135
 20
101.0515
 30
0.0
 11
42.82404999999999
 21
100.7654999999999
 31
0.0
  0
LINE
  5
1CB
330
1E
100
AcDbEntity
  8
0
100
AcDbLine
 10
42.82135
 20
101.0515
 30
0.0
 11
42.8214973757873
 21
100.9491557032889
 31
0.0
  0
LINE
  5
1CC
330
1E
100
AcDbEntity
  8
0
100
AcDbLine
 10
42.82224999999999
 20
101.4355
 30
0.0
 11
42.82224999999999
 21
101.3454999999999
 31
0.0
  0
LINE
  5
1CD
330
1E
100
AcDbEntity
  8
0
100
AcDbLine
 10
42.82224999999999
 20
101.3454999999999
 30
0.0
 11
42.8230099691137
 21
101.143685979814
 31
0.0
  0
LINE
  5
1CE
330
1E
100
AcDbEntity
  8
0
100
AcDbLine
 10
42.82224999999999
 20
101.3454999999999
 30
0.0
 11
42.82224999999999
 21
101.4355
 31
0.0
  0
LINE
  5
1CF
330
1E
100
AcDbEntity
  8
0
100
AcDbLine
 10
42.82314999999999
 20
100.3585
 30
0.0
 11
42.82404999999999
 21
100.7654999999999
 31
0.0
  0
LINE
  5
1D0
330
1E
100
AcDbEntity
  8
0
100
AcDbLine
 10
42.82314999999999
 20
101.1064999999999
 30
0.0
 11
42.82404999999999
 21
100.8674999999999
 31
0.0
  0
LINE
  5
1D1
330
1E
100
AcDbEntity
  8
0
100
AcDbLine
 10
42.89724999999999
 20
83.0315
 30
0.0
 11
42.94595
 21
85.87749999999999
 31
0.0
  0
LINE
  5
1D2
330
1E
100
AcDbEntity
  8
0
100
AcDbLine
 10
42.89724999999999
 20
83.0315
 30
0.0
 11
42.94595
 21
85.87850000000001
 31
0.0
  0
LINE
  5
1D3
330
1E
100
AcDbEntity
  8
0
100
AcDbLine
 10
42.85524999999999
 20
80.37350000000001
 30
0.0
 11
42.89724999999999
 21
83.0315
 31
0.0
  0
LINE
  5
1D4
330
1E
100
AcDbEntity
  8
0
100
AcDbLine
 10
42.94595
 20
85.87850000000001
 30
0.0
 11
42.96185
 21
86.74049999999999
 31
0.0
  0
LINE
  5
1D5
330
1E
100
AcDbEntity
  8
0
100
AcDbLine
 10
42.94595
 20
85.87749999999999
 30
0.0
 11
42.96185
 21
86.74049999999999
 31
0.0
  0
LINE
  5
1D6
330
1E
100
AcDbEntity
  8
0
100
AcDbLine
 10
43.04585
 20
90.8805
 30
0.0
 11
43.08234999999999
 21
92.4295
 31
0.0
  0
LINE
  5
1D7
330
1E
100
AcDbEntity
  8
0
100
AcDbLine
 10
43.01415
 20
89.42950000000001
 30
0.0
 11
43.04495
 21
90.8815
 31
0.0
  0
LINE
  5
1D8
330
1E
100
AcDbEntity
  8
0
100
AcDbLine
 10
43.01415
 20
89.42950000000001
 30
0.0
 11
43.04585
 21
90.8805
 31
0.0
  0
LINE
  5
1D9
330
1E
100
AcDbEntity
  8
0
100
AcDbLine
 10
43.04495
 20
90.8815
 30
0.0
 11
43.08234999999999
 21
92.4295
 31
0.0
  0
LINE
  5
1DA
330
1E
100
AcDbEntity
  8
0
100
AcDbLine
 10
42.96185
 20
86.74049999999999
 30
0.0
 11
43.01415
 21
89.42950000000001
 31
0.0
  0
LINE
  5
1DB
330
1E
100
AcDbEntity
  8
0
100
AcDbLine
 10
43.08234999999999
 20
92.4295
 30
0.0
 11
43.11784999999999
 21
93.6265
 31
0.0
  0
LINE
  5
1DC
330
1E
100
AcDbEntity
  8
0
100
AcDbLine
 10
43.20765
 20
96.04750000000001
 30
0.0
 11
43.24584999999999
 21
97.0235
 31
0.0
  0
LINE
  5
1DD
330
1E
100
AcDbEntity
  8
0
100
AcDbLine
 10
43.15425
 20
94.6315
 30
0.0
 11
43.20765
 21
96.04750000000001
 31
0.0
  0
LINE
  5
1DE
330
1E
100
AcDbEntity
  8
0
100
AcDbLine
 10
43.11784999999999
 20
93.6265
 30
0.0
 11
43.15425
 21
94.6315
 31
0.0
  0
LINE
  5
1DF
330
1E
100
AcDbEntity
  8
0
100
AcDbLine
 10
43.24584999999999
 20
97.0235
 30
0.0
 11
43.28325
 21
97.91949999999999
 31
0.0
  0
LINE
  5
1E0
330
1E
100
AcDbEntity
  8
0
100
AcDbLine
 10
43.28325
 20
97.91949999999999
 30
0.0
 11
43.3081858684481
 21
98.47971377184039
 31
0.0
  0
LINE
  5
1E1
330
1E
100
AcDbEntity
  8
0
100
AcDbLine
 10
43.3081858684481
 20
98.47971377184039
 30
0.0
 11
43.36364999999999
 21
99.3785
 31
0.0
  0
LINE
  5
1E2
330
1E
100
AcDbEntity
  8
0
100
AcDbLine
 10
43.36364999999999
 20
99.3785
 30
0.0
 11
43.40285
 21
99.92449999999999
 31
0.0
  0
LINE
  5
1E6
330
1E
100
AcDbEntity
  8
0
100
AcDbLine
 10
43.44115
 20
100.3824999999999
 30
0.0
 11
43.47855
 21
100.7454999999999
 31
0.0
  0
LINE
  5
1E7
330
1E
100
AcDbEntity
  8
0
100
AcDbLine
 10
43.40285
 20
99.92449999999999
 30
0.0
 11
43.44115
 21
100.3824999999999
 31
0.0
  0
LINE
  5
1EA
330
1E
100
AcDbEntity
  8
0
100
AcDbLine
 10
43.62895
 20
99.8535
 30
0.0
 11
43.79025
 21
101.3784999999999
 31
0.0
  0
LINE
  5
1ED
330
1E
100
AcDbEntity
  8
0
100
AcDbLine
 10
44.99785
 20
96.7125
 30
0.0
 11
45.82585
 21
102.6005
 31
0.0
  0
LINE
  5
1EE
330
1E
100
AcDbEntity
  8
0
100
AcDbLine
 10
43.06968673469389
 20
91.89209183673469
 30
0.0
 11
44.99785
 21
96.7125
 31
0.0
  0
LINE
  5
1EF
330
1E
100
AcDbEntity
  8
0
100
AcDbLine
 10
43.58604999999999
 20
105.4724999999999
 30
0.0
 11
43.79115
 21
103.6624999999999
 31
0.0
  0
LINE
  5
1F0
330
1E
100
AcDbEntity
  8
0
100
AcDbLine
 10
43.20454999999999
 20
107.2554999999999
 30
0.0
 11
43.58604999999999
 21
105.4724999999999
 31
0.0
  0
LINE
  5
1F1
330
1E
100
AcDbEntity
  8
0
100
AcDbLine
 10
43.79115
 20
103.6624999999999
 30
0.0
 11
43.82585
 21
102.5584999999999
 31
0.0
  0
LINE
  5
1F2
330
1E
100
AcDbEntity
  8
0
100
AcDbLine
 10
43.79025
 20
101.3784999999999
 30
0.0
 11
43.82585
 21
102.5584999999999
 31
0.0
  0
LINE
  5
1F3
330
1E
100
AcDbEntity
  8
0
100
AcDbLine
 10
44.99785
 20
108.4885
 30
0.0
 11
45.82585
 21
102.6005
 31
0.0
  0
LINE
  5
1F4
330
1E
100
AcDbEntity
  8
0
100
AcDbLine
 10
42.82404999999999
 20
101.7104999999999
 30
0.0
 11
42.82585
 21
101.4904999999999
 31
0.0
  0
LINE
  5
1F5
330
1E
100
AcDbEntity
  8
0
100
AcDbLine
 10
42.8229602117307
 20
101.2113887427669
 30
0.0
 11
42.82585
 21
101.4904999999999
 31
0.0
  0
LINE
  5
1F6
330
1E
100
AcDbEntity
  8
0
100
AcDbLine
 10
42.8227801061836
 20
100.900014678326
 30
0.0
 11
42.82314999999999
 21
100.9705
 31
0.0
  0
LINE
  5
1F7
330
1E
100
AcDbEntity
  8
0
100
AcDbLine
 10
41.46704999999999
 20
50.95069999999999
 30
0.0
 11
41.62625
 21
56.6274
 31
0.0
  0
LINE
  5
1F8
330
1E
100
AcDbEntity
  8
0
100
AcDbLine
 10
41.38625
 20
48.115
 30
0.0
 11
41.46704999999999
 21
50.95069999999999
 31
0.0
  0
LINE
  5
1FA
330
1E
100
AcDbEntity
  8
0
100
AcDbLine
 10
33.79195
 20
119.2385
 30
0.0
 11
34.06615
 21
119.0585
 31
0.0
  0
LINE
  5
1FB
330
1E
100
AcDbEntity
  8
0
100
AcDbLine
 10
34.06615
 20
119.0585
 30
0.0
 11
36.00915972673779
 21
117.752509726738
 31
0.0
  0
LINE
  5
1FC
330
1E
100
AcDbEntity
  8
0
100
AcDbLine
 10
34.23384999999999
 20
122.5644999999999
 30
0.0
 11
37.9882702077779
 21
119.730975314885
 31
0.0
  0
LINE
  5
1FD
330
1E
100
AcDbEntity
  8
0
100
AcDbLine
 10
34.24904999999999
 20
117.7775
 30
0.0
 11
35.69505
 21
116.6945
 31
0.0
  0
LINE
  5
1FF
330
1E
100
AcDbEntity
  8
0
100
AcDbLine
 10
40.61314999999999
 20
116.2754999999999
 30
0.0
 11
41.78315
 21
117.4445
 31
0.0
  0
LINE
  5
200
330
1E
100
AcDbEntity
  8
0
100
AcDbLine
 10
35.9583281427062
 20
117.7016781427059
 30
0.0
 11
36.77615
 21
118.5195
 31
0.0
  0
LINE
  5
201
330
1E
100
AcDbEntity
  8
0
100
AcDbLine
 10
35.9583281427062
 20
117.7016781427059
 30
0.0
 11
36.77615
 21
118.5195
 31
0.0
  0
LINE
  5
20C
330
1E
100
AcDbEntity
  8
0
100
AcDbLine
 10
41.78315
 20
117.4445
 30
0.0
 11
43.20915
 21
118.8714999999999
 31
0.0
  0
LINE
  5
20E
330
1E
100
AcDbEntity
  8
0
100
AcDbLine
 10
43.20915
 20
118.8714999999999
 30
0.0
 11
44.75415
 21
120.4154999999999
 31
0.0
  0
LINE
  5
215
330
1E
100
AcDbEntity
  8
0
100
AcDbLine
 10
38.74215
 20
120.4855
 30
0.0
 11
40.16915
 21
121.9115
 31
0.0
  0
LINE
  5
216
330
1E
100
AcDbEntity
  8
0
100
AcDbLine
 10
37.57315
 20
119.3154999999999
 30
0.0
 11
38.74215
 21
120.4855
 31
0.0
  0
LINE
  5
217
330
1E
100
AcDbEntity
  8
0
100
AcDbLine
 10
36.77615
 20
118.5195
 30
0.0
 11
37.57315
 21
119.3154999999999
 31
0.0
  0
LINE
  5
219
330
1E
100
AcDbEntity
  8
0
100
AcDbLine
 10
40.16915
 20
121.9115
 30
0.0
 11
41.71314999999999
 21
123.4565
 31
0.0
  0
LINE
  5
21A
330
1E
100
AcDbEntity
  8
0
100
AcDbLine
 10
41.71314999999999
 20
123.4565
 30
0.0
 11
50.13315
 21
131.8764999999999
 31
0.0
  0
LINE
  5
21C
330
1E
100
AcDbEntity
  8
0
100
AcDbLine
 10
44.75415
 20
120.4154999999999
 30
0.0
 11
53.17415
 21
128.8354999999999
 31
0.0
  0
LINE
  5
21D
330
1E
100
AcDbEntity
  8
0
100
AcDbLine
 10
52.94615
 20
129.1885
 30
0.0
 11
53.17415
 21
128.8354999999999
 31
0.0
  0
LINE
  5
21E
330
1E
100
AcDbEntity
  8
0
100
AcDbLine
 10
50.13315
 20
131.8764999999999
 30
0.0
 11
50.48615
 21
131.6485
 31
0.0
  0
LINE
  5
21F
330
1E
100
AcDbEntity
  8
0
100
AcDbLine
 10
50.48615
 20
131.6485
 30
0.0
 11
51.28415
 21
130.9265
 31
0.0
  0
LINE
  5
220
330
1E
100
AcDbEntity
  8
0
100
AcDbLine
 10
51.28415
 20
130.9265
 30
0.0
 11
52.22415
 21
129.9865
 31
0.0
  0
LINE
  5
221
330
1E
100
AcDbEntity
  8
0
100
AcDbLine
 10
52.22415
 20
129.9865
 30
0.0
 11
52.94615
 21
129.1885
 31
0.0
  0
LINE
  5
225
330
1E
100
AcDbEntity
  8
0
100
AcDbLine
 10
40.87867879470439
 20
116.540801847017
 30
0.0
 11
42.78985
 21
114.0085
 31
0.0
  0
LINE
  5
226
330
1E
100
AcDbEntity
  8
0
100
AcDbLine
 10
35.69505
 20
116.6945
 30
0.0
 11
37.02745
 21
115.4955
 31
0.0
  0
LINE
  5
227
330
1E
100
AcDbEntity
  8
0
100
AcDbLine
 10
32.70134999999999
 20
118.7305
 30
0.0
 11
34.24904999999999
 21
117.7775
 31
0.0
  0
LINE
  5
228
330
1E
100
AcDbEntity
  8
0
100
AcDbLine
 10
33.58565
 20
26.7477
 30
0.0
 11
37.15285
 21
27.1361
 31
0.0
  0
ENDSEC
  0
SECTION
  2
OBJECTS
  0
DICTIONARY
  5
C
330
0
100
AcDbDictionary
281
     1
  3
ACAD_GROUP
350
D
  3
ACAD_LAYOUT
350
19
  3
ACAD_MLINESTYLE
350
16
  3
ACAD_PLOTSETTINGS
350
18
  3
ACAD_PLOTSTYLENAME
350
E
  3
AcDbVariableDictionary
350
22E
  0
DICTIONARY
  5
D
102
{ACAD_REACTORS
330
C
102
}
330
C
100
AcDbDictionary
281
     1
  0
DICTIONARY
  5
19
102
{ACAD_REACTORS
330
C
102
}
330
C
100
AcDbDictionary
281
     1
  3
Layout1
350
1D
  3
Model
350
21
  0
DICTIONARY
  5
16
102
{ACAD_REACTORS
330
C
102
}
330
C
100
AcDbDictionary
281
     1
  3
Standard
350
17
  0
DICTIONARY
  5
18
102
{ACAD_REACTORS
330
C
102
}
330
C
100
AcDbDictionary
281
     1
  0
ACDBDICTIONARYWDFLT
  5
E
102
{ACAD_REACTORS
330
C
102
}
330
C
100
AcDbDictionary
281
     1
  3
Normal
350
F
100
AcDbDictionaryWithDefault
340
F
  0
DICTIONARY
  5
22E
102
{ACAD_REACTORS
330
C
102
}
330
C
100
AcDbDictionary
281
     1
  3
DIMASSOC
350
22F
  0
LAYOUT
  5
1D
102
{ACAD_REACTORS
330
19
102
}
330
19
100
AcDbPlotSettings
  1

  2
C:\Programme\AutoCAD LT 2002 Deu\plotters\DWF ePlot (optimized for plotting).pc3
  4

  6

 40
0.0
 41
0.0
 42
0.0
 43
0.0
 44
0.0
 45
0.0
 46
0.0
 47
0.0
 48
0.0
 49
0.0
140
0.0
141
0.0
142
1.0
143
1.0
 70
   688
 72
     0
 73
     0
 74
     5
  7

 75
    16
147
1.0
148
0.0
149
0.0
100
AcDbLayout
  1
Layout1
 70
     1
 71
     1
 10
0.0
 20
0.0
 11
12.0
 21
9.0
 12
0.0
 22
0.0
 32
0.0
 14
1.000000000000000E+20
 24
1.000000000000000E+20
 34
1.000000000000000E+20
 15
-1.000000000000000E+20
 25
-1.000000000000000E+20
 35
-1.000000000000000E+20
146
0.0
 13
0.0
 23
0.0
 33
0.0
 16
1.0
 26
0.0
 36
0.0
 17
0.0
 27
1.0
 37
0.0
 76
     0
330
1A
  0
LAYOUT
  5
21
102
{ACAD_REACTORS
330
19
102
}
330
19
100
AcDbPlotSettings
  1

  2
C:\Programme\AutoCAD LT 2002 Deu\plotters\DWF ePlot (optimized for plotting).pc3
  4

  6

 40
0.0
 41
0.0
 42
0.0
 43
0.0
 44
0.0
 45
0.0
 46
0.0
 47
0.0
 48
0.0
 49
0.0
140
0.0
141
0.0
142
1.0
143
1.0
 70
  1712
 72
     0
 73
     0
 74
     0
  7

 75
     0
147
1.0
148
0.0
149
0.0
100
AcDbLayout
  1
Model
 70
     1
 71
     0
 10
0.0
 20
0.0
 11
12.0
 21
9.0
 12
0.0
 22
0.0
 32
0.0
 14
0.0
 24
0.0
 34
0.0
 15
0.0
 25
0.0
 35
0.0
146
0.0
 13
0.0
 23
0.0
 33
0.0
 16
1.0
 26
0.0
 36
0.0
 17
0.0
 27
1.0
 37
0.0
 76
     0
330
1E
  0
MLINESTYLE
  5
17
102
{ACAD_REACTORS
330
16
102
}
330
16
100
AcDbMlineStyle
  2
STANDARD
 70
     0
  3

 62
   256
 51
90.0
 52
90.0
 71
     2
 49
0.5
 62
   256
  6
BYLAYER
 49
-0.5
 62
   256
  6
BYLAYER
  0
ACDBPLACEHOLDER
  5
F
102
{ACAD_REACTORS
330
E
102
}
330
E
  0
DICTIONARYVAR
  5
22F
102
{ACAD_REACTORS
330
22E
102
}
330
22E
100
DictionaryVariables
280
     0
  1
1
  0
ENDSEC
  0
EOF
