999
Erzeugt mit innoplus bad 
0
SECTION
2
HEADER
9
$ACADVER
1
AC1009
9
$DWGCODEPAGE
3
ISO8859-1
0
ENDSEC
0
SECTION
2
TABLES
0
TABLE
2
LAYER
70
1
0
LAYER
2
0
70
0
62
7
6
CONTINUOUS
0
ENDTAB
0
ENDSEC
0
SECTION
2
ENTITIES
0
LINE
8
0
6
CONTINUOUS
10
0.092500
20
0.031079
30
0.0
11
0.093720
21
0.033192
31
0.0
0
LINE
8
0
6
CONTINUOUS
10
0.093720
20
0.033192
30
0.0
11
0.093681
21
0.034125
31
0.0
0
LINE
8
0
6
CONTINUOUS
10
0.093681
20
0.034125
30
0.0
11
0.092500
21
0.036170
31
0.0
0
LINE
8
0
6
CONTINUOUS
10
0.076423
20
0.067659
30
0.0
11
0.068850
21
0.066806
31
0.0
0
LINE
8
0
6
CONTINUOUS
10
0.068850
20
0.066806
30
0.0
11
0.061656
21
0.064288
31
0.0
0
LINE
8
0
6
CONTINUOUS
10
0.061656
20
0.064288
30
0.0
11
0.055203
21
0.060234
31
0.0
0
LINE
8
0
6
CONTINUOUS
10
0.055203
20
0.060234
30
0.0
11
0.049814
21
0.054845
31
0.0
0
LINE
8
0
6
CONTINUOUS
10
0.049814
20
0.054845
30
0.0
11
0.049048
21
0.053625
31
0.0
0
LINE
8
0
6
CONTINUOUS
10
0.049048
20
0.013625
30
0.0
11
0.049814
21
0.012405
31
0.0
0
LINE
8
0
6
CONTINUOUS
10
0.049814
20
0.012405
30
0.0
11
0.055203
21
0.007016
31
0.0
0
LINE
8
0
6
CONTINUOUS
10
0.055203
20
0.007016
30
0.0
11
0.061656
21
0.002961
31
0.0
0
LINE
8
0
6
CONTINUOUS
10
0.061656
20
0.002961
30
0.0
11
0.068850
21
0.000444
31
0.0
0
LINE
8
0
6
CONTINUOUS
10
0.068850
20
0.000444
30
0.0
11
0.076423
21
-0.000410
31
0.0
0
LINE
8
0
6
CONTINUOUS
10
0.076423
20
-0.000410
30
0.0
11
0.083996
21
0.000444
31
0.0
0
LINE
8
0
6
CONTINUOUS
10
0.083996
20
0.000444
30
0.0
11
0.091190
21
0.002961
31
0.0
0
LINE
8
0
6
CONTINUOUS
10
0.091190
20
0.002961
30
0.0
11
0.097643
21
0.007016
31
0.0
0
LINE
8
0
6
CONTINUOUS
10
0.097643
20
0.007016
30
0.0
11
0.103032
21
0.012405
31
0.0
0
LINE
8
0
6
CONTINUOUS
10
0.103032
20
0.012405
30
0.0
11
0.107087
21
0.018858
31
0.0
0
LINE
8
0
6
CONTINUOUS
10
0.107087
20
0.018858
30
0.0
11
0.109604
21
0.026051
31
0.0
0
LINE
8
0
6
CONTINUOUS
10
0.109604
20
0.026051
30
0.0
11
0.110457
21
0.033625
31
0.0
0
LINE
8
0
6
CONTINUOUS
10
0.110457
20
0.033625
30
0.0
11
0.109604
21
0.041198
31
0.0
0
LINE
8
0
6
CONTINUOUS
10
0.109604
20
0.041198
30
0.0
11
0.107087
21
0.048392
31
0.0
0
LINE
8
0
6
CONTINUOUS
10
0.107087
20
0.048392
30
0.0
11
0.103032
21
0.054845
31
0.0
0
LINE
8
0
6
CONTINUOUS
10
0.103032
20
0.054845
30
0.0
11
0.097643
21
0.060234
31
0.0
0
LINE
8
0
6
CONTINUOUS
10
0.097643
20
0.060234
30
0.0
11
0.091190
21
0.064288
31
0.0
0
LINE
8
0
6
CONTINUOUS
10
0.091190
20
0.064288
30
0.0
11
0.083996
21
0.066806
31
0.0
0
LINE
8
0
6
CONTINUOUS
10
0.083996
20
0.066806
30
0.0
11
0.076423
21
0.067659
31
0.0
0
LINE
8
0
6
CONTINUOUS
10
-0.092500
20
0.034276
30
0.0
11
-0.092626
21
0.034058
31
0.0
0
LINE
8
0
6
CONTINUOUS
10
-0.092588
20
0.033125
30
0.0
11
-0.092500
21
0.032973
31
0.0
0
LINE
8
0
6
CONTINUOUS
10
-0.092626
20
0.034058
30
0.0
11
-0.092588
21
0.033125
31
0.0
0
LINE
8
0
6
CONTINUOUS
10
-0.076423
20
0.067659
30
0.0
11
-0.083996
21
0.066806
31
0.0
0
LINE
8
0
6
CONTINUOUS
10
-0.083996
20
0.066806
30
0.0
11
-0.091190
21
0.064288
31
0.0
0
LINE
8
0
6
CONTINUOUS
10
-0.091190
20
0.064288
30
0.0
11
-0.097643
21
0.060234
31
0.0
0
LINE
8
0
6
CONTINUOUS
10
-0.097643
20
0.060234
30
0.0
11
-0.103032
21
0.054845
31
0.0
0
LINE
8
0
6
CONTINUOUS
10
-0.103032
20
0.054845
30
0.0
11
-0.107087
21
0.048392
31
0.0
0
LINE
8
0
6
CONTINUOUS
10
-0.107087
20
0.048392
30
0.0
11
-0.109604
21
0.041198
31
0.0
0
LINE
8
0
6
CONTINUOUS
10
-0.109604
20
0.041198
30
0.0
11
-0.110457
21
0.033625
31
0.0
0
LINE
8
0
6
CONTINUOUS
10
-0.110457
20
0.033625
30
0.0
11
-0.109604
21
0.026051
31
0.0
0
LINE
8
0
6
CONTINUOUS
10
-0.109604
20
0.026051
30
0.0
11
-0.107087
21
0.018858
31
0.0
0
LINE
8
0
6
CONTINUOUS
10
-0.107087
20
0.018858
30
0.0
11
-0.103032
21
0.012405
31
0.0
0
LINE
8
0
6
CONTINUOUS
10
-0.103032
20
0.012405
30
0.0
11
-0.097643
21
0.007016
31
0.0
0
LINE
8
0
6
CONTINUOUS
10
-0.097643
20
0.007016
30
0.0
11
-0.091190
21
0.002961
31
0.0
0
LINE
8
0
6
CONTINUOUS
10
-0.091190
20
0.002961
30
0.0
11
-0.083996
21
0.000444
31
0.0
0
LINE
8
0
6
CONTINUOUS
10
-0.083996
20
0.000444
30
0.0
11
-0.076423
21
-0.000410
31
0.0
0
LINE
8
0
6
CONTINUOUS
10
-0.076423
20
-0.000410
30
0.0
11
-0.068850
21
0.000444
31
0.0
0
LINE
8
0
6
CONTINUOUS
10
-0.068850
20
0.000444
30
0.0
11
-0.061656
21
0.002961
31
0.0
0
LINE
8
0
6
CONTINUOUS
10
-0.061656
20
0.002961
30
0.0
11
-0.055203
21
0.007016
31
0.0
0
LINE
8
0
6
CONTINUOUS
10
-0.055203
20
0.007016
30
0.0
11
-0.049814
21
0.012405
31
0.0
0
LINE
8
0
6
CONTINUOUS
10
-0.049814
20
0.012405
30
0.0
11
-0.049048
21
0.013625
31
0.0
0
LINE
8
0
6
CONTINUOUS
10
-0.049048
20
0.053625
30
0.0
11
-0.049814
21
0.054845
31
0.0
0
LINE
8
0
6
CONTINUOUS
10
-0.049814
20
0.054845
30
0.0
11
-0.055203
21
0.060234
31
0.0
0
LINE
8
0
6
CONTINUOUS
10
-0.055203
20
0.060234
30
0.0
11
-0.061656
21
0.064288
31
0.0
0
LINE
8
0
6
CONTINUOUS
10
-0.061656
20
0.064288
30
0.0
11
-0.068850
21
0.066806
31
0.0
0
LINE
8
0
6
CONTINUOUS
10
-0.068850
20
0.066806
30
0.0
11
-0.076423
21
0.067659
31
0.0
0
LINE
8
0
6
CONTINUOUS
10
-0.022500
20
0.095507
30
0.0
11
-0.022500
21
0.092521
31
0.0
0
LINE
8
0
6
CONTINUOUS
10
-0.022500
20
0.092521
30
0.0
11
-0.022500
21
0.089515
31
0.0
0
LINE
8
0
6
CONTINUOUS
10
-0.022500
20
0.098473
30
0.0
11
-0.022500
21
0.095507
31
0.0
0
LINE
8
0
6
CONTINUOUS
10
-0.022500
20
0.089515
30
0.0
11
-0.022500
21
0.086487
31
0.0
0
LINE
8
0
6
CONTINUOUS
10
-0.022500
20
0.086487
30
0.0
11
-0.022500
21
0.082028
31
0.0
0
LINE
8
0
6
CONTINUOUS
10
-0.005944
20
0.091114
30
0.0
11
-0.005720
21
0.091186
31
0.0
0
LINE
8
0
6
CONTINUOUS
10
-0.005365
20
0.093096
30
0.0
11
-0.005632
21
0.093152
31
0.0
0
LINE
8
0
6
CONTINUOUS
10
-0.005281
20
0.092742
30
0.0
11
-0.005365
21
0.093096
31
0.0
0
LINE
8
0
6
CONTINUOUS
10
-0.005204
20
0.089339
30
0.0
11
-0.005080
21
0.089074
31
0.0
0
LINE
8
0
6
CONTINUOUS
10
-0.005599
20
0.090875
30
0.0
11
-0.005720
21
0.091186
31
0.0
0
LINE
8
0
6
CONTINUOUS
10
-0.006001
20
0.080952
30
0.0
11
-0.005099
21
0.082016
31
0.0
0
LINE
8
0
6
CONTINUOUS
10
-0.006212
20
0.090933
30
0.0
11
-0.005944
21
0.091114
31
0.0
0
LINE
8
0
6
CONTINUOUS
10
-0.005632
20
0.093152
30
0.0
11
-0.005977
21
0.093105
31
0.0
0
LINE
8
0
6
CONTINUOUS
10
-0.003936
20
0.083500
30
0.0
11
-0.005099
21
0.082016
31
0.0
0
LINE
8
0
6
CONTINUOUS
10
-0.006212
20
0.090933
30
0.0
11
-0.006911
21
0.090588
31
0.0
0
LINE
8
0
6
CONTINUOUS
10
-0.003936
20
0.083500
30
0.0
11
-0.002872
21
0.085141
31
0.0
0
LINE
8
0
6
CONTINUOUS
10
-0.005080
20
0.089074
30
0.0
11
-0.003311
21
0.085297
31
0.0
0
LINE
8
0
6
CONTINUOUS
10
-0.021690
20
0.103327
30
0.0
11
-0.022500
21
0.101590
31
0.0
0
LINE
8
0
6
CONTINUOUS
10
-0.022500
20
0.101590
30
0.0
11
-0.022500
21
0.100521
31
0.0
0
LINE
8
0
6
CONTINUOUS
10
-0.021690
20
0.099851
30
0.0
11
-0.022500
21
0.101590
31
0.0
0
LINE
8
0
6
CONTINUOUS
10
-0.011160
20
0.107472
30
0.0
11
-0.015930
21
0.106390
31
0.0
0
LINE
8
0
6
CONTINUOUS
10
-0.005760
20
0.108121
30
0.0
11
-0.011160
21
0.107472
31
0.0
0
LINE
8
0
6
CONTINUOUS
10
0.000000
20
0.108364
30
0.0
11
-0.005760
21
0.108121
31
0.0
0
LINE
8
0
6
CONTINUOUS
10
-0.015930
20
0.106390
30
0.0
11
-0.019530
21
0.104954
31
0.0
0
LINE
8
0
6
CONTINUOUS
10
-0.019530
20
0.098218
30
0.0
11
-0.015930
21
0.096775
31
0.0
0
LINE
8
0
6
CONTINUOUS
10
-0.021690
20
0.099851
30
0.0
11
-0.019530
21
0.098218
31
0.0
0
LINE
8
0
6
CONTINUOUS
10
-0.015930
20
0.096775
30
0.0
11
-0.011160
21
0.095684
31
0.0
0
LINE
8
0
6
CONTINUOUS
10
-0.019530
20
0.104954
30
0.0
11
-0.021690
21
0.103327
31
0.0
0
LINE
8
0
6
CONTINUOUS
10
-0.004575
20
0.094862
30
0.0
11
-0.004265
21
0.094707
31
0.0
0
LINE
8
0
6
CONTINUOUS
10
-0.007116
20
0.095248
30
0.0
11
-0.008125
21
0.095232
31
0.0
0
LINE
8
0
6
CONTINUOUS
10
-0.008125
20
0.095232
30
0.0
11
-0.011160
21
0.095684
31
0.0
0
LINE
8
0
6
CONTINUOUS
10
-0.005888
20
0.095097
30
0.0
11
-0.007116
21
0.095248
31
0.0
0
LINE
8
0
6
CONTINUOUS
10
-0.004968
20
0.094943
30
0.0
11
-0.005888
21
0.095097
31
0.0
0
LINE
8
0
6
CONTINUOUS
10
-0.007333
20
0.094618
30
0.0
11
-0.007782
21
0.092842
31
0.0
0
LINE
8
0
6
CONTINUOUS
10
-0.004968
20
0.094943
30
0.0
11
-0.004575
21
0.094862
31
0.0
0
LINE
8
0
6
CONTINUOUS
10
-0.004713
20
0.093621
30
0.0
11
-0.004075
21
0.087698
31
0.0
0
LINE
8
0
6
CONTINUOUS
10
-0.004713
20
0.093621
30
0.0
11
-0.003871
21
0.088944
31
0.0
0
LINE
8
0
6
CONTINUOUS
10
-0.022500
20
0.100521
30
0.0
11
-0.022500
21
0.098473
31
0.0
0
LINE
8
0
6
CONTINUOUS
10
-0.022500
20
0.082028
30
0.0
11
-0.022500
21
0.071410
31
0.0
0
LINE
8
0
6
CONTINUOUS
10
0.022500
20
0.092521
30
0.0
11
0.022500
21
0.095507
31
0.0
0
LINE
8
0
6
CONTINUOUS
10
0.022500
20
0.089515
30
0.0
11
0.022500
21
0.092521
31
0.0
0
LINE
8
0
6
CONTINUOUS
10
0.022500
20
0.095507
30
0.0
11
0.022500
21
0.098473
31
0.0
0
LINE
8
0
6
CONTINUOUS
10
0.000000
20
0.097873
30
0.0
11
0.000000
21
0.097100
31
0.0
0
LINE
8
0
6
CONTINUOUS
10
0.022500
20
0.086487
30
0.0
11
0.022500
21
0.089515
31
0.0
0
LINE
8
0
6
CONTINUOUS
10
0.022500
20
0.082028
30
0.0
11
0.022500
21
0.086487
31
0.0
0
LINE
8
0
6
CONTINUOUS
10
0.005632
20
0.093152
30
0.0
11
0.005365
21
0.093096
31
0.0
0
LINE
8
0
6
CONTINUOUS
10
0.005720
20
0.091186
30
0.0
11
0.005944
21
0.091114
31
0.0
0
LINE
8
0
6
CONTINUOUS
10
0.000000
20
0.097100
30
0.0
11
0.000000
21
0.096645
31
0.0
0
LINE
8
0
6
CONTINUOUS
10
0.005720
20
0.091186
30
0.0
11
0.005599
21
0.090875
31
0.0
0
LINE
8
0
6
CONTINUOUS
10
0.005080
20
0.089074
30
0.0
11
0.005204
21
0.089339
31
0.0
0
LINE
8
0
6
CONTINUOUS
10
0.005281
20
0.092742
30
0.0
11
0.003871
21
0.088944
31
0.0
0
LINE
8
0
6
CONTINUOUS
10
0.005099
20
0.082016
30
0.0
11
0.006001
21
0.080952
31
0.0
0
LINE
8
0
6
CONTINUOUS
10
0.005977
20
0.093105
30
0.0
11
0.005632
21
0.093152
31
0.0
0
LINE
8
0
6
CONTINUOUS
10
0.005944
20
0.091114
30
0.0
11
0.006212
21
0.090933
31
0.0
0
LINE
8
0
6
CONTINUOUS
10
0.005099
20
0.082016
30
0.0
11
0.003936
21
0.083500
31
0.0
0
LINE
8
0
6
CONTINUOUS
10
0.000000
20
0.098653
30
0.0
11
0.000000
21
0.097873
31
0.0
0
LINE
8
0
6
CONTINUOUS
10
0.006911
20
0.090588
30
0.0
11
0.006212
21
0.090933
31
0.0
0
LINE
8
0
6
CONTINUOUS
10
0.002872
20
0.085141
30
0.0
11
0.003936
21
0.083500
31
0.0
0
LINE
8
0
6
CONTINUOUS
10
0.004201
20
0.094403
30
0.0
11
0.004265
21
0.094707
31
0.0
0
LINE
8
0
6
CONTINUOUS
10
-0.005599
20
0.090875
30
0.0
11
-0.003886
21
0.086437
31
0.0
0
LINE
8
0
6
CONTINUOUS
10
-0.004075
20
0.087698
30
0.0
11
-0.005281
21
0.092742
31
0.0
0
LINE
8
0
6
CONTINUOUS
10
0.022500
20
0.101590
30
0.0
11
0.021690
21
0.103327
31
0.0
0
LINE
8
0
6
CONTINUOUS
10
0.022500
20
0.101590
30
0.0
11
0.021690
21
0.099851
31
0.0
0
LINE
8
0
6
CONTINUOUS
10
0.022500
20
0.100521
30
0.0
11
0.022500
21
0.101590
31
0.0
0
LINE
8
0
6
CONTINUOUS
10
0.015930
20
0.106390
30
0.0
11
0.011160
21
0.107472
31
0.0
0
LINE
8
0
6
CONTINUOUS
10
0.011160
20
0.107472
30
0.0
11
0.005760
21
0.108121
31
0.0
0
LINE
8
0
6
CONTINUOUS
10
0.005760
20
0.108121
30
0.0
11
0.000000
21
0.108364
31
0.0
0
LINE
8
0
6
CONTINUOUS
10
0.019530
20
0.104954
30
0.0
11
0.015930
21
0.106390
31
0.0
0
LINE
8
0
6
CONTINUOUS
10
0.015930
20
0.096775
30
0.0
11
0.019530
21
0.098218
31
0.0
0
LINE
8
0
6
CONTINUOUS
10
0.019530
20
0.098218
30
0.0
11
0.021690
21
0.099851
31
0.0
0
LINE
8
0
6
CONTINUOUS
10
0.011160
20
0.095684
30
0.0
11
0.015930
21
0.096775
31
0.0
0
LINE
8
0
6
CONTINUOUS
10
0.021690
20
0.103327
30
0.0
11
0.019530
21
0.104954
31
0.0
0
LINE
8
0
6
CONTINUOUS
10
0.003886
20
0.086437
30
0.0
11
0.005080
21
0.089074
31
0.0
0
LINE
8
0
6
CONTINUOUS
10
0.004265
20
0.094707
30
0.0
11
0.004575
21
0.094862
31
0.0
0
LINE
8
0
6
CONTINUOUS
10
0.008125
20
0.095232
30
0.0
11
0.007116
21
0.095248
31
0.0
0
LINE
8
0
6
CONTINUOUS
10
0.011160
20
0.095684
30
0.0
11
0.008125
21
0.095232
31
0.0
0
LINE
8
0
6
CONTINUOUS
10
0.007116
20
0.095248
30
0.0
11
0.005888
21
0.095097
31
0.0
0
LINE
8
0
6
CONTINUOUS
10
0.005888
20
0.095097
30
0.0
11
0.004968
21
0.094943
31
0.0
0
LINE
8
0
6
CONTINUOUS
10
0.007782
20
0.092842
30
0.0
11
0.007333
21
0.094618
31
0.0
0
LINE
8
0
6
CONTINUOUS
10
0.004575
20
0.094862
30
0.0
11
0.004968
21
0.094943
31
0.0
0
LINE
8
0
6
CONTINUOUS
10
-0.004265
20
0.094707
30
0.0
11
-0.004201
21
0.094403
31
0.0
0
LINE
8
0
6
CONTINUOUS
10
0.022500
20
0.098473
30
0.0
11
0.022500
21
0.100521
31
0.0
0
LINE
8
0
6
CONTINUOUS
10
0.022500
20
0.071410
30
0.0
11
0.022500
21
0.082028
31
0.0
0
LINE
8
0
6
CONTINUOUS
10
-0.001254
20
0.091478
30
0.0
11
0.000000
21
0.091676
31
0.0
0
LINE
8
0
6
CONTINUOUS
10
-0.003886
20
0.086437
30
0.0
11
-0.003860
21
0.086376
31
0.0
0
LINE
8
0
6
CONTINUOUS
10
-0.003860
20
0.086376
30
0.0
11
-0.004059
21
0.087627
31
0.0
0
LINE
8
0
6
CONTINUOUS
10
-0.003860
20
0.086376
30
0.0
11
-0.003284
21
0.085247
31
0.0
0
LINE
8
0
6
CONTINUOUS
10
-0.003284
20
0.085247
30
0.0
11
-0.002386
21
0.084351
31
0.0
0
LINE
8
0
6
CONTINUOUS
10
-0.002386
20
0.084351
30
0.0
11
-0.001254
21
0.083776
31
0.0
0
LINE
8
0
6
CONTINUOUS
10
-0.001254
20
0.083776
30
0.0
11
0.000000
21
0.083577
31
0.0
0
LINE
8
0
6
CONTINUOUS
10
-0.003860
20
0.088878
30
0.0
11
-0.003284
21
0.090007
31
0.0
0
LINE
8
0
6
CONTINUOUS
10
-0.003284
20
0.090007
30
0.0
11
-0.002386
21
0.090903
31
0.0
0
LINE
8
0
6
CONTINUOUS
10
-0.002386
20
0.090903
30
0.0
11
-0.001254
21
0.091478
31
0.0
0
LINE
8
0
6
CONTINUOUS
10
-0.004059
20
0.087627
30
0.0
11
-0.003860
21
0.088878
31
0.0
0
LINE
8
0
6
CONTINUOUS
10
0.001254
20
0.091478
30
0.0
11
0.000000
21
0.091676
31
0.0
0
LINE
8
0
6
CONTINUOUS
10
0.003860
20
0.086376
30
0.0
11
0.003886
21
0.086437
31
0.0
0
LINE
8
0
6
CONTINUOUS
10
0.003860
20
0.086376
30
0.0
11
0.004059
21
0.087627
31
0.0
0
LINE
8
0
6
CONTINUOUS
10
0.003284
20
0.085247
30
0.0
11
0.003860
21
0.086376
31
0.0
0
LINE
8
0
6
CONTINUOUS
10
0.002386
20
0.084351
30
0.0
11
0.003284
21
0.085247
31
0.0
0
LINE
8
0
6
CONTINUOUS
10
0.001254
20
0.083776
30
0.0
11
0.002386
21
0.084351
31
0.0
0
LINE
8
0
6
CONTINUOUS
10
0.000000
20
0.083577
30
0.0
11
0.001254
21
0.083776
31
0.0
0
LINE
8
0
6
CONTINUOUS
10
0.003860
20
0.088878
30
0.0
11
0.003284
21
0.090007
31
0.0
0
LINE
8
0
6
CONTINUOUS
10
0.003284
20
0.090007
30
0.0
11
0.002386
21
0.090903
31
0.0
0
LINE
8
0
6
CONTINUOUS
10
0.002386
20
0.090903
30
0.0
11
0.001254
21
0.091478
31
0.0
0
LINE
8
0
6
CONTINUOUS
10
0.004059
20
0.087627
30
0.0
11
0.003860
21
0.088878
31
0.0
0
LINE
8
0
6
CONTINUOUS
10
0.000000
20
0.096323
30
0.0
11
0.000000
21
0.096645
31
0.0
0
LINE
8
0
6
CONTINUOUS
10
-0.019530
20
0.066949
30
0.0
11
-0.015930
21
0.065246
31
0.0
0
LINE
8
0
6
CONTINUOUS
10
-0.021690
20
0.068876
30
0.0
11
-0.019530
21
0.066949
31
0.0
0
LINE
8
0
6
CONTINUOUS
10
-0.022500
20
0.071410
30
0.0
11
-0.022500
21
0.070932
31
0.0
0
LINE
8
0
6
CONTINUOUS
10
-0.022500
20
0.070932
30
0.0
11
-0.021690
21
0.068876
31
0.0
0
LINE
8
0
6
CONTINUOUS
10
-0.015930
20
0.065246
30
0.0
11
-0.011160
21
0.063961
31
0.0
0
LINE
8
0
6
CONTINUOUS
10
-0.011160
20
0.063961
30
0.0
11
-0.005760
21
0.063190
31
0.0
0
LINE
8
0
6
CONTINUOUS
10
-0.005760
20
0.063190
30
0.0
11
0.000000
21
0.062901
31
0.0
0
LINE
8
0
6
CONTINUOUS
10
0.015930
20
0.065246
30
0.0
11
0.019530
21
0.066949
31
0.0
0
LINE
8
0
6
CONTINUOUS
10
0.019530
20
0.066949
30
0.0
11
0.021690
21
0.068876
31
0.0
0
LINE
8
0
6
CONTINUOUS
10
0.021690
20
0.068876
30
0.0
11
0.022500
21
0.070932
31
0.0
0
LINE
8
0
6
CONTINUOUS
10
0.022500
20
0.070932
30
0.0
11
0.022500
21
0.071410
31
0.0
0
LINE
8
0
6
CONTINUOUS
10
0.011160
20
0.063961
30
0.0
11
0.015930
21
0.065246
31
0.0
0
LINE
8
0
6
CONTINUOUS
10
0.005760
20
0.063190
30
0.0
11
0.011160
21
0.063961
31
0.0
0
LINE
8
0
6
CONTINUOUS
10
0.000000
20
0.062901
30
0.0
11
0.005760
21
0.063190
31
0.0
0
LINE
8
0
6
CONTINUOUS
10
-0.000110
20
-0.020902
30
0.0
11
0.004229
21
-0.020589
31
0.0
0
LINE
8
0
6
CONTINUOUS
10
-0.010584
20
-0.018361
30
0.0
11
-0.008126
21
-0.019697
31
0.0
0
LINE
8
0
6
CONTINUOUS
10
0.004229
20
-0.020589
30
0.0
11
0.007907
21
-0.019697
31
0.0
0
LINE
8
0
6
CONTINUOUS
10
0.007907
20
-0.019697
30
0.0
11
0.010364
21
-0.018361
31
0.0
0
LINE
8
0
6
CONTINUOUS
10
-0.008126
20
-0.019697
30
0.0
11
-0.004448
21
-0.020589
31
0.0
0
LINE
8
0
6
CONTINUOUS
10
-0.004448
20
-0.020589
30
0.0
11
-0.000110
21
-0.020902
31
0.0
0
LINE
8
0
6
CONTINUOUS
10
-0.007318
20
-0.108364
30
0.0
11
-0.006575
21
-0.108103
31
0.0
0
LINE
8
0
6
CONTINUOUS
10
0.007115
20
-0.097833
30
0.0
11
0.007371
21
-0.096954
31
0.0
0
LINE
8
0
6
CONTINUOUS
10
0.007371
20
-0.096954
30
0.0
11
0.007365
21
-0.047390
31
0.0
0
LINE
8
0
6
CONTINUOUS
10
-0.007568
20
-0.107982
30
0.0
11
-0.007318
21
-0.108364
31
0.0
0
LINE
8
0
6
CONTINUOUS
10
-0.007583
20
-0.047391
30
0.0
11
-0.007568
21
-0.107982
31
0.0
0
LINE
8
0
6
CONTINUOUS
10
0.001824
20
-0.102866
30
0.0
11
0.003628
21
-0.101609
31
0.0
0
LINE
8
0
6
CONTINUOUS
10
-0.005391
20
-0.107359
30
0.0
11
-0.003846
21
-0.106338
31
0.0
0
LINE
8
0
6
CONTINUOUS
10
0.006366
20
-0.098988
30
0.0
11
0.007115
21
-0.097833
31
0.0
0
LINE
8
0
6
CONTINUOUS
10
0.003628
20
-0.101609
30
0.0
11
0.005177
21
-0.100291
31
0.0
0
LINE
8
0
6
CONTINUOUS
10
-0.003846
20
-0.106338
30
0.0
11
-0.002045
21
-0.105212
31
0.0
0
LINE
8
0
6
CONTINUOUS
10
-0.006575
20
-0.108103
30
0.0
11
-0.005391
21
-0.107359
31
0.0
0
LINE
8
0
6
CONTINUOUS
10
-0.000111
20
-0.104056
30
0.0
11
0.001824
21
-0.102866
31
0.0
0
LINE
8
0
6
CONTINUOUS
10
0.005177
20
-0.100291
30
0.0
11
0.006366
21
-0.098988
31
0.0
0
LINE
8
0
6
CONTINUOUS
10
-0.002045
20
-0.105212
30
0.0
11
-0.000111
21
-0.104056
31
0.0
0
LINE
8
0
6
CONTINUOUS
10
-0.000110
20
-0.048551
30
0.0
11
0.002590
21
-0.048406
31
0.0
0
LINE
8
0
6
CONTINUOUS
10
0.002590
20
-0.048406
30
0.0
11
0.005090
21
-0.048043
31
0.0
0
LINE
8
0
6
CONTINUOUS
10
0.008990
20
-0.046627
30
0.0
11
0.009990
21
-0.045719
31
0.0
0
LINE
8
0
6
CONTINUOUS
10
0.007290
20
-0.047426
30
0.0
11
0.008990
21
-0.046627
31
0.0
0
LINE
8
0
6
CONTINUOUS
10
0.005090
20
-0.048043
30
0.0
11
0.007290
21
-0.047426
31
0.0
0
LINE
8
0
6
CONTINUOUS
10
0.010390
20
-0.044739
30
0.0
11
0.010408
21
-0.044238
31
0.0
0
LINE
8
0
6
CONTINUOUS
10
0.009990
20
-0.045719
30
0.0
11
0.010390
21
-0.044739
31
0.0
0
LINE
8
0
6
CONTINUOUS
10
-0.002810
20
-0.048406
30
0.0
11
-0.000110
21
-0.048551
31
0.0
0
LINE
8
0
6
CONTINUOUS
10
-0.010628
20
-0.044238
30
0.0
11
-0.010610
21
-0.044739
31
0.0
0
LINE
8
0
6
CONTINUOUS
10
-0.010610
20
-0.044739
30
0.0
11
-0.010210
21
-0.045719
31
0.0
0
LINE
8
0
6
CONTINUOUS
10
-0.010210
20
-0.045719
30
0.0
11
-0.009210
21
-0.046627
31
0.0
0
LINE
8
0
6
CONTINUOUS
10
-0.009210
20
-0.046627
30
0.0
11
-0.007510
21
-0.047426
31
0.0
0
LINE
8
0
6
CONTINUOUS
10
-0.005310
20
-0.048043
30
0.0
11
-0.002810
21
-0.048406
31
0.0
0
LINE
8
0
6
CONTINUOUS
10
0.010408
20
-0.044238
30
0.0
11
0.011367
21
-0.017430
31
0.0
0
LINE
8
0
6
CONTINUOUS
10
-0.007510
20
-0.047426
30
0.0
11
-0.005310
21
-0.048043
31
0.0
0
LINE
8
0
6
CONTINUOUS
10
-0.011593
20
-0.017275
30
0.0
11
-0.010628
21
-0.044238
31
0.0
0
LINE
8
0
6
CONTINUOUS
10
-0.008210
20
-0.019727
30
0.0
11
-0.005810
21
-0.020417
31
0.0
0
LINE
8
0
6
CONTINUOUS
10
-0.005810
20
-0.020417
30
0.0
11
-0.003110
21
-0.020816
31
0.0
0
LINE
8
0
6
CONTINUOUS
10
0.009890
20
-0.018856
30
0.0
11
0.010990
21
-0.017875
31
0.0
0
LINE
8
0
6
CONTINUOUS
10
-0.003110
20
-0.020816
30
0.0
11
-0.000110
21
-0.020961
31
0.0
0
LINE
8
0
6
CONTINUOUS
10
-0.000110
20
-0.020961
30
0.0
11
0.002890
21
-0.020816
31
0.0
0
LINE
8
0
6
CONTINUOUS
10
0.007990
20
-0.019727
30
0.0
11
0.009890
21
-0.018856
31
0.0
0
LINE
8
0
6
CONTINUOUS
10
0.005590
20
-0.020417
30
0.0
11
0.007990
21
-0.019727
31
0.0
0
LINE
8
0
6
CONTINUOUS
10
0.002890
20
-0.020816
30
0.0
11
0.005590
21
-0.020417
31
0.0
0
LINE
8
0
6
CONTINUOUS
10
-0.010110
20
-0.018856
30
0.0
11
-0.008210
21
-0.019727
31
0.0
0
LINE
8
0
6
CONTINUOUS
10
-0.011210
20
-0.017875
30
0.0
11
-0.010110
21
-0.018856
31
0.0
0
LINE
8
0
6
CONTINUOUS
10
-0.003345
20
0.017338
30
0.0
11
-0.003345
21
0.019957
31
0.0
0
LINE
8
0
6
CONTINUOUS
10
-0.006231
20
0.022835
30
0.0
11
-0.006231
21
0.018413
31
0.0
0
LINE
8
0
6
CONTINUOUS
10
-0.005306
20
0.017742
30
0.0
11
-0.005306
21
0.020508
31
0.0
0
LINE
8
0
6
CONTINUOUS
10
-0.000735
20
0.019737
30
0.0
11
-0.000735
21
0.017403
31
0.0
0
LINE
8
0
6
CONTINUOUS
10
0.002005
20
0.017331
30
0.0
11
0.002005
21
0.019855
31
0.0
0
LINE
8
0
6
CONTINUOUS
10
0.004333
20
0.020269
30
0.0
11
0.004333
21
0.017516
31
0.0
0
LINE
8
0
6
CONTINUOUS
10
0.005789
20
0.018138
30
0.0
11
0.005789
21
0.020687
31
0.0
0
LINE
8
0
6
CONTINUOUS
10
0.008253
20
0.032484
30
0.0
11
0.008253
21
0.037830
31
0.0
0
LINE
8
0
6
CONTINUOUS
10
-0.007598
20
0.030236
30
0.0
11
-0.007598
21
0.022099
31
0.0
0
LINE
8
0
6
CONTINUOUS
10
-0.006122
20
0.029415
30
0.0
11
-0.006122
21
0.020975
31
0.0
0
LINE
8
0
6
CONTINUOUS
10
0.007451
20
0.023323
30
0.0
11
0.007451
21
0.030236
31
0.0
0
LINE
8
0
6
CONTINUOUS
10
0.007437
20
0.022078
30
0.0
11
0.007437
21
0.030226
31
0.0
0
LINE
8
0
6
CONTINUOUS
10
0.003243
20
0.028699
30
0.0
11
0.003243
21
0.020184
31
0.0
0
LINE
8
0
6
CONTINUOUS
10
0.005935
20
0.020957
30
0.0
11
0.005935
21
0.029399
31
0.0
0
LINE
8
0
6
CONTINUOUS
10
-0.003448
20
0.028709
30
0.0
11
-0.003448
21
0.020194
31
0.0
0
LINE
8
0
6
CONTINUOUS
10
-0.000105
20
0.019912
30
0.0
11
-0.000105
21
0.028427
31
0.0
0
LINE
8
0
6
CONTINUOUS
10
0.008237
20
0.036451
30
0.0
11
0.008237
21
0.037076
31
0.0
0
LINE
8
0
6
CONTINUOUS
10
0.003596
20
0.034981
30
0.0
11
0.003596
21
0.034356
31
0.0
0
LINE
8
0
6
CONTINUOUS
10
0.006576
20
0.035211
30
0.0
11
0.006576
21
0.035836
31
0.0
0
LINE
8
0
6
CONTINUOUS
10
-0.000109
20
0.034054
30
0.0
11
-0.000109
21
0.034680
31
0.0
0
LINE
8
0
6
CONTINUOUS
10
-0.008401
20
0.037101
30
0.0
11
-0.008401
21
0.036475
31
0.0
0
LINE
8
0
6
CONTINUOUS
10
-0.006767
20
0.035856
30
0.0
11
-0.006767
21
0.035231
31
0.0
0
LINE
8
0
6
CONTINUOUS
10
-0.003808
20
0.034367
30
0.0
11
-0.003808
21
0.034992
31
0.0
0
LINE
8
0
6
CONTINUOUS
10
0.008238
20
0.031105
30
0.0
11
0.008237
21
0.036451
31
0.0
0
LINE
8
0
6
CONTINUOUS
10
0.003596
20
0.034356
30
0.0
11
0.003596
21
0.029010
31
0.0
0
LINE
8
0
6
CONTINUOUS
10
0.006576
20
0.029865
30
0.0
11
0.006576
21
0.035211
31
0.0
0
LINE
8
0
6
CONTINUOUS
10
-0.000109
20
0.028708
30
0.0
11
-0.000109
21
0.034054
31
0.0
0
LINE
8
0
6
CONTINUOUS
10
-0.008401
20
0.036475
30
0.0
11
-0.008401
21
0.031129
31
0.0
0
LINE
8
0
6
CONTINUOUS
10
-0.006767
20
0.035231
30
0.0
11
-0.006767
21
0.029885
31
0.0
0
LINE
8
0
6
CONTINUOUS
10
-0.003808
20
0.029020
30
0.0
11
-0.003808
21
0.034367
31
0.0
0
LINE
8
0
6
CONTINUOUS
10
-0.007598
20
0.021871
30
0.0
11
-0.006122
21
0.020747
31
0.0
0
LINE
8
0
6
CONTINUOUS
10
-0.007598
20
0.022099
30
0.0
11
-0.007598
21
0.021871
31
0.0
0
LINE
8
0
6
CONTINUOUS
10
-0.006122
20
0.020747
30
0.0
11
-0.003448
21
0.019966
31
0.0
0
LINE
8
0
6
CONTINUOUS
10
-0.006122
20
0.020975
30
0.0
11
-0.006122
21
0.020747
31
0.0
0
LINE
8
0
6
CONTINUOUS
10
0.007437
20
0.021849
30
0.0
11
0.007451
21
0.023095
31
0.0
0
LINE
8
0
6
CONTINUOUS
10
0.007451
20
0.023095
30
0.0
11
0.007451
21
0.023323
31
0.0
0
LINE
8
0
6
CONTINUOUS
10
-0.000105
20
0.019684
30
0.0
11
0.003243
21
0.019956
31
0.0
0
LINE
8
0
6
CONTINUOUS
10
0.005935
20
0.020729
30
0.0
11
0.007437
21
0.021849
31
0.0
0
LINE
8
0
6
CONTINUOUS
10
0.007437
20
0.021849
30
0.0
11
0.007437
21
0.022078
31
0.0
0
LINE
8
0
6
CONTINUOUS
10
0.003243
20
0.019956
30
0.0
11
0.005935
21
0.020729
31
0.0
0
LINE
8
0
6
CONTINUOUS
10
0.003243
20
0.020184
30
0.0
11
0.003243
21
0.019956
31
0.0
0
LINE
8
0
6
CONTINUOUS
10
0.005935
20
0.020729
30
0.0
11
0.005935
21
0.020957
31
0.0
0
LINE
8
0
6
CONTINUOUS
10
-0.003448
20
0.019966
30
0.0
11
-0.000105
21
0.019684
31
0.0
0
LINE
8
0
6
CONTINUOUS
10
-0.003448
20
0.020194
30
0.0
11
-0.003448
21
0.019966
31
0.0
0
LINE
8
0
6
CONTINUOUS
10
-0.000105
20
0.019684
30
0.0
11
-0.000105
21
0.019912
31
0.0
0
LINE
8
0
6
CONTINUOUS
10
0.008238
20
0.030824
30
0.0
11
0.008253
21
0.032202
31
0.0
0
LINE
8
0
6
CONTINUOUS
10
0.008253
20
0.032202
30
0.0
11
0.008253
21
0.032484
31
0.0
0
LINE
8
0
6
CONTINUOUS
10
-0.000109
20
0.028427
30
0.0
11
0.003596
21
0.028728
31
0.0
0
LINE
8
0
6
CONTINUOUS
10
0.006576
20
0.029583
30
0.0
11
0.008238
21
0.030824
31
0.0
0
LINE
8
0
6
CONTINUOUS
10
0.008238
20
0.030824
30
0.0
11
0.008238
21
0.031105
31
0.0
0
LINE
8
0
6
CONTINUOUS
10
0.003596
20
0.028728
30
0.0
11
0.006576
21
0.029583
31
0.0
0
LINE
8
0
6
CONTINUOUS
10
0.003596
20
0.029010
30
0.0
11
0.003596
21
0.028728
31
0.0
0
LINE
8
0
6
CONTINUOUS
10
0.006576
20
0.029583
30
0.0
11
0.006576
21
0.029865
31
0.0
0
LINE
8
0
6
CONTINUOUS
10
-0.003808
20
0.028739
30
0.0
11
-0.000109
21
0.028427
31
0.0
0
LINE
8
0
6
CONTINUOUS
10
-0.000109
20
0.028427
30
0.0
11
-0.000109
21
0.028708
31
0.0
0
LINE
8
0
6
CONTINUOUS
10
-0.008401
20
0.030848
30
0.0
11
-0.006767
21
0.029603
31
0.0
0
LINE
8
0
6
CONTINUOUS
10
-0.008401
20
0.031129
30
0.0
11
-0.008401
21
0.030848
31
0.0
0
LINE
8
0
6
CONTINUOUS
10
-0.006767
20
0.029603
30
0.0
11
-0.003808
21
0.028739
31
0.0
0
LINE
8
0
6
CONTINUOUS
10
-0.006767
20
0.029885
30
0.0
11
-0.006767
21
0.029603
31
0.0
0
LINE
8
0
6
CONTINUOUS
10
-0.003808
20
0.028739
30
0.0
11
-0.003808
21
0.029020
31
0.0
0
LINE
8
0
6
CONTINUOUS
10
-0.008385
20
0.038479
30
0.0
11
-0.008401
21
0.037101
31
0.0
0
LINE
8
0
6
CONTINUOUS
10
-0.000109
20
0.034680
30
0.0
11
0.003596
21
0.034981
31
0.0
0
LINE
8
0
6
CONTINUOUS
10
-0.006767
20
0.035856
30
0.0
11
-0.003808
21
0.034992
31
0.0
0
LINE
8
0
6
CONTINUOUS
10
0.008253
20
0.038455
30
0.0
11
0.006619
21
0.039700
31
0.0
0
LINE
8
0
6
CONTINUOUS
10
0.006576
20
0.035836
30
0.0
11
0.008237
21
0.037076
31
0.0
0
LINE
8
0
6
CONTINUOUS
10
-0.006724
20
0.039720
30
0.0
11
-0.008385
21
0.038479
31
0.0
0
LINE
8
0
6
CONTINUOUS
10
0.006619
20
0.039700
30
0.0
11
0.003660
21
0.040564
31
0.0
0
LINE
8
0
6
CONTINUOUS
10
-0.008401
20
0.037101
30
0.0
11
-0.006767
21
0.035856
31
0.0
0
LINE
8
0
6
CONTINUOUS
10
-0.003808
20
0.034992
30
0.0
11
-0.000109
21
0.034680
31
0.0
0
LINE
8
0
6
CONTINUOUS
10
0.003660
20
0.040564
30
0.0
11
-0.000039
21
0.040876
31
0.0
0
LINE
8
0
6
CONTINUOUS
10
-0.000039
20
0.040876
30
0.0
11
-0.003744
21
0.040575
31
0.0
0
LINE
8
0
6
CONTINUOUS
10
0.008237
20
0.037076
30
0.0
11
0.008253
21
0.038455
31
0.0
0
LINE
8
0
6
CONTINUOUS
10
-0.003744
20
0.040575
30
0.0
11
-0.006724
21
0.039720
31
0.0
0
LINE
8
0
6
CONTINUOUS
10
0.003596
20
0.034981
30
0.0
11
0.006576
21
0.035836
31
0.0
0
LINE
8
0
6
CONTINUOUS
10
0.022500
20
0.068531
30
0.0
11
0.022500
21
0.069465
31
0.0
0
LINE
8
0
6
CONTINUOUS
10
0.021399
20
0.066983
30
0.0
11
0.022500
21
0.069465
31
0.0
0
LINE
8
0
6
CONTINUOUS
10
0.006953
20
0.061827
30
0.0
11
0.000000
21
0.061434
31
0.0
0
LINE
8
0
6
CONTINUOUS
10
0.018203
20
0.064744
30
0.0
11
0.013225
21
0.062968
31
0.0
0
LINE
8
0
6
CONTINUOUS
10
0.021399
20
0.066983
30
0.0
11
0.018203
21
0.064744
31
0.0
0
LINE
8
0
6
CONTINUOUS
10
0.013225
20
0.062968
30
0.0
11
0.006953
21
0.061827
31
0.0
0
LINE
8
0
6
CONTINUOUS
10
-0.022500
20
0.069465
30
0.0
11
-0.022500
21
0.068531
31
0.0
0
LINE
8
0
6
CONTINUOUS
10
-0.021399
20
0.066983
30
0.0
11
-0.022500
21
0.069465
31
0.0
0
LINE
8
0
6
CONTINUOUS
10
-0.006953
20
0.061827
30
0.0
11
0.000000
21
0.061434
31
0.0
0
LINE
8
0
6
CONTINUOUS
10
-0.018203
20
0.064744
30
0.0
11
-0.013225
21
0.062968
31
0.0
0
LINE
8
0
6
CONTINUOUS
10
-0.021399
20
0.066983
30
0.0
11
-0.018203
21
0.064744
31
0.0
0
LINE
8
0
6
CONTINUOUS
10
-0.013225
20
0.062968
30
0.0
11
-0.006953
21
0.061827
31
0.0
0
LINE
8
0
6
CONTINUOUS
10
0.018973
20
-0.006500
30
0.0
11
0.018973
21
0.018581
31
0.0
0
LINE
8
0
6
CONTINUOUS
10
-0.018973
20
0.018581
30
0.0
11
-0.018973
21
-0.006500
31
0.0
0
LINE
8
0
6
CONTINUOUS
10
-0.017314
20
-0.011614
30
0.0
11
-0.018217
21
-0.007696
31
0.0
0
LINE
8
0
6
CONTINUOUS
10
-0.018973
20
-0.006925
30
0.0
11
-0.018044
21
-0.010955
31
0.0
0
LINE
8
0
6
CONTINUOUS
10
-0.015349
20
-0.014590
30
0.0
11
-0.014700
21
-0.015139
31
0.0
0
LINE
8
0
6
CONTINUOUS
10
-0.018044
20
-0.010955
30
0.0
11
-0.015349
21
-0.014590
31
0.0
0
LINE
8
0
6
CONTINUOUS
10
-0.017314
20
-0.011614
30
0.0
11
-0.014700
21
-0.015139
31
0.0
0
LINE
8
0
6
CONTINUOUS
10
-0.010652
20
-0.017922
30
0.0
11
-0.005585
21
-0.019696
31
0.0
0
LINE
8
0
6
CONTINUOUS
10
-0.005585
20
-0.019696
30
0.0
11
0.000000
21
-0.020304
31
0.0
0
LINE
8
0
6
CONTINUOUS
10
-0.014700
20
-0.015139
30
0.0
11
-0.010652
21
-0.017922
31
0.0
0
LINE
8
0
6
CONTINUOUS
10
0.000000
20
-0.020304
30
0.0
11
0.005585
21
-0.019696
31
0.0
0
LINE
8
0
6
CONTINUOUS
10
0.005585
20
0.004305
30
0.0
11
0.000000
21
0.004913
31
0.0
0
LINE
8
0
6
CONTINUOUS
10
0.000000
20
0.003551
30
0.0
11
0.004916
21
0.003016
31
0.0
0
LINE
8
0
6
CONTINUOUS
10
0.000000
20
0.004913
30
0.0
11
-0.005585
21
0.004305
31
0.0
0
LINE
8
0
6
CONTINUOUS
10
-0.004915
20
0.003016
30
0.0
11
0.000000
21
0.003551
31
0.0
0
LINE
8
0
6
CONTINUOUS
10
-0.005585
20
0.004305
30
0.0
11
-0.010652
21
0.002531
31
0.0
0
LINE
8
0
6
CONTINUOUS
10
-0.009443
20
0.001430
30
0.0
11
-0.004915
21
0.003016
31
0.0
0
LINE
8
0
6
CONTINUOUS
10
-0.010652
20
0.002531
30
0.0
11
-0.014700
21
-0.000252
31
0.0
0
LINE
8
0
6
CONTINUOUS
10
-0.013133
20
-0.001106
30
0.0
11
-0.009443
21
0.001430
31
0.0
0
LINE
8
0
6
CONTINUOUS
10
-0.014700
20
-0.000252
30
0.0
11
-0.017314
21
-0.003777
31
0.0
0
LINE
8
0
6
CONTINUOUS
10
-0.015549
20
-0.004365
30
0.0
11
-0.013133
21
-0.001106
31
0.0
0
LINE
8
0
6
CONTINUOUS
10
-0.017314
20
-0.003777
30
0.0
11
-0.018217
21
-0.007696
31
0.0
0
LINE
8
0
6
CONTINUOUS
10
-0.016390
20
-0.008015
30
0.0
11
-0.015549
21
-0.004365
31
0.0
0
LINE
8
0
6
CONTINUOUS
10
0.018217
20
-0.007696
30
0.0
11
0.017314
21
-0.011614
31
0.0
0
LINE
8
0
6
CONTINUOUS
10
0.018044
20
-0.010955
30
0.0
11
0.018973
21
-0.006925
31
0.0
0
LINE
8
0
6
CONTINUOUS
10
0.015349
20
-0.014590
30
0.0
11
0.018044
21
-0.010955
31
0.0
0
LINE
8
0
6
CONTINUOUS
10
0.014700
20
-0.015139
30
0.0
11
0.015349
21
-0.014590
31
0.0
0
LINE
8
0
6
CONTINUOUS
10
0.014700
20
-0.015139
30
0.0
11
0.017314
21
-0.011614
31
0.0
0
LINE
8
0
6
CONTINUOUS
10
0.005585
20
-0.019696
30
0.0
11
0.010652
21
-0.017922
31
0.0
0
LINE
8
0
6
CONTINUOUS
10
0.010652
20
-0.017922
30
0.0
11
0.014700
21
-0.015139
31
0.0
0
LINE
8
0
6
CONTINUOUS
10
0.010652
20
0.002531
30
0.0
11
0.005585
21
0.004305
31
0.0
0
LINE
8
0
6
CONTINUOUS
10
0.004916
20
0.003016
30
0.0
11
0.009443
21
0.001430
31
0.0
0
LINE
8
0
6
CONTINUOUS
10
0.014700
20
-0.000252
30
0.0
11
0.010652
21
0.002531
31
0.0
0
LINE
8
0
6
CONTINUOUS
10
0.009443
20
0.001430
30
0.0
11
0.013133
21
-0.001106
31
0.0
0
LINE
8
0
6
CONTINUOUS
10
0.017314
20
-0.003777
30
0.0
11
0.014700
21
-0.000252
31
0.0
0
LINE
8
0
6
CONTINUOUS
10
0.013133
20
-0.001106
30
0.0
11
0.015549
21
-0.004365
31
0.0
0
LINE
8
0
6
CONTINUOUS
10
0.018217
20
-0.007696
30
0.0
11
0.017314
21
-0.003777
31
0.0
0
LINE
8
0
6
CONTINUOUS
10
0.015549
20
-0.004365
30
0.0
11
0.016391
21
-0.008015
31
0.0
0
LINE
8
0
6
CONTINUOUS
10
-0.015349
20
0.000740
30
0.0
11
-0.011152
21
0.003625
31
0.0
0
LINE
8
0
6
CONTINUOUS
10
-0.018973
20
-0.006925
30
0.0
11
-0.018044
21
-0.002895
31
0.0
0
LINE
8
0
6
CONTINUOUS
10
-0.018973
20
-0.006500
30
0.0
11
-0.018973
21
-0.006925
31
0.0
0
LINE
8
0
6
CONTINUOUS
10
-0.018044
20
-0.002895
30
0.0
11
-0.015349
21
0.000740
31
0.0
0
LINE
8
0
6
CONTINUOUS
10
0.011152
20
0.003625
30
0.0
11
0.015349
21
0.000740
31
0.0
0
LINE
8
0
6
CONTINUOUS
10
0.015349
20
0.000740
30
0.0
11
0.018044
21
-0.002895
31
0.0
0
LINE
8
0
6
CONTINUOUS
10
0.018973
20
-0.006925
30
0.0
11
0.018973
21
-0.006500
31
0.0
0
LINE
8
0
6
CONTINUOUS
10
0.018044
20
-0.002895
30
0.0
11
0.018973
21
-0.006925
31
0.0
0
LINE
8
0
6
CONTINUOUS
10
0.092500
20
0.013625
30
0.0
11
0.092500
21
0.014604
31
0.0
0
LINE
8
0
6
CONTINUOUS
10
0.091500
20
0.013625
30
0.0
11
0.092500
21
0.013625
31
0.0
0
LINE
8
0
6
CONTINUOUS
10
0.092500
20
0.014604
30
0.0
11
0.092500
21
0.017444
31
0.0
0
LINE
8
0
6
CONTINUOUS
10
0.092500
20
0.017444
30
0.0
11
0.092500
21
0.021869
31
0.0
0
LINE
8
0
6
CONTINUOUS
10
0.092500
20
0.021869
30
0.0
11
0.092500
21
0.027444
31
0.0
0
LINE
8
0
6
CONTINUOUS
10
0.092500
20
0.027444
30
0.0
11
0.092500
21
0.033625
31
0.0
0
LINE
8
0
6
CONTINUOUS
10
0.092500
20
0.033625
30
0.0
11
0.092500
21
0.039805
31
0.0
0
LINE
8
0
6
CONTINUOUS
10
0.092500
20
0.039805
30
0.0
11
0.092500
21
0.045380
31
0.0
0
LINE
8
0
6
CONTINUOUS
10
0.092500
20
0.045380
30
0.0
11
0.092500
21
0.049805
31
0.0
0
LINE
8
0
6
CONTINUOUS
10
0.092500
20
0.049805
30
0.0
11
0.092500
21
0.052646
31
0.0
0
LINE
8
0
6
CONTINUOUS
10
0.092500
20
0.053625
30
0.0
11
0.091500
21
0.053625
31
0.0
0
LINE
8
0
6
CONTINUOUS
10
0.092500
20
0.052646
30
0.0
11
0.092500
21
0.053625
31
0.0
0
LINE
8
0
6
CONTINUOUS
10
0.012265
20
0.036998
30
0.0
11
0.011709
21
0.034959
31
0.0
0
LINE
8
0
6
CONTINUOUS
10
0.019339
20
0.021995
30
0.0
11
0.019705
21
0.025409
31
0.0
0
LINE
8
0
6
CONTINUOUS
10
0.031270
20
0.053625
30
0.0
11
0.024230
21
0.053625
31
0.0
0
LINE
8
0
6
CONTINUOUS
10
0.021519
20
0.013625
30
0.0
11
0.031270
21
0.013625
31
0.0
0
LINE
8
0
6
CONTINUOUS
10
0.024948
20
0.049805
30
0.0
11
0.022376
21
0.053345
31
0.0
0
LINE
8
0
6
CONTINUOUS
10
0.018973
20
0.016961
30
0.0
11
0.019970
21
0.017444
31
0.0
0
LINE
8
0
6
CONTINUOUS
10
0.022811
20
0.021869
30
0.0
11
0.019125
21
0.020003
31
0.0
0
LINE
8
0
6
CONTINUOUS
10
0.019142
20
0.031583
30
0.0
11
0.019705
21
0.025409
31
0.0
0
LINE
8
0
6
CONTINUOUS
10
0.019142
20
0.031583
30
0.0
11
0.016881
21
0.034651
31
0.0
0
LINE
8
0
6
CONTINUOUS
10
0.022142
20
0.049312
30
0.0
11
0.022500
21
0.055472
31
0.0
0
LINE
8
0
6
CONTINUOUS
10
0.024292
20
0.039805
30
0.0
11
0.025386
21
0.045380
31
0.0
0
LINE
8
0
6
CONTINUOUS
10
0.022142
20
0.049312
30
0.0
11
0.020419
21
0.042389
31
0.0
0
LINE
8
0
6
CONTINUOUS
10
0.024948
20
0.049805
30
0.0
11
0.025386
21
0.045380
31
0.0
0
LINE
8
0
6
CONTINUOUS
10
0.018973
20
0.013625
30
0.0
11
0.021519
21
0.013625
31
0.0
0
LINE
8
0
6
CONTINUOUS
10
0.018973
20
0.018581
30
0.0
11
0.019339
21
0.021995
31
0.0
0
LINE
8
0
6
CONTINUOUS
10
0.022811
20
0.021869
30
0.0
11
0.019970
21
0.017444
31
0.0
0
LINE
8
0
6
CONTINUOUS
10
0.023010
20
0.033625
30
0.0
11
0.023493
21
0.027444
31
0.0
0
LINE
8
0
6
CONTINUOUS
10
0.020419
20
0.042389
30
0.0
11
0.019852
21
0.036644
31
0.0
0
LINE
8
0
6
CONTINUOUS
10
0.023493
20
0.027444
30
0.0
11
0.022811
21
0.021869
31
0.0
0
LINE
8
0
6
CONTINUOUS
10
0.031270
20
0.013625
30
0.0
11
0.091500
21
0.013625
31
0.0
0
LINE
8
0
6
CONTINUOUS
10
0.024230
20
0.053625
30
0.0
11
0.022393
21
0.053625
31
0.0
0
LINE
8
0
6
CONTINUOUS
10
0.091500
20
0.053625
30
0.0
11
0.031270
21
0.053625
31
0.0
0
LINE
8
0
6
CONTINUOUS
10
0.006448
20
0.038506
30
0.0
11
0.012265
21
0.036998
31
0.0
0
LINE
8
0
6
CONTINUOUS
10
0.011152
20
0.032919
30
0.0
11
0.011709
21
0.034959
31
0.0
0
LINE
8
0
6
CONTINUOUS
10
0.012265
20
0.036998
30
0.0
11
0.016881
21
0.034651
31
0.0
0
LINE
8
0
6
CONTINUOUS
10
0.024292
20
0.039805
30
0.0
11
0.023010
21
0.033625
31
0.0
0
LINE
8
0
6
CONTINUOUS
10
0.022500
20
0.055472
30
0.0
11
0.022500
21
0.068531
31
0.0
0
LINE
8
0
6
CONTINUOUS
10
-0.092500
20
0.013625
30
0.0
11
-0.091500
21
0.013625
31
0.0
0
LINE
8
0
6
CONTINUOUS
10
-0.092500
20
0.014604
30
0.0
11
-0.092500
21
0.013625
31
0.0
0
LINE
8
0
6
CONTINUOUS
10
-0.092500
20
0.017444
30
0.0
11
-0.092500
21
0.014604
31
0.0
0
LINE
8
0
6
CONTINUOUS
10
-0.092500
20
0.021869
30
0.0
11
-0.092500
21
0.017444
31
0.0
0
LINE
8
0
6
CONTINUOUS
10
-0.092500
20
0.027444
30
0.0
11
-0.092500
21
0.021869
31
0.0
0
LINE
8
0
6
CONTINUOUS
10
-0.092500
20
0.033625
30
0.0
11
-0.092500
21
0.027444
31
0.0
0
LINE
8
0
6
CONTINUOUS
10
-0.092500
20
0.039805
30
0.0
11
-0.092500
21
0.033625
31
0.0
0
LINE
8
0
6
CONTINUOUS
10
-0.092500
20
0.045380
30
0.0
11
-0.092500
21
0.039805
31
0.0
0
LINE
8
0
6
CONTINUOUS
10
-0.092500
20
0.049805
30
0.0
11
-0.092500
21
0.045380
31
0.0
0
LINE
8
0
6
CONTINUOUS
10
-0.092500
20
0.052646
30
0.0
11
-0.092500
21
0.049805
31
0.0
0
LINE
8
0
6
CONTINUOUS
10
-0.092500
20
0.053625
30
0.0
11
-0.092500
21
0.052646
31
0.0
0
LINE
8
0
6
CONTINUOUS
10
-0.091500
20
0.053625
30
0.0
11
-0.092500
21
0.053625
31
0.0
0
LINE
8
0
6
CONTINUOUS
10
-0.011709
20
0.034959
30
0.0
11
-0.012265
21
0.036998
31
0.0
0
LINE
8
0
6
CONTINUOUS
10
-0.019705
20
0.025409
30
0.0
11
-0.019339
21
0.021995
31
0.0
0
LINE
8
0
6
CONTINUOUS
10
-0.024230
20
0.053625
30
0.0
11
-0.031270
21
0.053625
31
0.0
0
LINE
8
0
6
CONTINUOUS
10
-0.031270
20
0.013625
30
0.0
11
-0.021519
21
0.013625
31
0.0
0
LINE
8
0
6
CONTINUOUS
10
-0.022376
20
0.053345
30
0.0
11
-0.024948
21
0.049805
31
0.0
0
LINE
8
0
6
CONTINUOUS
10
-0.019125
20
0.020003
30
0.0
11
-0.022811
21
0.021869
31
0.0
0
LINE
8
0
6
CONTINUOUS
10
-0.019970
20
0.017444
30
0.0
11
-0.018973
21
0.016961
31
0.0
0
LINE
8
0
6
CONTINUOUS
10
-0.019705
20
0.025409
30
0.0
11
-0.019142
21
0.031583
31
0.0
0
LINE
8
0
6
CONTINUOUS
10
-0.016881
20
0.034651
30
0.0
11
-0.019142
21
0.031583
31
0.0
0
LINE
8
0
6
CONTINUOUS
10
-0.022500
20
0.055472
30
0.0
11
-0.022142
21
0.049312
31
0.0
0
LINE
8
0
6
CONTINUOUS
10
-0.020419
20
0.042389
30
0.0
11
-0.022142
21
0.049312
31
0.0
0
LINE
8
0
6
CONTINUOUS
10
-0.025386
20
0.045380
30
0.0
11
-0.024291
21
0.039805
31
0.0
0
LINE
8
0
6
CONTINUOUS
10
-0.025386
20
0.045380
30
0.0
11
-0.024948
21
0.049805
31
0.0
0
LINE
8
0
6
CONTINUOUS
10
-0.021519
20
0.013625
30
0.0
11
-0.018973
21
0.013625
31
0.0
0
LINE
8
0
6
CONTINUOUS
10
-0.019339
20
0.021995
30
0.0
11
-0.018973
21
0.018581
31
0.0
0
LINE
8
0
6
CONTINUOUS
10
-0.019970
20
0.017444
30
0.0
11
-0.022811
21
0.021869
31
0.0
0
LINE
8
0
6
CONTINUOUS
10
-0.023493
20
0.027444
30
0.0
11
-0.023010
21
0.033625
31
0.0
0
LINE
8
0
6
CONTINUOUS
10
-0.019852
20
0.036644
30
0.0
11
-0.020419
21
0.042389
31
0.0
0
LINE
8
0
6
CONTINUOUS
10
-0.022811
20
0.021869
30
0.0
11
-0.023493
21
0.027444
31
0.0
0
LINE
8
0
6
CONTINUOUS
10
-0.091500
20
0.013625
30
0.0
11
-0.031270
21
0.013625
31
0.0
0
LINE
8
0
6
CONTINUOUS
10
-0.022393
20
0.053625
30
0.0
11
-0.024230
21
0.053625
31
0.0
0
LINE
8
0
6
CONTINUOUS
10
-0.031270
20
0.053625
30
0.0
11
-0.091500
21
0.053625
31
0.0
0
LINE
8
0
6
CONTINUOUS
10
-0.012265
20
0.036998
30
0.0
11
-0.006448
21
0.038506
31
0.0
0
LINE
8
0
6
CONTINUOUS
10
-0.011709
20
0.034959
30
0.0
11
-0.011152
21
0.032919
31
0.0
0
LINE
8
0
6
CONTINUOUS
10
-0.016881
20
0.034651
30
0.0
11
-0.012265
21
0.036998
31
0.0
0
LINE
8
0
6
CONTINUOUS
10
-0.023010
20
0.033625
30
0.0
11
-0.024291
21
0.039805
31
0.0
0
LINE
8
0
6
CONTINUOUS
10
-0.022500
20
0.068531
30
0.0
11
-0.022500
21
0.055472
31
0.0
0
LINE
8
0
6
CONTINUOUS
10
-0.005863
20
0.018218
30
0.0
11
-0.006231
21
0.018413
31
0.0
0
LINE
8
0
6
CONTINUOUS
10
0.004333
20
0.017516
30
0.0
11
0.005789
21
0.018138
31
0.0
0
LINE
8
0
6
CONTINUOUS
10
0.005863
20
0.018373
30
0.0
11
0.006083
21
0.019002
31
0.0
0
LINE
8
0
6
CONTINUOUS
10
0.002005
20
0.017331
30
0.0
11
0.004333
21
0.017516
31
0.0
0
LINE
8
0
6
CONTINUOUS
10
0.000000
20
0.061964
30
0.0
11
0.005369
21
0.062220
31
0.0
0
LINE
8
0
6
CONTINUOUS
10
-0.014855
20
0.064168
30
0.0
11
-0.011467
21
0.063231
31
0.0
0
LINE
8
0
6
CONTINUOUS
10
-0.014855
20
0.064168
30
0.0
11
-0.016544
21
0.064946
31
0.0
0
LINE
8
0
6
CONTINUOUS
10
-0.018256
20
0.065734
30
0.0
11
-0.019790
21
0.067091
31
0.0
0
LINE
8
0
6
CONTINUOUS
10
-0.016544
20
0.064946
30
0.0
11
-0.018256
21
0.065734
31
0.0
0
LINE
8
0
6
CONTINUOUS
10
0.016544
20
0.064946
30
0.0
11
0.018256
21
0.065734
31
0.0
0
LINE
8
0
6
CONTINUOUS
10
-0.011467
20
0.063231
30
0.0
11
-0.010470
21
0.062954
31
0.0
0
LINE
8
0
6
CONTINUOUS
10
-0.005369
20
0.062220
30
0.0
11
0.000000
21
0.061964
31
0.0
0
LINE
8
0
6
CONTINUOUS
10
-0.019790
20
0.067091
30
0.0
11
-0.020314
21
0.067554
31
0.0
0
ENDSEC
0
EOF
