  0
SECTION
  2
HEADER
  9
$ACADVER
  1
AC1014
  9
$ACADMAINTVER
 70
     9
  9
$DWGCODEPAGE
  3
ANSI_1252
  9
$INSBASE
 10
0.0
 20
0.0
 30
0.0
  9
$EXTMIN
 10
0.0000000000000041
 20
0.0874999999998896
 30
0.0
  9
$EXTMAX
 10
98.0
 20
917.9125
 30
0.0
  9
$LIMMIN
 10
0.0
 20
0.0
  9
$LIMMAX
 10
12.0
 20
9.0
  9
$ORTHOMODE
 70
     0
  9
$REGENMODE
 70
     1
  9
$FILLMODE
 70
     1
  9
$QTEXTMODE
 70
     0
  9
$MIRRTEXT
 70
     1
  9
$DRAGMODE
 70
     2
  9
$LTSCALE
 40
1.0
  9
$OSMODE
 70
    37
  9
$ATTMODE
 70
     1
  9
$TEXTSIZE
 40
0.2
  9
$TRACEWID
 40
0.05
  9
$TEXTSTYLE
  7
STANDARD
  9
$CLAYER
  8
0
  9
$CELTYPE
  6
CONTINUOUS
  9
$CECOLOR
 62
   256
  9
$CELTSCALE
 40
1.0
  9
$DELOBJ
 70
     1
  9
$DISPSILH
 70
     0
  9
$DIMSCALE
 40
1.0
  9
$DIMASZ
 40
0.18
  9
$DIMEXO
 40
0.0625
  9
$DIMDLI
 40
0.38
  9
$DIMRND
 40
0.0
  9
$DIMDLE
 40
0.0
  9
$DIMEXE
 40
0.18
  9
$DIMTP
 40
0.0
  9
$DIMTM
 40
0.0
  9
$DIMTXT
 40
0.18
  9
$DIMCEN
 40
0.09
  9
$DIMTSZ
 40
0.0
  9
$DIMTOL
 70
     0
  9
$DIMLIM
 70
     0
  9
$DIMTIH
 70
     1
  9
$DIMTOH
 70
     1
  9
$DIMSE1
 70
     0
  9
$DIMSE2
 70
     0
  9
$DIMTAD
 70
     0
  9
$DIMZIN
 70
     0
  9
$DIMBLK
  1

  9
$DIMASO
 70
     1
  9
$DIMSHO
 70
     1
  9
$DIMPOST
  1

  9
$DIMAPOST
  1

  9
$DIMALT
 70
     0
  9
$DIMALTD
 70
     2
  9
$DIMALTF
 40
25.4
  9
$DIMLFAC
 40
1.0
  9
$DIMTOFL
 70
     0
  9
$DIMTVP
 40
0.0
  9
$DIMTIX
 70
     0
  9
$DIMSOXD
 70
     0
  9
$DIMSAH
 70
     0
  9
$DIMBLK1
  1

  9
$DIMBLK2
  1

  9
$DIMSTYLE
  2
STANDARD
  9
$DIMCLRD
 70
     0
  9
$DIMCLRE
 70
     0
  9
$DIMCLRT
 70
     0
  9
$DIMTFAC
 40
1.0
  9
$DIMGAP
 40
0.09
  9
$DIMJUST
 70
     0
  9
$DIMSD1
 70
     0
  9
$DIMSD2
 70
     0
  9
$DIMTOLJ
 70
     1
  9
$DIMTZIN
 70
     0
  9
$DIMALTZ
 70
     0
  9
$DIMALTTZ
 70
     0
  9
$DIMFIT
 70
     3
  9
$DIMUPT
 70
     0
  9
$DIMUNIT
 70
     2
  9
$DIMDEC
 70
     4
  9
$DIMTDEC
 70
     4
  9
$DIMALTU
 70
     2
  9
$DIMALTTD
 70
     2
  9
$DIMTXSTY
  7
STANDARD
  9
$DIMAUNIT
 70
     0
  9
$LUNITS
 70
     2
  9
$LUPREC
 70
     4
  9
$SKETCHINC
 40
0.1
  9
$FILLETRAD
 40
0.0
  9
$AUNITS
 70
     0
  9
$AUPREC
 70
     0
  9
$MENU
  1
.
  9
$ELEVATION
 40
0.0
  9
$PELEVATION
 40
0.0
  9
$THICKNESS
 40
0.0
  9
$LIMCHECK
 70
     0
  9
$BLIPMODE
 70
     0
  9
$CHAMFERA
 40
0.0
  9
$CHAMFERB
 40
0.0
  9
$CHAMFERC
 40
0.0
  9
$CHAMFERD
 40
0.0
  9
$SKPOLY
 70
     0
  9
$TDCREATE
 40
2454697.476529398
  9
$TDUPDATE
 40
2454697.480677615
  9
$TDINDWG
 40
0.0041484028
  9
$TDUSRTIMER
 40
0.0041484028
  9
$USRTIMER
 70
     1
  9
$ANGBASE
 50
0.0
  9
$ANGDIR
 70
     0
  9
$PDMODE
 70
     0
  9
$PDSIZE
 40
0.0
  9
$PLINEWID
 40
0.0
  9
$COORDS
 70
     1
  9
$SPLFRAME
 70
     0
  9
$SPLINETYPE
 70
     6
  9
$SPLINESEGS
 70
     8
  9
$ATTDIA
 70
     0
  9
$ATTREQ
 70
     1
  9
$HANDLING
 70
 22529
  9
$HANDSEED
  5
245
  9
$SURFTAB1
 70
     6
  9
$SURFTAB2
 70
     6
  9
$SURFTYPE
 70
     6
  9
$SURFU
 70
     6
  9
$SURFV
 70
     6
  9
$UCSNAME
  2

  9
$UCSORG
 10
0.0
 20
0.0
 30
0.0
  9
$UCSXDIR
 10
1.0
 20
0.0
 30
0.0
  9
$UCSYDIR
 10
0.0
 20
1.0
 30
0.0
  9
$PUCSNAME
  2

  9
$PUCSORG
 10
0.0
 20
0.0
 30
0.0
  9
$PUCSXDIR
 10
1.0
 20
0.0
 30
0.0
  9
$PUCSYDIR
 10
0.0
 20
1.0
 30
0.0
  9
$USERI1
 70
     0
  9
$USERI2
 70
     0
  9
$USERI3
 70
     0
  9
$USERI4
 70
     0
  9
$USERI5
 70
     0
  9
$USERR1
 40
0.0
  9
$USERR2
 40
0.0
  9
$USERR3
 40
0.0
  9
$USERR4
 40
0.0
  9
$USERR5
 40
0.0
  9
$WORLDVIEW
 70
     1
  9
$SHADEDGE
 70
     3
  9
$SHADEDIF
 70
    70
  9
$TILEMODE
 70
     1
  9
$MAXACTVP
 70
    64
  9
$PINSBASE
 10
0.0
 20
0.0
 30
0.0
  9
$PLIMCHECK
 70
     0
  9
$PEXTMIN
 10
1.000000000000000E+20
 20
1.000000000000000E+20
 30
1.000000000000000E+20
  9
$PEXTMAX
 10
-1.000000000000000E+20
 20
-1.000000000000000E+20
 30
-1.000000000000000E+20
  9
$PLIMMIN
 10
0.0
 20
0.0
  9
$PLIMMAX
 10
12.0
 20
9.0
  9
$UNITMODE
 70
     0
  9
$VISRETAIN
 70
     1
  9
$PLINEGEN
 70
     0
  9
$PSLTSCALE
 70
     1
  9
$TREEDEPTH
 70
  3020
  9
$PICKSTYLE
 70
     1
  9
$CMLSTYLE
  2
STANDARD
  9
$CMLJUST
 70
     0
  9
$CMLSCALE
 40
1.0
  9
$PROXYGRAPHICS
 70
     1
  9
$MEASUREMENT
 70
     0
  0
ENDSEC
  0
SECTION
  2
CLASSES
  0
CLASS
  1
ACDBDICTIONARYWDFLT
  2
AcDbDictionaryWithDefault
  3
AutoCAD 2000
 90
        0
280
     0
281
     0
  0
CLASS
  1
ACDBPLACEHOLDER
  2
AcDbPlaceHolder
  3
AutoCAD 2000
 90
        0
280
     0
281
     0
  0
CLASS
  1
LAYOUT
  2
AcDbLayout
  3
AutoCAD 2000
 90
        0
280
     0
281
     0
  0
CLASS
  1
DICTIONARYVAR
  2
AcDbDictionaryVar
  3
AutoCAD 2000
 90
        0
280
     0
281
     0
  0
CLASS
  1
LONG_TRANSACTION
  2
AcDbLongTransaction
  3
AutoCAD 2000
 90
        0
280
     0
281
     0
  0
CLASS
  1
LWPOLYLINE
  2
AcDbPolyline
  3
AutoCAD 2000
 90
        0
280
     0
281
     1
  0
CLASS
  1
HATCH
  2
AcDbHatch
  3
AutoCAD 2000
 90
        0
280
     0
281
     1
  0
CLASS
  1
XRECORD
  2
AcDbXrecord
  3
AutoCAD 2000
 90
        0
280
     0
281
     0
  0
ENDSEC
  0
SECTION
  2
TABLES
  0
TABLE
  2
VPORT
  5
8
330
0
100
AcDbSymbolTable
 70
     2
  0
VPORT
  5
220
330
8
100
AcDbSymbolTableRecord
100
AcDbViewportTableRecord
  2
*ACTIVE
 70
     0
 10
0.0
 20
0.0
 11
1.0
 21
1.0
 12
49.00000000000001
 22
458.9999999999999
 13
0.0
 23
0.0
 14
1.0
 24
1.0
 15
0.0
 25
0.0
 16
0.0
 26
0.0
 36
1.0
 17
0.0
 27
0.0
 37
0.0
 40
924.8671355498723
 41
2.078104993597951
 42
50.0
 43
0.0
 44
0.0
 50
0.0
 51
0.0
 71
     0
 72
   100
 73
     1
 74
     3
 75
     0
 76
     0
 77
     0
 78
     0
  0
ENDTAB
  0
TABLE
  2
LTYPE
  5
5
330
0
100
AcDbSymbolTable
 70
     1
  0
LTYPE
  5
13
330
5
100
AcDbSymbolTableRecord
100
AcDbLinetypeTableRecord
  2
BYBLOCK
 70
     0
  3

 72
    65
 73
     0
 40
0.0
  0
LTYPE
  5
14
330
5
100
AcDbSymbolTableRecord
100
AcDbLinetypeTableRecord
  2
BYLAYER
 70
     0
  3

 72
    65
 73
     0
 40
0.0
  0
LTYPE
  5
15
330
5
100
AcDbSymbolTableRecord
100
AcDbLinetypeTableRecord
  2
CONTINUOUS
 70
     0
  3
Solid line
 72
    65
 73
     0
 40
0.0
  0
ENDTAB
  0
TABLE
  2
LAYER
  5
2
330
0
100
AcDbSymbolTable
 70
     1
  0
LAYER
  5
10
330
2
100
AcDbSymbolTableRecord
100
AcDbLayerTableRecord
  2
0
 70
     0
 62
     7
  6
CONTINUOUS
  0
ENDTAB
  0
TABLE
  2
STYLE
  5
3
330
0
100
AcDbSymbolTable
 70
     1
  0
STYLE
  5
11
330
3
100
AcDbSymbolTableRecord
100
AcDbTextStyleTableRecord
  2
STANDARD
 70
     0
 40
0.0
 41
1.0
 50
0.0
 71
     0
 42
0.2
  3
txt
  4

  0
ENDTAB
  0
TABLE
  2
VIEW
  5
6
330
0
100
AcDbSymbolTable
 70
     0
  0
ENDTAB
  0
TABLE
  2
UCS
  5
7
330
0
100
AcDbSymbolTable
 70
     0
  0
ENDTAB
  0
TABLE
  2
APPID
  5
9
330
0
100
AcDbSymbolTable
 70
     1
  0
APPID
  5
12
330
9
100
AcDbSymbolTableRecord
100
AcDbRegAppTableRecord
  2
ACAD
 70
     0
  0
ENDTAB
  0
TABLE
  2
DIMSTYLE
  5
A
330
0
100
AcDbSymbolTable
 70
     1
  0
DIMSTYLE
105
21A
330
A
100
AcDbSymbolTableRecord
100
AcDbDimStyleTableRecord
  2
STANDARD
 70
     0
  3

  4

  5

  6

  7

 40
1.0
 41
0.18
 42
0.0625
 43
0.38
 44
0.18
 45
0.0
 46
0.0
 47
0.0
 48
0.0
140
0.18
141
0.09
142
0.0
143
25.4
144
1.0
145
0.0
146
1.0
147
0.09
 71
     0
 72
     0
 73
     1
 74
     1
 75
     0
 76
     0
 77
     0
 78
     0
170
     0
171
     2
172
     0
173
     0
174
     0
175
     0
176
     0
177
     0
178
     0
270
     2
271
     4
272
     4
273
     2
274
     2
340
11
275
     0
280
     0
281
     0
282
     0
283
     1
284
     0
285
     0
286
     0
287
     3
288
     0
  0
ENDTAB
  0
TABLE
  2
BLOCK_RECORD
  5
1
330
0
100
AcDbSymbolTable
 70
     0
  0
BLOCK_RECORD
  5
1E
102
{ACAD_XDICTIONARY
360
243
102
}
330
1
100
AcDbSymbolTableRecord
100
AcDbBlockTableRecord
  2
*MODEL_SPACE
  0
BLOCK_RECORD
  5
1A
102
{ACAD_XDICTIONARY
360
241
102
}
330
1
100
AcDbSymbolTableRecord
100
AcDbBlockTableRecord
  2
*PAPER_SPACE
  0
ENDTAB
  0
ENDSEC
  0
SECTION
  2
BLOCKS
  0
BLOCK
  5
1F
330
1E
100
AcDbEntity
  8
0
100
AcDbBlockBegin
  2
*MODEL_SPACE
 70
     0
 10
0.0
 20
0.0
 30
0.0
  3
*MODEL_SPACE
  1

  0
ENDBLK
  5
20
330
1E
100
AcDbEntity
  8
0
100
AcDbBlockEnd
  0
BLOCK
  5
1B
330
1A
100
AcDbEntity
 67
     1
  8
0
100
AcDbBlockBegin
  2
*PAPER_SPACE
 70
     0
 10
0.0
 20
0.0
 30
0.0
  3
*PAPER_SPACE
  1

  0
ENDBLK
  5
1C
330
1A
100
AcDbEntity
 67
     1
  8
0
100
AcDbBlockEnd
  0
ENDSEC
  0
SECTION
  2
ENTITIES
  0
LINE
  5
22
330
1E
100
AcDbEntity
  8
0
100
AcDbLine
 10
31.69999999999999
 20
247.6125
 30
0.0
 11
37.1
 21
243.4124999999999
 31
0.0
  0
LINE
  5
23
330
1E
100
AcDbEntity
  8
0
100
AcDbLine
 10
27.5
 20
253.0124999999999
 30
0.0
 11
31.69999999999999
 21
247.6125
 31
0.0
  0
LINE
  5
24
330
1E
100
AcDbEntity
  8
0
100
AcDbLine
 10
24.9
 20
259.2124999999999
 30
0.0
 11
27.5
 21
253.0124999999999
 31
0.0
  0
LINE
  5
25
330
1E
100
AcDbEntity
  8
0
100
AcDbLine
 10
27.5
 20
278.8124999999999
 30
0.0
 11
31.69999999999999
 21
284.2124999999999
 31
0.0
  0
LINE
  5
26
330
1E
100
AcDbEntity
  8
0
100
AcDbLine
 10
24.9
 20
272.6125
 30
0.0
 11
27.5
 21
278.8124999999999
 31
0.0
  0
LINE
  5
27
330
1E
100
AcDbEntity
  8
0
100
AcDbLine
 10
31.69999999999999
 20
284.2124999999999
 30
0.0
 11
37.1
 21
288.4125
 31
0.0
  0
LINE
  5
28
330
1E
100
AcDbEntity
  8
0
100
AcDbLine
 10
24.0
 20
265.9125
 30
0.0
 11
24.9
 21
259.2124999999999
 31
0.0
  0
LINE
  5
29
330
1E
100
AcDbEntity
  8
0
100
AcDbLine
 10
24.0
 20
265.9125
 30
0.0
 11
24.9
 21
272.6125
 31
0.0
  0
LINE
  5
2A
330
1E
100
AcDbEntity
  8
0
100
AcDbLine
 10
0.753800000000005
 20
629.9174999999999
 30
0.0
 11
31.9128
 21
629.9174999999999
 31
0.0
  0
LINE
  5
2B
330
1E
100
AcDbEntity
  8
0
100
AcDbLine
 10
0.0000000000000041
 20
643.3804999999999
 30
0.0
 11
0.0000000000000041
 21
647.8614999999999
 31
0.0
  0
LINE
  5
2C
330
1E
100
AcDbEntity
  8
0
100
AcDbLine
 10
0.0000000000000041
 20
643.3804999999999
 30
0.0
 11
0.0000000000000041
 21
639.1285
 31
0.0
  0
LINE
  5
2D
330
1E
100
AcDbEntity
  8
0
100
AcDbLine
 10
0.0000000000000041
 20
647.8614999999999
 30
0.0
 11
0.0000000000000041
 21
652.4455
 31
0.0
  0
LINE
  5
2E
330
1E
100
AcDbEntity
  8
0
100
AcDbLine
 10
0.0000000000000041
 20
647.8614999999999
 30
0.0
 11
0.0000000000000041
 21
643.3804999999999
 31
0.0
  0
LINE
  5
2F
330
1E
100
AcDbEntity
  8
0
100
AcDbLine
 10
0.0000000000000041
 20
652.4455
 30
0.0
 11
0.0000000000000041
 21
656.7134999999999
 31
0.0
  0
LINE
  5
30
330
1E
100
AcDbEntity
  8
0
100
AcDbLine
 10
0.0000000000000041
 20
652.4455
 30
0.0
 11
0.0000000000000041
 21
647.8614999999999
 31
0.0
  0
LINE
  5
31
330
1E
100
AcDbEntity
  8
0
100
AcDbLine
 10
0.0000000000000041
 20
656.7134999999999
 30
0.0
 11
0.0000000000000041
 21
660.2975
 31
0.0
  0
LINE
  5
32
330
1E
100
AcDbEntity
  8
0
100
AcDbLine
 10
0.0000000000000041
 20
656.7134999999999
 30
0.0
 11
0.0000000000000041
 21
652.4455
 31
0.0
  0
LINE
  5
33
330
1E
100
AcDbEntity
  8
0
100
AcDbLine
 10
0.0000000000000041
 20
660.3005
 30
0.0
 11
0.0000000000000041
 21
656.6965
 31
0.0
  0
LINE
  5
34
330
1E
100
AcDbEntity
  8
0
100
AcDbLine
 10
0.0000000000000041
 20
660.3005
 30
0.0
 11
0.0000000000000041
 21
663.0535
 31
0.0
  0
LINE
  5
35
330
1E
100
AcDbEntity
  8
0
100
AcDbLine
 10
0.0000000000000041
 20
663.0535
 30
0.0
 11
0.0000000000000041
 21
660.3005
 31
0.0
  0
LINE
  5
36
330
1E
100
AcDbEntity
  8
0
100
AcDbLine
 10
0.0000000000000041
 20
663.0535
 30
0.0
 11
0.0000000000000041
 21
664.8295
 31
0.0
  0
LINE
  5
37
330
1E
100
AcDbEntity
  8
0
100
AcDbLine
 10
0.0000000000000041
 20
664.8295
 30
0.0
 11
0.0000000000000041
 21
663.0535
 31
0.0
  0
LINE
  5
38
330
1E
100
AcDbEntity
  8
0
100
AcDbLine
 10
0.0000000000000041
 20
664.8295
 30
0.0
 11
0.0000000000000041
 21
665.4255
 31
0.0
  0
LINE
  5
39
330
1E
100
AcDbEntity
  8
0
100
AcDbLine
 10
0.0000000000000041
 20
664.8334999999999
 30
0.0
 11
0.0000000000000041
 21
665.4255
 31
0.0
  0
LINE
  5
3A
330
1E
100
AcDbEntity
  8
0
100
AcDbLine
 10
0.0000000000000041
 20
664.8334999999999
 30
0.0
 11
0.0000000000000041
 21
663.1264999999999
 31
0.0
  0
LINE
  5
3B
330
1E
100
AcDbEntity
  8
0
100
AcDbLine
 10
0.0000000000000041
 20
665.4255
 30
0.0
 11
0.7538000000000059
 21
665.9075
 31
0.0
  0
LINE
  5
3C
330
1E
100
AcDbEntity
  8
0
100
AcDbLine
 10
0.0000000000000041
 20
665.4255
 30
0.0
 11
0.0000000000000041
 21
664.8295
 31
0.0
  0
LINE
  5
3D
330
1E
100
AcDbEntity
  8
0
100
AcDbLine
 10
0.0000000000000041
 20
665.4255
 30
0.0
 11
0.0000000000000041
 21
664.8334999999999
 31
0.0
  0
LINE
  5
3E
330
1E
100
AcDbEntity
  8
0
100
AcDbLine
 10
0.0000000000000041
 20
663.1264999999999
 30
0.0
 11
0.0000000000000041
 21
660.2975
 31
0.0
  0
LINE
  5
3F
330
1E
100
AcDbEntity
  8
0
100
AcDbLine
 10
0.0000000000000041
 20
663.1264999999999
 30
0.0
 11
0.0000000000000041
 21
664.8334999999999
 31
0.0
  0
LINE
  5
40
330
1E
100
AcDbEntity
  8
0
100
AcDbLine
 10
0.0000000000000041
 20
660.2975
 30
0.0
 11
0.0000000000000041
 21
663.1264999999999
 31
0.0
  0
LINE
  5
41
330
1E
100
AcDbEntity
  8
0
100
AcDbLine
 10
0.0000000000000041
 20
660.2975
 30
0.0
 11
0.0000000000000041
 21
656.7134999999999
 31
0.0
  0
LINE
  5
42
330
1E
100
AcDbEntity
  8
0
100
AcDbLine
 10
0.0000000000000041
 20
656.6965
 30
0.0
 11
0.0000000000000041
 21
652.4445
 31
0.0
  0
LINE
  5
43
330
1E
100
AcDbEntity
  8
0
100
AcDbLine
 10
0.0000000000000041
 20
656.6965
 30
0.0
 11
0.0000000000000041
 21
660.3005
 31
0.0
  0
LINE
  5
44
330
1E
100
AcDbEntity
  8
0
100
AcDbLine
 10
0.0000000000000041
 20
652.4445
 30
0.0
 11
0.0000000000000041
 21
647.9635
 31
0.0
  0
LINE
  5
45
330
1E
100
AcDbEntity
  8
0
100
AcDbLine
 10
0.0000000000000041
 20
652.4445
 30
0.0
 11
0.0000000000000041
 21
656.6965
 31
0.0
  0
LINE
  5
46
330
1E
100
AcDbEntity
  8
0
100
AcDbLine
 10
0.0000000000000041
 20
647.9635
 30
0.0
 11
0.0000000000000041
 21
643.3794999999999
 31
0.0
  0
LINE
  5
47
330
1E
100
AcDbEntity
  8
0
100
AcDbLine
 10
0.0000000000000041
 20
647.9635
 30
0.0
 11
0.0000000000000041
 21
652.4445
 31
0.0
  0
LINE
  5
48
330
1E
100
AcDbEntity
  8
0
100
AcDbLine
 10
0.0000000000000041
 20
643.3794999999999
 30
0.0
 11
0.0000000000000041
 21
639.1115
 31
0.0
  0
LINE
  5
49
330
1E
100
AcDbEntity
  8
0
100
AcDbLine
 10
0.0000000000000041
 20
643.3794999999999
 30
0.0
 11
0.0000000000000041
 21
647.9635
 31
0.0
  0
LINE
  5
4A
330
1E
100
AcDbEntity
  8
0
100
AcDbLine
 10
0.0000000000000041
 20
639.1115
 30
0.0
 11
0.0000000000000041
 21
635.5275
 31
0.0
  0
LINE
  5
4B
330
1E
100
AcDbEntity
  8
0
100
AcDbLine
 10
0.0000000000000041
 20
639.1115
 30
0.0
 11
0.0000000000000041
 21
643.3794999999999
 31
0.0
  0
LINE
  5
4C
330
1E
100
AcDbEntity
  8
0
100
AcDbLine
 10
0.0000000000000041
 20
635.5275
 30
0.0
 11
0.0000000000000041
 21
632.6984999999999
 31
0.0
  0
LINE
  5
4D
330
1E
100
AcDbEntity
  8
0
100
AcDbLine
 10
0.0000000000000041
 20
635.5275
 30
0.0
 11
0.0000000000000041
 21
639.1115
 31
0.0
  0
LINE
  5
4E
330
1E
100
AcDbEntity
  8
0
100
AcDbLine
 10
0.0000000000000041
 20
639.1285
 30
0.0
 11
0.0000000000000041
 21
635.5245
 31
0.0
  0
LINE
  5
4F
330
1E
100
AcDbEntity
  8
0
100
AcDbLine
 10
0.0000000000000041
 20
639.1285
 30
0.0
 11
0.0000000000000041
 21
643.3804999999999
 31
0.0
  0
LINE
  5
50
330
1E
100
AcDbEntity
  8
0
100
AcDbLine
 10
0.0000000000000041
 20
635.5245
 30
0.0
 11
0.0000000000000041
 21
639.1285
 31
0.0
  0
LINE
  5
51
330
1E
100
AcDbEntity
  8
0
100
AcDbLine
 10
0.0000000000000041
 20
635.5245
 30
0.0
 11
0.0000000000000041
 21
632.7714999999999
 31
0.0
  0
LINE
  5
52
330
1E
100
AcDbEntity
  8
0
100
AcDbLine
 10
0.0000000000000041
 20
632.7714999999999
 30
0.0
 11
0.0000000000000041
 21
635.5245
 31
0.0
  0
LINE
  5
53
330
1E
100
AcDbEntity
  8
0
100
AcDbLine
 10
0.0000000000000041
 20
632.7714999999999
 30
0.0
 11
0.0000000000000041
 21
630.9955
 31
0.0
  0
LINE
  5
54
330
1E
100
AcDbEntity
  8
0
100
AcDbLine
 10
0.0000000000000041
 20
630.9955
 30
0.0
 11
0.0000000000000041
 21
632.7714999999999
 31
0.0
  0
LINE
  5
55
330
1E
100
AcDbEntity
  8
0
100
AcDbLine
 10
0.0000000000000041
 20
630.9955
 30
0.0
 11
0.0000000000000041
 21
630.3995
 31
0.0
  0
LINE
  5
56
330
1E
100
AcDbEntity
  8
0
100
AcDbLine
 10
0.0000000000000041
 20
630.9915
 30
0.0
 11
0.0000000000000041
 21
630.3995
 31
0.0
  0
LINE
  5
57
330
1E
100
AcDbEntity
  8
0
100
AcDbLine
 10
0.0000000000000041
 20
630.9915
 30
0.0
 11
0.0000000000000041
 21
632.6984999999999
 31
0.0
  0
LINE
  5
58
330
1E
100
AcDbEntity
  8
0
100
AcDbLine
 10
0.0000000000000041
 20
630.3995
 30
0.0
 11
0.7538000000000059
 21
629.9174999999999
 31
0.0
  0
LINE
  5
59
330
1E
100
AcDbEntity
  8
0
100
AcDbLine
 10
0.0000000000000041
 20
630.3995
 30
0.0
 11
0.0000000000000041
 21
630.9955
 31
0.0
  0
LINE
  5
5A
330
1E
100
AcDbEntity
  8
0
100
AcDbLine
 10
0.0000000000000041
 20
630.3995
 30
0.0
 11
0.0000000000000041
 21
630.9915
 31
0.0
  0
LINE
  5
5B
330
1E
100
AcDbEntity
  8
0
100
AcDbLine
 10
5.1886
 20
665.812994168619
 30
0.0
 11
5.1886
 21
677.0415
 31
0.0
  0
LINE
  5
5C
330
1E
100
AcDbEntity
  8
0
100
AcDbLine
 10
0.753800000000005
 20
665.9075
 30
0.0
 11
5.1886
 21
665.9075
 31
0.0
  0
LINE
  5
5D
330
1E
100
AcDbEntity
  8
0
100
AcDbLine
 10
31.9128
 20
665.9075
 30
0.0
 11
32.66669999999999
 21
665.4255
 31
0.0
  0
LINE
  5
5E
330
1E
100
AcDbEntity
  8
0
100
AcDbLine
 10
11.18859999999999
 20
665.9075
 30
0.0
 11
31.9128
 21
665.9075
 31
0.0
  0
LINE
  5
5F
330
1E
100
AcDbEntity
  8
0
100
AcDbLine
 10
11.18859999999999
 20
665.9075
 30
0.0
 11
11.18859999999999
 21
677.0415
 31
0.0
  0
LINE
  5
60
330
1E
100
AcDbEntity
  8
0
100
AcDbLine
 10
7.432599999999999
 20
677.6415
 30
0.0
 11
8.188599999999999
 21
677.6415
 31
0.0
  0
LINE
  5
61
330
1E
100
AcDbEntity
  8
0
100
AcDbLine
 10
6.736600000000009
 20
677.6415
 30
0.0
 11
7.432599999999999
 21
677.6415
 31
0.0
  0
LINE
  5
62
330
1E
100
AcDbEntity
  8
0
100
AcDbLine
 10
6.1246
 20
677.6415
 30
0.0
 11
6.736600000000009
 21
677.6415
 31
0.0
  0
LINE
  5
63
330
1E
100
AcDbEntity
  8
0
100
AcDbLine
 10
5.6566
 20
677.6415
 30
0.0
 11
6.1246
 21
677.6415
 31
0.0
  0
LINE
  5
64
330
1E
100
AcDbEntity
  8
0
100
AcDbLine
 10
5.368599999999999
 20
677.6415
 30
0.0
 11
5.6566
 21
677.6415
 31
0.0
  0
LINE
  5
65
330
1E
100
AcDbEntity
  8
0
100
AcDbLine
 10
5.2606
 20
677.6415
 30
0.0
 11
5.368599999999999
 21
677.6415
 31
0.0
  0
LINE
  5
66
330
1E
100
AcDbEntity
  8
0
100
AcDbLine
 10
8.188599999999999
 20
677.6415
 30
0.0
 11
8.944599999999999
 21
677.6415
 31
0.0
  0
LINE
  5
67
330
1E
100
AcDbEntity
  8
0
100
AcDbLine
 10
8.944599999999999
 20
677.6415
 30
0.0
 11
9.640599999999999
 21
677.6415
 31
0.0
  0
LINE
  5
68
330
1E
100
AcDbEntity
  8
0
100
AcDbLine
 10
9.640599999999999
 20
677.6415
 30
0.0
 11
10.2526
 21
677.6415
 31
0.0
  0
LINE
  5
69
330
1E
100
AcDbEntity
  8
0
100
AcDbLine
 10
10.2526
 20
677.6415
 30
0.0
 11
10.7206
 21
677.6415
 31
0.0
  0
LINE
  5
6A
330
1E
100
AcDbEntity
  8
0
100
AcDbLine
 10
10.7206
 20
677.6415
 30
0.0
 11
11.00859999999999
 21
677.6415
 31
0.0
  0
LINE
  5
6B
330
1E
100
AcDbEntity
  8
0
100
AcDbLine
 10
11.00859999999999
 20
677.6415
 30
0.0
 11
11.1166
 21
677.6415
 31
0.0
  0
LINE
  5
6C
330
1E
100
AcDbEntity
  8
0
100
AcDbLine
 10
5.1886
 20
677.0415
 30
0.0
 11
5.1886
 21
665.812994168619
 31
0.0
  0
LINE
  5
6D
330
1E
100
AcDbEntity
  8
0
100
AcDbLine
 10
5.1886
 20
677.0415
 30
0.0
 11
5.2606
 21
677.6415
 31
0.0
  0
LINE
  5
6E
330
1E
100
AcDbEntity
  8
0
100
AcDbLine
 10
24.9
 20
885.2124999999999
 30
0.0
 11
27.5
 21
879.0125000000001
 31
0.0
  0
LINE
  5
6F
330
1E
100
AcDbEntity
  8
0
100
AcDbLine
 10
24.0
 20
891.9125000000001
 30
0.0
 11
24.9
 21
898.6124999999999
 31
0.0
  0
LINE
  5
70
330
1E
100
AcDbEntity
  8
0
100
AcDbLine
 10
24.0
 20
891.9125000000001
 30
0.0
 11
24.9
 21
885.2124999999999
 31
0.0
  0
LINE
  5
71
330
1E
100
AcDbEntity
  8
0
100
AcDbLine
 10
27.5
 20
879.0125000000001
 30
0.0
 11
31.69999999999999
 21
873.6124999999999
 31
0.0
  0
LINE
  5
72
330
1E
100
AcDbEntity
  8
0
100
AcDbLine
 10
31.69999999999999
 20
873.6124999999999
 30
0.0
 11
37.1
 21
869.4124999999999
 31
0.0
  0
LINE
  5
73
330
1E
100
AcDbEntity
  8
0
100
AcDbLine
 10
31.69999999999999
 20
910.2124999999999
 30
0.0
 11
37.1
 21
914.4125
 31
0.0
  0
LINE
  5
74
330
1E
100
AcDbEntity
  8
0
100
AcDbLine
 10
27.5
 20
904.8125
 30
0.0
 11
31.69999999999999
 21
910.2124999999999
 31
0.0
  0
LINE
  5
75
330
1E
100
AcDbEntity
  8
0
100
AcDbLine
 10
24.9
 20
898.6124999999999
 30
0.0
 11
27.5
 21
904.8125
 31
0.0
  0
LINE
  5
76
330
1E
100
AcDbEntity
  8
0
100
AcDbLine
 10
11.18859999999999
 20
677.0415
 30
0.0
 11
11.18859999999999
 21
665.9075
 31
0.0
  0
LINE
  5
77
330
1E
100
AcDbEntity
  8
0
100
AcDbLine
 10
11.1166
 20
677.6415
 30
0.0
 11
11.18859999999999
 21
677.0415
 31
0.0
  0
LINE
  5
78
330
1E
100
AcDbEntity
  8
0
100
AcDbLine
 10
0.7538000000000059
 20
665.9075
 30
0.0
 11
5.1886
 21
665.9075
 31
0.0
  0
LINE
  5
79
330
1E
100
AcDbEntity
  8
0
100
AcDbLine
 10
0.0000000000000041
 20
632.6984999999999
 30
0.0
 11
0.0000000000000041
 21
630.9915
 31
0.0
  0
LINE
  5
7A
330
1E
100
AcDbEntity
  8
0
100
AcDbLine
 10
0.0000000000000041
 20
632.6984999999999
 30
0.0
 11
0.0000000000000041
 21
635.5275
 31
0.0
  0
LINE
  5
7B
330
1E
100
AcDbEntity
  8
0
100
AcDbLine
 10
0.7538000000000059
 20
629.9174999999999
 30
0.0
 11
31.9128
 21
629.9174999999999
 31
0.0
  0
LINE
  5
7C
330
1E
100
AcDbEntity
  8
0
100
AcDbLine
 10
37.1
 20
243.4124999999999
 30
0.0
 11
43.3
 21
240.8125
 31
0.0
  0
LINE
  5
7D
330
1E
100
AcDbEntity
  8
0
100
AcDbLine
 10
56.5
 20
254.6124999999999
 30
0.0
 11
59.2
 21
256.7124999999999
 31
0.0
  0
LINE
  5
7E
330
1E
100
AcDbEntity
  8
0
100
AcDbLine
 10
53.3
 20
253.4124999999999
 30
0.0
 11
56.5
 21
254.6124999999999
 31
0.0
  0
LINE
  5
7F
330
1E
100
AcDbEntity
  8
0
100
AcDbLine
 10
50.0
 20
252.9125
 30
0.0
 11
53.3
 21
253.4124999999999
 31
0.0
  0
LINE
  5
80
330
1E
100
AcDbEntity
  8
0
100
AcDbLine
 10
56.7
 20
240.8125
 30
0.0
 11
62.9
 21
243.4124999999999
 31
0.0
  0
LINE
  5
81
330
1E
100
AcDbEntity
  8
0
100
AcDbLine
 10
50.0
 20
239.9125
 30
0.0
 11
56.7
 21
240.8125
 31
0.0
  0
LINE
  5
82
330
1E
100
AcDbEntity
  8
0
100
AcDbLine
 10
46.7
 20
253.4124999999999
 30
0.0
 11
50.0
 21
252.9125
 31
0.0
  0
LINE
  5
83
330
1E
100
AcDbEntity
  8
0
100
AcDbLine
 10
59.2
 20
256.7124999999999
 30
0.0
 11
61.29999999999999
 21
259.4125
 31
0.0
  0
LINE
  5
84
330
1E
100
AcDbEntity
  8
0
100
AcDbLine
 10
43.5
 20
254.6124999999999
 30
0.0
 11
46.7
 21
253.4124999999999
 31
0.0
  0
LINE
  5
85
330
1E
100
AcDbEntity
  8
0
100
AcDbLine
 10
43.3
 20
240.8125
 30
0.0
 11
50.0
 21
239.9125
 31
0.0
  0
LINE
  5
86
330
1E
100
AcDbEntity
  8
0
100
AcDbLine
 10
40.8
 20
256.7124999999999
 30
0.0
 11
43.5
 21
254.6124999999999
 31
0.0
  0
LINE
  5
87
330
1E
100
AcDbEntity
  8
0
100
AcDbLine
 10
38.7
 20
259.4125
 30
0.0
 11
40.8
 21
256.7124999999999
 31
0.0
  0
LINE
  5
88
330
1E
100
AcDbEntity
  8
0
100
AcDbLine
 10
39.0
 20
272.7982142857139
 30
0.0
 11
39.0
 21
629.9174999999999
 31
0.0
  0
LINE
  5
89
330
1E
100
AcDbEntity
  8
0
100
AcDbLine
 10
38.7
 20
272.4125
 30
0.0
 11
40.8
 21
275.1125
 31
0.0
  0
LINE
  5
8A
330
1E
100
AcDbEntity
  8
0
100
AcDbLine
 10
37.5
 20
269.2124999999999
 30
0.0
 11
38.7
 21
272.4125
 31
0.0
  0
LINE
  5
8B
330
1E
100
AcDbEntity
  8
0
100
AcDbLine
 10
40.8
 20
275.1125
 30
0.0
 11
43.5
 21
277.2124999999999
 31
0.0
  0
LINE
  5
8C
330
1E
100
AcDbEntity
  8
0
100
AcDbLine
 10
43.5
 20
277.2124999999999
 30
0.0
 11
46.7
 21
278.4125
 31
0.0
  0
LINE
  5
8D
330
1E
100
AcDbEntity
  8
0
100
AcDbLine
 10
61.0
 20
272.7982142857139
 30
0.0
 11
61.0
 21
630.0616791167179
 31
0.0
  0
LINE
  5
8E
330
1E
100
AcDbEntity
  8
0
100
AcDbLine
 10
56.5
 20
277.2124999999999
 30
0.0
 11
59.2
 21
275.1125
 31
0.0
  0
LINE
  5
8F
330
1E
100
AcDbEntity
  8
0
100
AcDbLine
 10
53.3
 20
278.4125
 30
0.0
 11
56.5
 21
277.2124999999999
 31
0.0
  0
LINE
  5
90
330
1E
100
AcDbEntity
  8
0
100
AcDbLine
 10
50.0
 20
278.9125
 30
0.0
 11
53.3
 21
278.4125
 31
0.0
  0
LINE
  5
91
330
1E
100
AcDbEntity
  8
0
100
AcDbLine
 10
59.2
 20
275.1125
 30
0.0
 11
61.29999999999999
 21
272.4125
 31
0.0
  0
LINE
  5
92
330
1E
100
AcDbEntity
  8
0
100
AcDbLine
 10
46.7
 20
278.4125
 30
0.0
 11
50.0
 21
278.9125
 31
0.0
  0
LINE
  5
93
330
1E
100
AcDbEntity
  8
0
100
AcDbLine
 10
39.0
 20
629.9174999999999
 30
0.0
 11
39.0
 21
272.7982142857139
 31
0.0
  0
LINE
  5
94
330
1E
100
AcDbEntity
  8
0
100
AcDbLine
 10
61.0
 20
289.209274193548
 30
0.0
 11
62.9
 21
288.4125
 31
0.0
  0
LINE
  5
95
330
1E
100
AcDbEntity
  8
0
100
AcDbLine
 10
37.1
 20
288.4125
 30
0.0
 11
39.0
 21
289.209274193548
 31
0.0
  0
LINE
  5
96
330
1E
100
AcDbEntity
  8
0
100
AcDbLine
 10
37.0
 20
265.9125
 30
0.0
 11
37.5
 21
262.6125
 31
0.0
  0
LINE
  5
97
330
1E
100
AcDbEntity
  8
0
100
AcDbLine
 10
37.0
 20
265.9125
 30
0.0
 11
37.5
 21
269.2124999999999
 31
0.0
  0
LINE
  5
98
330
1E
100
AcDbEntity
  8
0
100
AcDbLine
 10
37.5
 20
262.6125
 30
0.0
 11
38.7
 21
259.4125
 31
0.0
  0
LINE
  5
99
330
1E
100
AcDbEntity
  8
0
100
AcDbLine
 10
61.29999999999999
 20
259.4125
 30
0.0
 11
62.5
 21
262.6125
 31
0.0
  0
LINE
  5
9A
330
1E
100
AcDbEntity
  8
0
100
AcDbLine
 10
62.5
 20
262.6125
 30
0.0
 11
63.0
 21
265.9125
 31
0.0
  0
LINE
  5
9B
330
1E
100
AcDbEntity
  8
0
100
AcDbLine
 10
68.3
 20
247.6125
 30
0.0
 11
72.5
 21
253.0124999999999
 31
0.0
  0
LINE
  5
9C
330
1E
100
AcDbEntity
  8
0
100
AcDbLine
 10
75.1898
 20
0.0874999999999317
 30
0.0
 11
76.07559999999999
 21
525.4335
 31
0.0
  0
LINE
  5
9D
330
1E
100
AcDbEntity
  8
0
100
AcDbLine
 10
75.1898
 20
0.0874999999998896
 30
0.0
 11
75.4529
 21
0.216499999999909
 31
0.0
  0
LINE
  5
9E
330
1E
100
AcDbEntity
  8
0
100
AcDbLine
 10
75.1898
 20
0.0874999999998896
 30
0.0
 11
76.07559999999999
 21
525.4335
 31
0.0
  0
LINE
  5
9F
330
1E
100
AcDbEntity
  8
0
100
AcDbLine
 10
76.22580000000001
 20
0.595499999999899
 30
0.0
 11
78.1637
 21
1.54649999999989
 31
0.0
  0
LINE
  5
A0
330
1E
100
AcDbEntity
  8
0
100
AcDbLine
 10
75.4642638235082
 20
0.222082647048312
 30
0.0
 11
76.22580000000001
 21
0.595499999999899
 31
0.0
  0
LINE
  5
A1
330
1E
100
AcDbEntity
  8
0
100
AcDbLine
 10
75.4529
 20
0.216499999999909
 30
0.0
 11
76.8839
 21
0.9194999999999119
 31
0.0
  0
LINE
  5
A2
330
1E
100
AcDbEntity
  8
0
100
AcDbLine
 10
78.1637
 20
1.54649999999989
 30
0.0
 11
80.40902437642909
 21
2.64917913832772
 31
0.0
  0
LINE
  5
A3
330
1E
100
AcDbEntity
  8
0
100
AcDbLine
 10
76.8839
 20
0.9194999999999119
 30
0.0
 11
79.2813
 21
2.095499999999899
 31
0.0
  0
LINE
  5
A4
330
1E
100
AcDbEntity
  8
0
100
AcDbLine
 10
84.10529999999999
 20
4.462499999999889
 30
0.0
 11
85.9720359394832
 21
5.378768147520619
 31
0.0
  0
LINE
  5
A5
330
1E
100
AcDbEntity
  8
0
100
AcDbLine
 10
91.11200000000001
 20
7.901499999999929
 30
0.0
 11
92.0758
 21
525.4325
 31
0.0
  0
LINE
  5
A6
330
1E
100
AcDbEntity
  8
0
100
AcDbLine
 10
91.11200000000001
 20
7.90149999999991
 30
0.0
 11
92.0758
 21
525.4325
 31
0.0
  0
LINE
  5
A7
330
1E
100
AcDbEntity
  8
0
100
AcDbLine
 10
90.0819
 20
7.39549999999991
 30
0.0
 11
91.11200000000001
 21
7.90149999999991
 31
0.0
  0
LINE
  5
A8
330
1E
100
AcDbEntity
  8
0
100
AcDbLine
 10
88.1426
 20
6.44349999999992
 30
0.0
 11
90.0819
 21
7.39549999999991
 31
0.0
  0
LINE
  5
A9
330
1E
100
AcDbEntity
  8
0
100
AcDbLine
 10
85.34359999999999
 20
5.0704999999999
 30
0.0
 11
88.1426
 21
6.44349999999992
 31
0.0
  0
LINE
  5
AA
330
1E
100
AcDbEntity
  8
0
100
AcDbLine
 10
82.1939
 20
3.525499999999879
 30
0.0
 11
85.34359999999999
 21
5.0704999999999
 31
0.0
  0
LINE
  5
AB
330
1E
100
AcDbEntity
  8
0
100
AcDbLine
 10
81.1106677715275
 20
2.993665183438849
 30
0.0
 11
84.10529999999999
 21
4.462499999999889
 31
0.0
  0
LINE
  5
AC
330
1E
100
AcDbEntity
  8
0
100
AcDbLine
 10
79.2813
 20
2.095499999999899
 30
0.0
 11
82.1939
 21
3.525499999999879
 31
0.0
  0
LINE
  5
AD
330
1E
100
AcDbEntity
  8
0
100
AcDbLine
 10
72.5
 20
253.0124999999999
 30
0.0
 11
75.09999999999999
 21
259.2124999999999
 31
0.0
  0
LINE
  5
AE
330
1E
100
AcDbEntity
  8
0
100
AcDbLine
 10
75.09999999999999
 20
259.2124999999999
 30
0.0
 11
75.6334131721847
 21
263.1834647262639
 31
0.0
  0
LINE
  5
AF
330
1E
100
AcDbEntity
  8
0
100
AcDbLine
 10
62.9
 20
243.4124999999999
 30
0.0
 11
68.3
 21
247.6125
 31
0.0
  0
LINE
  5
B0
330
1E
100
AcDbEntity
  8
0
100
AcDbLine
 10
62.5
 20
269.2124999999999
 30
0.0
 11
63.0
 21
265.9125
 31
0.0
  0
LINE
  5
B1
330
1E
100
AcDbEntity
  8
0
100
AcDbLine
 10
61.29999999999999
 20
272.4125
 30
0.0
 11
62.5
 21
269.2124999999999
 31
0.0
  0
LINE
  5
B2
330
1E
100
AcDbEntity
  8
0
100
AcDbLine
 10
62.9
 20
288.4125
 30
0.0
 11
68.3
 21
284.2124999999999
 31
0.0
  0
LINE
  5
B3
330
1E
100
AcDbEntity
  8
0
100
AcDbLine
 10
70.0
 20
629.9174999999999
 30
0.0
 11
70.0
 21
630.5035
 31
0.0
  0
LINE
  5
B4
330
1E
100
AcDbEntity
  8
0
100
AcDbLine
 10
70.0
 20
629.9174999999999
 30
0.0
 11
75.9388260409792
 21
629.9165101956599
 31
0.0
  0
LINE
  5
B5
330
1E
100
AcDbEntity
  8
0
100
AcDbLine
 10
92.05960000000001
 20
558.4335
 30
0.0
 11
92.0758
 21
525.4325
 31
0.0
  0
LINE
  5
B6
330
1E
100
AcDbEntity
  8
0
100
AcDbLine
 10
76.05970000000001
 20
558.4344999999999
 30
0.0
 11
76.07559999999999
 21
525.4335
 31
0.0
  0
LINE
  5
B8
330
1E
100
AcDbEntity
  8
0
100
AcDbLine
 10
92.0306
 20
581.4394999999999
 30
0.0
 11
92.05960000000001
 21
558.4335
 31
0.0
  0
LINE
  5
B9
330
1E
100
AcDbEntity
  8
0
100
AcDbLine
 10
91.98959999999999
 20
606.2374999999999
 30
0.0
 11
92.0306
 21
581.4394999999999
 31
0.0
  0
LINE
  5
BA
330
1E
100
AcDbEntity
  8
0
100
AcDbLine
 10
76.03159999999999
 20
581.4315
 30
0.0
 11
76.05970000000001
 21
558.4344999999999
 31
0.0
  0
LINE
  5
BB
330
1E
100
AcDbEntity
  8
0
100
AcDbLine
 10
75.9897
 20
606.2285000000001
 30
0.0
 11
76.03159999999999
 21
581.4315
 31
0.0
  0
LINE
  5
BC
330
1E
100
AcDbEntity
  8
0
100
AcDbLine
 10
72.5
 20
278.8124999999999
 30
0.0
 11
75.09999999999999
 21
272.6125
 31
0.0
  0
LINE
  5
BD
330
1E
100
AcDbEntity
  8
0
100
AcDbLine
 10
68.3
 20
284.2124999999999
 30
0.0
 11
72.5
 21
278.8124999999999
 31
0.0
  0
LINE
  5
BE
330
1E
100
AcDbEntity
  8
0
100
AcDbLine
 10
75.09999999999999
 20
272.6125
 30
0.0
 11
75.6425020849667
 21
268.57387336747
 31
0.0
  0
LINE
  5
BF
330
1E
100
AcDbEntity
  8
0
100
AcDbLine
 10
61.0
 20
629.9174999999999
 30
0.0
 11
70.0
 21
629.9174999999999
 31
0.0
  0
LINE
  5
C0
330
1E
100
AcDbEntity
  8
0
100
AcDbLine
 10
61.0
 20
630.0616791167179
 30
0.0
 11
61.0
 21
272.7982142857139
 31
0.0
  0
LINE
  5
C6
330
1E
100
AcDbEntity
  8
0
100
AcDbLine
 10
70.0
 20
630.5035
 30
0.0
 11
70.0
 21
629.9174999999999
 31
0.0
  0
LINE
  5
C7
330
1E
100
AcDbEntity
  8
0
100
AcDbLine
 10
70.0
 20
630.5035
 30
0.0
 11
70.0
 21
632.3685
 31
0.0
  0
LINE
  5
C8
330
1E
100
AcDbEntity
  8
0
100
AcDbLine
 10
33.42049999999999
 20
629.9174999999999
 30
0.0
 11
61.0
 21
630.0616791167179
 31
0.0
  0
LINE
  5
C9
330
1E
100
AcDbEntity
  8
0
100
AcDbLine
 10
32.66669999999999
 20
630.3995
 30
0.0
 11
32.66669999999999
 21
630.9955
 31
0.0
  0
LINE
  5
CA
330
1E
100
AcDbEntity
  8
0
100
AcDbLine
 10
32.66669999999999
 20
630.3995
 30
0.0
 11
33.42049999999999
 21
629.9174999999999
 31
0.0
  0
LINE
  5
CB
330
1E
100
AcDbEntity
  8
0
100
AcDbLine
 10
32.66669999999999
 20
643.3804999999999
 30
0.0
 11
32.66669999999999
 21
639.1285
 31
0.0
  0
LINE
  5
CC
330
1E
100
AcDbEntity
  8
0
100
AcDbLine
 10
32.66669999999999
 20
643.3804999999999
 30
0.0
 11
32.66669999999999
 21
647.8614999999999
 31
0.0
  0
LINE
  5
CD
330
1E
100
AcDbEntity
  8
0
100
AcDbLine
 10
32.66669999999999
 20
647.8614999999999
 30
0.0
 11
32.66669999999999
 21
643.3804999999999
 31
0.0
  0
LINE
  5
CE
330
1E
100
AcDbEntity
  8
0
100
AcDbLine
 10
32.66669999999999
 20
647.8614999999999
 30
0.0
 11
32.66669999999999
 21
652.4455
 31
0.0
  0
LINE
  5
CF
330
1E
100
AcDbEntity
  8
0
100
AcDbLine
 10
32.66669999999999
 20
652.4455
 30
0.0
 11
32.66669999999999
 21
647.8614999999999
 31
0.0
  0
LINE
  5
D0
330
1E
100
AcDbEntity
  8
0
100
AcDbLine
 10
32.66669999999999
 20
652.4455
 30
0.0
 11
32.66669999999999
 21
656.7134999999999
 31
0.0
  0
LINE
  5
D1
330
1E
100
AcDbEntity
  8
0
100
AcDbLine
 10
32.66669999999999
 20
656.7134999999999
 30
0.0
 11
32.66669999999999
 21
652.4455
 31
0.0
  0
LINE
  5
D2
330
1E
100
AcDbEntity
  8
0
100
AcDbLine
 10
32.66669999999999
 20
656.7134999999999
 30
0.0
 11
32.66669999999999
 21
660.2975
 31
0.0
  0
LINE
  5
D3
330
1E
100
AcDbEntity
  8
0
100
AcDbLine
 10
32.66669999999999
 20
660.2975
 30
0.0
 11
32.66669999999999
 21
656.7134999999999
 31
0.0
  0
LINE
  5
D4
330
1E
100
AcDbEntity
  8
0
100
AcDbLine
 10
32.66669999999999
 20
660.2975
 30
0.0
 11
32.66669999999999
 21
663.1264999999999
 31
0.0
  0
LINE
  5
D5
330
1E
100
AcDbEntity
  8
0
100
AcDbLine
 10
32.66669999999999
 20
665.4255
 30
0.0
 11
32.66669999999999
 21
664.8334999999999
 31
0.0
  0
LINE
  5
D6
330
1E
100
AcDbEntity
  8
0
100
AcDbLine
 10
32.66669999999999
 20
665.4255
 30
0.0
 11
33.42049999999999
 21
665.9075
 31
0.0
  0
LINE
  5
D7
330
1E
100
AcDbEntity
  8
0
100
AcDbLine
 10
32.66669999999999
 20
664.8334999999999
 30
0.0
 11
32.66669999999999
 21
663.1264999999999
 31
0.0
  0
LINE
  5
D8
330
1E
100
AcDbEntity
  8
0
100
AcDbLine
 10
32.66669999999999
 20
664.8334999999999
 30
0.0
 11
32.66669999999999
 21
665.4255
 31
0.0
  0
LINE
  5
D9
330
1E
100
AcDbEntity
  8
0
100
AcDbLine
 10
32.66669999999999
 20
663.1264999999999
 30
0.0
 11
32.66669999999999
 21
660.2975
 31
0.0
  0
LINE
  5
DA
330
1E
100
AcDbEntity
  8
0
100
AcDbLine
 10
32.66669999999999
 20
663.1264999999999
 30
0.0
 11
32.66669999999999
 21
664.8334999999999
 31
0.0
  0
LINE
  5
DB
330
1E
100
AcDbEntity
  8
0
100
AcDbLine
 10
32.66669999999999
 20
639.1285
 30
0.0
 11
32.66669999999999
 21
635.5245
 31
0.0
  0
LINE
  5
DC
330
1E
100
AcDbEntity
  8
0
100
AcDbLine
 10
32.66669999999999
 20
639.1285
 30
0.0
 11
32.66669999999999
 21
643.3804999999999
 31
0.0
  0
LINE
  5
DD
330
1E
100
AcDbEntity
  8
0
100
AcDbLine
 10
32.66669999999999
 20
635.5245
 30
0.0
 11
32.66669999999999
 21
632.7714999999999
 31
0.0
  0
LINE
  5
DE
330
1E
100
AcDbEntity
  8
0
100
AcDbLine
 10
32.66669999999999
 20
635.5245
 30
0.0
 11
32.66669999999999
 21
639.1285
 31
0.0
  0
LINE
  5
E2
330
1E
100
AcDbEntity
  8
0
100
AcDbLine
 10
75.9358
 20
631.3255
 30
0.0
 11
76.0
 21
635.2215
 31
0.0
  0
LINE
  5
E4
330
1E
100
AcDbEntity
  8
0
100
AcDbLine
 10
91.93470000000001
 20
631.3345
 30
0.0
 11
91.98959999999999
 21
606.2374999999999
 31
0.0
  0
LINE
  5
E5
330
1E
100
AcDbEntity
  8
0
100
AcDbLine
 10
75.9358
 20
631.3255
 30
0.0
 11
75.9897
 21
606.2285000000001
 31
0.0
  0
LINE
  5
E8
330
1E
100
AcDbEntity
  8
0
100
AcDbLine
 10
70.0
 20
643.2274999999999
 30
0.0
 11
70.0
 21
638.9124999999999
 31
0.0
  0
LINE
  5
E9
330
1E
100
AcDbEntity
  8
0
100
AcDbLine
 10
70.0
 20
643.2274999999999
 30
0.0
 11
70.0
 21
647.8324999999999
 31
0.0
  0
LINE
  5
EA
330
1E
100
AcDbEntity
  8
0
100
AcDbLine
 10
70.0
 20
647.8324999999999
 30
0.0
 11
70.0
 21
643.2274999999999
 31
0.0
  0
LINE
  5
EB
330
1E
100
AcDbEntity
  8
0
100
AcDbLine
 10
70.0
 20
647.8324999999999
 30
0.0
 11
70.0
 21
652.5775
 31
0.0
  0
LINE
  5
EC
330
1E
100
AcDbEntity
  8
0
100
AcDbLine
 10
70.0
 20
652.5775
 30
0.0
 11
70.0
 21
647.8324999999999
 31
0.0
  0
LINE
  5
ED
330
1E
100
AcDbEntity
  8
0
100
AcDbLine
 10
70.0
 20
652.5775
 30
0.0
 11
70.0
 21
656.9795
 31
0.0
  0
LINE
  5
EE
330
1E
100
AcDbEntity
  8
0
100
AcDbLine
 10
70.0
 20
656.9795
 30
0.0
 11
70.0
 21
652.5775
 31
0.0
  0
LINE
  5
EF
330
1E
100
AcDbEntity
  8
0
100
AcDbLine
 10
70.0
 20
656.9795
 30
0.0
 11
70.0
 21
660.6354999999999
 31
0.0
  0
LINE
  5
F1
330
1E
100
AcDbEntity
  8
0
100
AcDbLine
 10
70.0
 20
665.2324999999999
 30
0.0
 11
70.0
 21
703.3384999999999
 31
0.0
  0
LINE
  5
F4
330
1E
100
AcDbEntity
  8
0
100
AcDbLine
 10
70.0
 20
665.2324999999999
 30
0.0
 11
70.0
 21
663.5004999999999
 31
0.0
  0
LINE
  5
F5
330
1E
100
AcDbEntity
  8
0
100
AcDbLine
 10
39.0
 20
665.806219556036
 30
0.0
 11
39.0
 21
885.026785714286
 31
0.0
  0
LINE
  5
F6
330
1E
100
AcDbEntity
  8
0
100
AcDbLine
 10
61.0
 20
665.9075
 30
0.0
 11
70.0
 21
665.9075
 31
0.0
  0
LINE
  5
F7
330
1E
100
AcDbEntity
  8
0
100
AcDbLine
 10
61.0
 20
665.9075
 30
0.0
 11
61.0
 21
885.026785714286
 31
0.0
  0
LINE
  5
F8
330
1E
100
AcDbEntity
  8
0
100
AcDbLine
 10
33.42049999999999
 20
665.9075
 30
0.0
 11
61.0
 21
665.9075
 31
0.0
  0
LINE
  5
F9
330
1E
100
AcDbEntity
  8
0
100
AcDbLine
 10
37.1
 20
869.4124999999999
 30
0.0
 11
39.0
 21
868.615725806452
 31
0.0
  0
LINE
  5
FA
330
1E
100
AcDbEntity
  8
0
100
AcDbLine
 10
40.8
 20
882.7125
 30
0.0
 11
43.5
 21
880.6124999999999
 31
0.0
  0
LINE
  5
FB
330
1E
100
AcDbEntity
  8
0
100
AcDbLine
 10
43.5
 20
880.6124999999999
 30
0.0
 11
46.7
 21
879.4125000000001
 31
0.0
  0
LINE
  5
FC
330
1E
100
AcDbEntity
  8
0
100
AcDbLine
 10
46.7
 20
879.4125000000001
 30
0.0
 11
50.0
 21
878.9125
 31
0.0
  0
LINE
  5
FD
330
1E
100
AcDbEntity
  8
0
100
AcDbLine
 10
56.5
 20
880.6124999999999
 30
0.0
 11
59.2
 21
882.7125
 31
0.0
  0
LINE
  5
FE
330
1E
100
AcDbEntity
  8
0
100
AcDbLine
 10
53.3
 20
879.4125000000001
 30
0.0
 11
56.5
 21
880.6124999999999
 31
0.0
  0
LINE
  5
FF
330
1E
100
AcDbEntity
  8
0
100
AcDbLine
 10
50.0
 20
878.9125
 30
0.0
 11
53.3
 21
879.4125000000001
 31
0.0
  0
LINE
  5
100
330
1E
100
AcDbEntity
  8
0
100
AcDbLine
 10
61.0
 20
868.615725806452
 30
0.0
 11
62.9
 21
869.4124999999999
 31
0.0
  0
LINE
  5
101
330
1E
100
AcDbEntity
  8
0
100
AcDbLine
 10
61.0
 20
885.026785714286
 30
0.0
 11
61.0
 21
665.9075
 31
0.0
  0
LINE
  5
102
330
1E
100
AcDbEntity
  8
0
100
AcDbLine
 10
39.0
 20
885.026785714286
 30
0.0
 11
39.0
 21
665.806219556036
 31
0.0
  0
LINE
  5
103
330
1E
100
AcDbEntity
  8
0
100
AcDbLine
 10
38.7
 20
885.4124999999999
 30
0.0
 11
40.8
 21
882.7125
 31
0.0
  0
LINE
  5
104
330
1E
100
AcDbEntity
  8
0
100
AcDbLine
 10
37.5
 20
888.6124999999999
 30
0.0
 11
38.7
 21
885.4124999999999
 31
0.0
  0
LINE
  5
105
330
1E
100
AcDbEntity
  8
0
100
AcDbLine
 10
59.2
 20
882.7125
 30
0.0
 11
61.29999999999999
 21
885.4124999999999
 31
0.0
  0
LINE
  5
106
330
1E
100
AcDbEntity
  8
0
100
AcDbLine
 10
62.9
 20
869.4124999999999
 30
0.0
 11
68.3
 21
873.6124999999999
 31
0.0
  0
LINE
  5
107
330
1E
100
AcDbEntity
  8
0
100
AcDbLine
 10
61.29999999999999
 20
885.4124999999999
 30
0.0
 11
62.5
 21
888.6124999999999
 31
0.0
  0
LINE
  5
108
330
1E
100
AcDbEntity
  8
0
100
AcDbLine
 10
40.8
 20
901.1124999999999
 30
0.0
 11
43.5
 21
903.2125
 31
0.0
  0
LINE
  5
109
330
1E
100
AcDbEntity
  8
0
100
AcDbLine
 10
43.5
 20
903.2125
 30
0.0
 11
46.7
 21
904.4125000000001
 31
0.0
  0
LINE
  5
10A
330
1E
100
AcDbEntity
  8
0
100
AcDbLine
 10
46.7
 20
904.4125000000001
 30
0.0
 11
50.0
 21
904.9125
 31
0.0
  0
LINE
  5
10B
330
1E
100
AcDbEntity
  8
0
100
AcDbLine
 10
38.7
 20
898.4125
 30
0.0
 11
40.8
 21
901.1124999999999
 31
0.0
  0
LINE
  5
10C
330
1E
100
AcDbEntity
  8
0
100
AcDbLine
 10
37.5
 20
895.2125
 30
0.0
 11
38.7
 21
898.4125
 31
0.0
  0
LINE
  5
10D
330
1E
100
AcDbEntity
  8
0
100
AcDbLine
 10
37.0
 20
891.9125000000001
 30
0.0
 11
37.5
 21
895.2125
 31
0.0
  0
LINE
  5
10E
330
1E
100
AcDbEntity
  8
0
100
AcDbLine
 10
37.0
 20
891.9125000000001
 30
0.0
 11
37.5
 21
888.6124999999999
 31
0.0
  0
LINE
  5
10F
330
1E
100
AcDbEntity
  8
0
100
AcDbLine
 10
37.1
 20
914.4125
 30
0.0
 11
43.3
 21
917.0125
 31
0.0
  0
LINE
  5
110
330
1E
100
AcDbEntity
  8
0
100
AcDbLine
 10
43.3
 20
917.0125
 30
0.0
 11
50.0
 21
917.9125
 31
0.0
  0
LINE
  5
111
330
1E
100
AcDbEntity
  8
0
100
AcDbLine
 10
50.0
 20
904.9125
 30
0.0
 11
53.3
 21
904.4125000000001
 31
0.0
  0
LINE
  5
112
330
1E
100
AcDbEntity
  8
0
100
AcDbLine
 10
59.2
 20
901.1124999999999
 30
0.0
 11
61.29999999999999
 21
898.4125
 31
0.0
  0
LINE
  5
113
330
1E
100
AcDbEntity
  8
0
100
AcDbLine
 10
62.5
 20
895.2125
 30
0.0
 11
63.0
 21
891.9125000000001
 31
0.0
  0
LINE
  5
114
330
1E
100
AcDbEntity
  8
0
100
AcDbLine
 10
61.29999999999999
 20
898.4125
 30
0.0
 11
62.5
 21
895.2125
 31
0.0
  0
LINE
  5
115
330
1E
100
AcDbEntity
  8
0
100
AcDbLine
 10
53.3
 20
904.4125000000001
 30
0.0
 11
56.5
 21
903.2125
 31
0.0
  0
LINE
  5
116
330
1E
100
AcDbEntity
  8
0
100
AcDbLine
 10
56.5
 20
903.2125
 30
0.0
 11
59.2
 21
901.1124999999999
 31
0.0
  0
LINE
  5
117
330
1E
100
AcDbEntity
  8
0
100
AcDbLine
 10
68.3
 20
910.2124999999999
 30
0.0
 11
72.5
 21
904.8125
 31
0.0
  0
LINE
  5
118
330
1E
100
AcDbEntity
  8
0
100
AcDbLine
 10
62.9
 20
914.4125
 30
0.0
 11
68.3
 21
910.2124999999999
 31
0.0
  0
LINE
  5
119
330
1E
100
AcDbEntity
  8
0
100
AcDbLine
 10
56.7
 20
917.0125
 30
0.0
 11
62.9
 21
914.4125
 31
0.0
  0
LINE
  5
11A
330
1E
100
AcDbEntity
  8
0
100
AcDbLine
 10
50.0
 20
917.9125
 30
0.0
 11
56.7
 21
917.0125
 31
0.0
  0
LINE
  5
11B
330
1E
100
AcDbEntity
  8
0
100
AcDbLine
 10
62.5
 20
888.6124999999999
 30
0.0
 11
63.0
 21
891.9125000000001
 31
0.0
  0
LINE
  5
11C
330
1E
100
AcDbEntity
  8
0
100
AcDbLine
 10
70.0
 20
703.3384999999999
 30
0.0
 11
70.0
 21
665.2324999999999
 31
0.0
  0
LINE
  5
11D
330
1E
100
AcDbEntity
  8
0
100
AcDbLine
 10
70.0
 20
703.3384999999999
 30
0.0
 11
70.50399999999999
 21
701.5744999999999
 31
0.0
  0
LINE
  5
11E
330
1E
100
AcDbEntity
  8
0
100
AcDbLine
 10
70.0
 20
703.3384999999999
 30
0.0
 11
70.50399999999999
 21
705.1014999999999
 31
0.0
  0
LINE
  5
11F
330
1E
100
AcDbEntity
  8
0
100
AcDbLine
 10
68.3
 20
873.6124999999999
 30
0.0
 11
72.5
 21
879.0125000000001
 31
0.0
  0
LINE
  5
120
330
1E
100
AcDbEntity
  8
0
100
AcDbLine
 10
70.0
 20
665.9075
 30
0.0
 11
70.0
 21
665.2435
 31
0.0
  0
LINE
  5
122
330
1E
100
AcDbEntity
  8
0
100
AcDbLine
 10
70.0
 20
665.2435
 30
0.0
 11
70.0
 21
663.5004999999999
 31
0.0
  0
LINE
  5
123
330
1E
100
AcDbEntity
  8
0
100
AcDbLine
 10
70.0
 20
665.2435
 30
0.0
 11
70.0
 21
665.9075
 31
0.0
  0
LINE
  5
124
330
1E
100
AcDbEntity
  8
0
100
AcDbLine
 10
70.0
 20
660.6354999999999
 30
0.0
 11
70.0
 21
656.9795
 31
0.0
  0
LINE
  5
125
330
1E
100
AcDbEntity
  8
0
100
AcDbLine
 10
70.0
 20
660.6354999999999
 30
0.0
 11
70.0
 21
663.5004999999999
 31
0.0
  0
LINE
  5
126
330
1E
100
AcDbEntity
  8
0
100
AcDbLine
 10
70.0
 20
663.5004999999999
 30
0.0
 11
70.0
 21
660.6354999999999
 31
0.0
  0
LINE
  5
127
330
1E
100
AcDbEntity
  8
0
100
AcDbLine
 10
70.0
 20
663.5004999999999
 30
0.0
 11
70.0
 21
665.2324999999999
 31
0.0
  0
LINE
  5
128
330
1E
100
AcDbEntity
  8
0
100
AcDbLine
 10
70.0
 20
663.5004999999999
 30
0.0
 11
70.0
 21
665.2435
 31
0.0
  0
LINE
  5
129
330
1E
100
AcDbEntity
  8
0
100
AcDbLine
 10
70.0
 20
638.9124999999999
 30
0.0
 11
70.0
 21
635.2454999999999
 31
0.0
  0
LINE
  5
12A
330
1E
100
AcDbEntity
  8
0
100
AcDbLine
 10
70.0
 20
638.9124999999999
 30
0.0
 11
70.0
 21
643.2274999999999
 31
0.0
  0
LINE
  5
137
330
1E
100
AcDbEntity
  8
0
100
AcDbLine
 10
71.848
 20
699.9204999999999
 30
0.0
 11
74.08800000000001
 21
698.4605
 31
0.0
  0
LINE
  5
138
330
1E
100
AcDbEntity
  8
0
100
AcDbLine
 10
70.50399999999999
 20
701.5744999999999
 30
0.0
 11
71.848
 21
699.9204999999999
 31
0.0
  0
LINE
  5
139
330
1E
100
AcDbEntity
  8
0
100
AcDbLine
 10
71.848
 20
706.7554999999999
 30
0.0
 11
74.08800000000001
 21
708.2164999999999
 31
0.0
  0
LINE
  5
13A
330
1E
100
AcDbEntity
  8
0
100
AcDbLine
 10
70.50399999999999
 20
705.1014999999999
 30
0.0
 11
71.848
 21
706.7554999999999
 31
0.0
  0
LINE
  5
16D
330
1E
100
AcDbEntity
  8
0
100
AcDbLine
 10
76.0
 20
635.2215
 30
0.0
 11
76.0
 21
638.9124999999999
 31
0.0
  0
LINE
  5
16E
330
1E
100
AcDbEntity
  8
0
100
AcDbLine
 10
76.0
 20
635.2215
 30
0.0
 11
75.9358
 21
631.3255
 31
0.0
  0
LINE
  5
16F
330
1E
100
AcDbEntity
  8
0
100
AcDbLine
 10
76.0
 20
652.5744999999999
 30
0.0
 11
76.0
 21
656.9785
 31
0.0
  0
LINE
  5
170
330
1E
100
AcDbEntity
  8
0
100
AcDbLine
 10
76.0
 20
652.5744999999999
 30
0.0
 11
76.0
 21
647.8324999999999
 31
0.0
  0
LINE
  5
171
330
1E
100
AcDbEntity
  8
0
100
AcDbLine
 10
76.0
 20
647.8324999999999
 30
0.0
 11
76.0
 21
652.5744999999999
 31
0.0
  0
LINE
  5
172
330
1E
100
AcDbEntity
  8
0
100
AcDbLine
 10
76.0
 20
647.8324999999999
 30
0.0
 11
76.0
 21
643.2034999999999
 31
0.0
  0
LINE
  5
173
330
1E
100
AcDbEntity
  8
0
100
AcDbLine
 10
76.0
 20
643.2034999999999
 30
0.0
 11
76.0
 21
647.8324999999999
 31
0.0
  0
LINE
  5
174
330
1E
100
AcDbEntity
  8
0
100
AcDbLine
 10
76.0
 20
643.2034999999999
 30
0.0
 11
76.0
 21
638.9124999999999
 31
0.0
  0
LINE
  5
175
330
1E
100
AcDbEntity
  8
0
100
AcDbLine
 10
76.0
 20
638.9124999999999
 30
0.0
 11
76.0
 21
643.2034999999999
 31
0.0
  0
LINE
  5
176
330
1E
100
AcDbEntity
  8
0
100
AcDbLine
 10
76.0
 20
638.9124999999999
 30
0.0
 11
76.0
 21
635.2215
 31
0.0
  0
LINE
  5
179
330
1E
100
AcDbEntity
  8
0
100
AcDbLine
 10
76.0
 20
636.2045000000001
 30
0.0
 11
76.0
 21
661.4924999999999
 31
0.0
  0
LINE
  5
17C
330
1E
100
AcDbEntity
  8
0
100
AcDbLine
 10
76.0
 20
656.9785
 30
0.0
 11
76.0
 21
652.5744999999999
 31
0.0
  0
LINE
  5
17D
330
1E
100
AcDbEntity
  8
0
100
AcDbLine
 10
76.0
 20
661.4924999999999
 30
0.0
 11
76.0
 21
659.6224999999999
 31
0.0
  0
LINE
  5
17E
330
1E
100
AcDbEntity
  8
0
100
AcDbLine
 10
76.0
 20
661.4924999999999
 30
0.0
 11
76.0
 21
681.351810344828
 31
0.0
  0
LINE
  5
182
330
1E
100
AcDbEntity
  8
0
100
AcDbLine
 10
76.0
 20
659.6224999999999
 30
0.0
 11
76.0
 21
697.7274999999999
 31
0.0
  0
LINE
  5
183
330
1E
100
AcDbEntity
  8
0
100
AcDbLine
 10
76.0
 20
659.6224999999999
 30
0.0
 11
76.0
 21
661.4924999999999
 31
0.0
  0
LINE
  5
190
330
1E
100
AcDbEntity
  8
0
100
AcDbLine
 10
84.0
 20
671.6205
 30
0.0
 11
86.6
 21
671.8215
 31
0.0
  0
LINE
  5
191
330
1E
100
AcDbEntity
  8
0
100
AcDbLine
 10
92.1516
 20
642.3384999999999
 30
0.0
 11
93.51399999999999
 21
644.1665
 31
0.0
  0
LINE
  5
192
330
1E
100
AcDbEntity
  8
0
100
AcDbLine
 10
93.51399999999999
 20
644.1665
 30
0.0
 11
94.4828
 21
646.0164999999999
 31
0.0
  0
LINE
  5
193
330
1E
100
AcDbEntity
  8
0
100
AcDbLine
 10
93.8319
 20
642.1174999999999
 30
0.0
 11
96.13269999999999
 21
644.9545
 31
0.0
  0
LINE
  5
194
330
1E
100
AcDbEntity
  8
0
100
AcDbLine
 10
91.87914149459629
 20
649.691856806928
 30
0.0
 11
93.451
 21
649.4895
 31
0.0
  0
LINE
  5
195
330
1E
100
AcDbEntity
  8
0
100
AcDbLine
 10
93.451
 20
649.4895
 30
0.0
 11
94.57410000000001
 21
648.8125
 31
0.0
  0
LINE
  5
196
330
1E
100
AcDbEntity
  8
0
100
AcDbLine
 10
94.57410000000001
 20
648.8125
 30
0.0
 11
94.95200000000002
 21
647.6774999999999
 31
0.0
  0
LINE
  5
198
330
1E
100
AcDbEntity
  8
0
100
AcDbLine
 10
94.4828
 20
646.0164999999999
 30
0.0
 11
94.95200000000002
 21
647.6774999999999
 31
0.0
  0
LINE
  5
199
330
1E
100
AcDbEntity
  8
0
100
AcDbLine
 10
91.87339952084039
 20
651.589090367245
 30
0.0
 11
93.94519999999999
 21
651.9154999999999
 31
0.0
  0
LINE
  5
19A
330
1E
100
AcDbEntity
  8
0
100
AcDbLine
 10
93.94519999999999
 20
651.9154999999999
 30
0.0
 11
96.461
 21
651.9714999999999
 31
0.0
  0
LINE
  5
19B
330
1E
100
AcDbEntity
  8
0
100
AcDbLine
 10
96.461
 20
651.9714999999999
 30
0.0
 11
97.62999999999999
 21
651.0534999999999
 31
0.0
  0
LINE
  5
19C
330
1E
100
AcDbEntity
  8
0
100
AcDbLine
 10
96.13269999999999
 20
644.9545
 30
0.0
 11
97.43450000000001
 21
647.4595
 31
0.0
  0
LINE
  5
19D
330
1E
100
AcDbEntity
  8
0
100
AcDbLine
 10
97.62999999999999
 20
651.0534999999999
 30
0.0
 11
98.0
 21
649.6445
 31
0.0
  0
LINE
  5
19E
330
1E
100
AcDbEntity
  8
0
100
AcDbLine
 10
97.43450000000001
 20
647.4595
 30
0.0
 11
98.0
 21
649.6445
 31
0.0
  0
LINE
  5
19F
330
1E
100
AcDbEntity
  8
0
100
AcDbLine
 10
92.0457
 20
640.4294999999999
 30
0.0
 11
92.1516
 21
642.3384999999999
 31
0.0
  0
LINE
  5
1A0
330
1E
100
AcDbEntity
  8
0
100
AcDbLine
 10
92.0457
 20
640.4294999999999
 30
0.0
 11
93.8319
 21
642.1174999999999
 31
0.0
  0
LINE
  5
1A1
330
1E
100
AcDbEntity
  8
0
100
AcDbLine
 10
98.0
 20
649.6445
 30
0.0
 11
98.0
 21
703.3384999999999
 31
0.0
  0
LINE
  5
1A2
330
1E
100
AcDbEntity
  8
0
100
AcDbLine
 10
92.0
 20
661.4924999999999
 30
0.0
 11
92.0
 21
659.6224999999999
 31
0.0
  0
LINE
  5
1A3
330
1E
100
AcDbEntity
  8
0
100
AcDbLine
 10
92.0
 20
661.4924999999999
 30
0.0
 11
92.0
 21
681.351810344828
 31
0.0
  0
LINE
  5
1BA
330
1E
100
AcDbEntity
  8
0
100
AcDbLine
 10
92.0
 20
659.6224999999999
 30
0.0
 11
92.0
 21
697.7274999999999
 31
0.0
  0
LINE
  5
1BC
330
1E
100
AcDbEntity
  8
0
100
AcDbLine
 10
92.0
 20
659.6224999999999
 30
0.0
 11
92.0
 21
661.4924999999999
 31
0.0
  0
LINE
  5
1BF
330
1E
100
AcDbEntity
  8
0
100
AcDbLine
 10
92.0
 20
659.6224999999999
 30
0.0
 11
91.93470000000001
 21
631.3345
 31
0.0
  0
LINE
  5
1C0
330
1E
100
AcDbEntity
  8
0
100
AcDbLine
 10
86.6
 20
671.8215
 30
0.0
 11
89.0
 21
672.2714999999999
 31
0.0
  0
LINE
  5
1C1
330
1E
100
AcDbEntity
  8
0
100
AcDbLine
 10
89.0
 20
672.2714999999999
 30
0.0
 11
91.09999999999999
 21
673.0715
 31
0.0
  0
LINE
  5
1C2
330
1E
100
AcDbEntity
  8
0
100
AcDbLine
 10
81.4
 20
671.8215
 30
0.0
 11
84.0
 21
671.6205
 31
0.0
  0
LINE
  5
1C5
330
1E
100
AcDbEntity
  8
0
100
AcDbLine
 10
79.0
 20
672.2714999999999
 30
0.0
 11
81.4
 21
671.8215
 31
0.0
  0
LINE
  5
1C6
330
1E
100
AcDbEntity
  8
0
100
AcDbLine
 10
76.90000000000001
 20
673.0715
 30
0.0
 11
79.0
 21
672.2714999999999
 31
0.0
  0
LINE
  5
1CD
330
1E
100
AcDbEntity
  8
0
100
AcDbLine
 10
74.08800000000001
 20
698.4605
 30
0.0
 11
76.0
 21
697.7274999999999
 31
0.0
  0
LINE
  5
1CE
330
1E
100
AcDbEntity
  8
0
100
AcDbLine
 10
76.0
 20
681.351810344828
 30
0.0
 11
76.0
 21
661.4924999999999
 31
0.0
  0
LINE
  5
1CF
330
1E
100
AcDbEntity
  8
0
100
AcDbLine
 10
84.0
 20
696.8524999999999
 30
0.0
 11
87.0
 21
697.0515
 31
0.0
  0
LINE
  5
1D1
330
1E
100
AcDbEntity
  8
0
100
AcDbLine
 10
92.0
 20
681.351810344828
 30
0.0
 11
92.0
 21
661.4924999999999
 31
0.0
  0
LINE
  5
1D2
330
1E
100
AcDbEntity
  8
0
100
AcDbLine
 10
87.0
 20
697.0515
 30
0.0
 11
89.7
 21
697.6024999999999
 31
0.0
  0
LINE
  5
1D3
330
1E
100
AcDbEntity
  8
0
100
AcDbLine
 10
89.7
 20
697.6024999999999
 30
0.0
 11
92.09999999999999
 21
698.5515
 31
0.0
  0
LINE
  5
1D4
330
1E
100
AcDbEntity
  8
0
100
AcDbLine
 10
81.0
 20
697.0515
 30
0.0
 11
84.0
 21
696.8524999999999
 31
0.0
  0
LINE
  5
1D5
330
1E
100
AcDbEntity
  8
0
100
AcDbLine
 10
93.91200000000001
 20
698.4605
 30
0.0
 11
96.15200000000001
 21
699.9204999999999
 31
0.0
  0
LINE
  5
1D6
330
1E
100
AcDbEntity
  8
0
100
AcDbLine
 10
92.0
 20
697.7274999999999
 30
0.0
 11
92.0
 21
699.5974999999999
 31
0.0
  0
LINE
  5
1D7
330
1E
100
AcDbEntity
  8
0
100
AcDbLine
 10
92.0
 20
697.7274999999999
 30
0.0
 11
92.0
 21
659.6224999999999
 31
0.0
  0
LINE
  5
1D8
330
1E
100
AcDbEntity
  8
0
100
AcDbLine
 10
92.0
 20
697.7274999999999
 30
0.0
 11
93.91200000000001
 21
698.4605
 31
0.0
  0
LINE
  5
1D9
330
1E
100
AcDbEntity
  8
0
100
AcDbLine
 10
76.0
 20
697.7274999999999
 30
0.0
 11
76.0
 21
699.5974999999999
 31
0.0
  0
LINE
  5
1DA
330
1E
100
AcDbEntity
  8
0
100
AcDbLine
 10
76.0
 20
697.7274999999999
 30
0.0
 11
76.0
 21
659.6224999999999
 31
0.0
  0
LINE
  5
1DB
330
1E
100
AcDbEntity
  8
0
100
AcDbLine
 10
92.0
 20
699.5974999999999
 30
0.0
 11
93.54799999999999
 21
700.6535
 31
0.0
  0
LINE
  5
1DC
330
1E
100
AcDbEntity
  8
0
100
AcDbLine
 10
92.0
 20
699.5974999999999
 30
0.0
 11
92.0
 21
697.7274999999999
 31
0.0
  0
LINE
  5
1DD
330
1E
100
AcDbEntity
  8
0
100
AcDbLine
 10
76.0
 20
699.5974999999999
 30
0.0
 11
76.0
 21
697.7274999999999
 31
0.0
  0
LINE
  5
1E0
330
1E
100
AcDbEntity
  8
0
100
AcDbLine
 10
78.3
 20
697.6024999999999
 30
0.0
 11
81.0
 21
697.0515
 31
0.0
  0
LINE
  5
1E1
330
1E
100
AcDbEntity
  8
0
100
AcDbLine
 10
75.9
 20
698.5515
 30
0.0
 11
78.3
 21
697.6024999999999
 31
0.0
  0
LINE
  5
1E2
330
1E
100
AcDbEntity
  8
0
100
AcDbLine
 10
93.54799999999999
 20
700.6535
 30
0.0
 11
94.60399999999999
 21
701.9524999999999
 31
0.0
  0
LINE
  5
1E3
330
1E
100
AcDbEntity
  8
0
100
AcDbLine
 10
94.60399999999999
 20
701.9524999999999
 30
0.0
 11
95.0
 21
703.3384999999999
 31
0.0
  0
LINE
  5
1E4
330
1E
100
AcDbEntity
  8
0
100
AcDbLine
 10
74.45199999999999
 20
700.6535
 30
0.0
 11
76.0
 21
699.5974999999999
 31
0.0
  0
LINE
  5
1E5
330
1E
100
AcDbEntity
  8
0
100
AcDbLine
 10
94.60399999999999
 20
704.7234999999999
 30
0.0
 11
95.0
 21
703.3384999999999
 31
0.0
  0
LINE
  5
1E6
330
1E
100
AcDbEntity
  8
0
100
AcDbLine
 10
73.396
 20
704.7234999999999
 30
0.0
 11
74.45199999999999
 21
706.0235
 31
0.0
  0
LINE
  5
1E7
330
1E
100
AcDbEntity
  8
0
100
AcDbLine
 10
73.396
 20
701.9524999999999
 30
0.0
 11
74.45199999999999
 21
700.6535
 31
0.0
  0
LINE
  5
1E8
330
1E
100
AcDbEntity
  8
0
100
AcDbLine
 10
73.0
 20
703.3384999999999
 30
0.0
 11
73.396
 21
701.9524999999999
 31
0.0
  0
LINE
  5
1E9
330
1E
100
AcDbEntity
  8
0
100
AcDbLine
 10
73.0
 20
703.3384999999999
 30
0.0
 11
73.396
 21
704.7234999999999
 31
0.0
  0
LINE
  5
1EC
330
1E
100
AcDbEntity
  8
0
100
AcDbLine
 10
74.45199999999999
 20
706.0235
 30
0.0
 11
76.212
 21
707.1704999999999
 31
0.0
  0
LINE
  5
1ED
330
1E
100
AcDbEntity
  8
0
100
AcDbLine
 10
74.08800000000001
 20
708.2164999999999
 30
0.0
 11
77.056
 21
709.3185
 31
0.0
  0
LINE
  5
1EE
330
1E
100
AcDbEntity
  8
0
100
AcDbLine
 10
91.788
 20
707.1704999999999
 30
0.0
 11
93.54799999999999
 21
706.0235
 31
0.0
  0
LINE
  5
1EF
330
1E
100
AcDbEntity
  8
0
100
AcDbLine
 10
76.212
 20
707.1704999999999
 30
0.0
 11
78.544
 21
708.0365
 31
0.0
  0
LINE
  5
1F0
330
1E
100
AcDbEntity
  8
0
100
AcDbLine
 10
89.7
 20
707.6024999999999
 30
0.0
 11
92.09999999999999
 21
706.6525
 31
0.0
  0
LINE
  5
1F1
330
1E
100
AcDbEntity
  8
0
100
AcDbLine
 10
93.54799999999999
 20
706.0235
 30
0.0
 11
94.60399999999999
 21
704.7234999999999
 31
0.0
  0
LINE
  5
1F2
330
1E
100
AcDbEntity
  8
0
100
AcDbLine
 10
92.09999999999999
 20
706.6525
 30
0.0
 11
94.0
 21
705.4524999999999
 31
0.0
  0
LINE
  5
1F3
330
1E
100
AcDbEntity
  8
0
100
AcDbLine
 10
78.544
 20
708.0365
 30
0.0
 11
81.18399999999999
 21
708.5565
 31
0.0
  0
LINE
  5
1F4
330
1E
100
AcDbEntity
  8
0
100
AcDbLine
 10
80.416
 20
709.9795
 30
0.0
 11
84.0
 21
710.2274999999999
 31
0.0
  0
LINE
  5
1F5
330
1E
100
AcDbEntity
  8
0
100
AcDbLine
 10
77.056
 20
709.3185
 30
0.0
 11
80.416
 21
709.9795
 31
0.0
  0
LINE
  5
1F6
330
1E
100
AcDbEntity
  8
0
100
AcDbLine
 10
89.456
 20
708.0365
 30
0.0
 11
91.788
 21
707.1704999999999
 31
0.0
  0
LINE
  5
1F7
330
1E
100
AcDbEntity
  8
0
100
AcDbLine
 10
84.0
 20
708.7514999999999
 30
0.0
 11
86.81600000000001
 21
708.5565
 31
0.0
  0
LINE
  5
1F8
330
1E
100
AcDbEntity
  8
0
100
AcDbLine
 10
84.0
 20
710.2274999999999
 30
0.0
 11
87.58399999999999
 21
709.9795
 31
0.0
  0
LINE
  5
1F9
330
1E
100
AcDbEntity
  8
0
100
AcDbLine
 10
81.18399999999999
 20
708.5565
 30
0.0
 11
84.0
 21
708.7514999999999
 31
0.0
  0
LINE
  5
1FA
330
1E
100
AcDbEntity
  8
0
100
AcDbLine
 10
86.81600000000001
 20
708.5565
 30
0.0
 11
89.456
 21
708.0365
 31
0.0
  0
LINE
  5
1FB
330
1E
100
AcDbEntity
  8
0
100
AcDbLine
 10
87.58399999999999
 20
709.9795
 30
0.0
 11
90.944
 21
709.3185
 31
0.0
  0
LINE
  5
1FC
330
1E
100
AcDbEntity
  8
0
100
AcDbLine
 10
90.944
 20
709.3185
 30
0.0
 11
93.91200000000001
 21
708.2164999999999
 31
0.0
  0
LINE
  5
1FD
330
1E
100
AcDbEntity
  8
0
100
AcDbLine
 10
93.91200000000001
 20
708.2164999999999
 30
0.0
 11
96.15200000000001
 21
706.7554999999999
 31
0.0
  0
LINE
  5
1FE
330
1E
100
AcDbEntity
  8
0
100
AcDbLine
 10
84.0
 20
708.3524999999999
 30
0.0
 11
87.0
 21
708.1525
 31
0.0
  0
LINE
  5
1FF
330
1E
100
AcDbEntity
  8
0
100
AcDbLine
 10
87.0
 20
708.1525
 30
0.0
 11
89.7
 21
707.6024999999999
 31
0.0
  0
LINE
  5
200
330
1E
100
AcDbEntity
  8
0
100
AcDbLine
 10
81.0
 20
708.1525
 30
0.0
 11
84.0
 21
708.3524999999999
 31
0.0
  0
LINE
  5
201
330
1E
100
AcDbEntity
  8
0
100
AcDbLine
 10
78.3
 20
707.6024999999999
 30
0.0
 11
81.0
 21
708.1525
 31
0.0
  0
LINE
  5
202
330
1E
100
AcDbEntity
  8
0
100
AcDbLine
 10
75.9
 20
706.6525
 30
0.0
 11
78.3
 21
707.6024999999999
 31
0.0
  0
LINE
  5
203
330
1E
100
AcDbEntity
  8
0
100
AcDbLine
 10
74.0
 20
705.4524999999999
 30
0.0
 11
75.9
 21
706.6525
 31
0.0
  0
LINE
  5
204
330
1E
100
AcDbEntity
  8
0
100
AcDbLine
 10
96.15200000000001
 20
699.9204999999999
 30
0.0
 11
97.496
 21
701.5744999999999
 31
0.0
  0
LINE
  5
205
330
1E
100
AcDbEntity
  8
0
100
AcDbLine
 10
96.15200000000001
 20
706.7554999999999
 30
0.0
 11
97.496
 21
705.1014999999999
 31
0.0
  0
LINE
  5
206
330
1E
100
AcDbEntity
  8
0
100
AcDbLine
 10
97.496
 20
705.1014999999999
 30
0.0
 11
98.0
 21
703.3384999999999
 31
0.0
  0
LINE
  5
207
330
1E
100
AcDbEntity
  8
0
100
AcDbLine
 10
98.0
 20
703.3384999999999
 30
0.0
 11
98.0
 21
649.6445
 31
0.0
  0
LINE
  5
208
330
1E
100
AcDbEntity
  8
0
100
AcDbLine
 10
97.496
 20
701.5744999999999
 30
0.0
 11
98.0
 21
703.3384999999999
 31
0.0
  0
LINE
  5
20D
330
1E
100
AcDbEntity
  8
0
100
AcDbLine
 10
72.5
 20
879.0125000000001
 30
0.0
 11
75.09999999999999
 21
885.2124999999999
 31
0.0
  0
LINE
  5
20E
330
1E
100
AcDbEntity
  8
0
100
AcDbLine
 10
75.09999999999999
 20
898.6124999999999
 30
0.0
 11
76.0
 21
891.9125000000001
 31
0.0
  0
LINE
  5
20F
330
1E
100
AcDbEntity
  8
0
100
AcDbLine
 10
72.5
 20
904.8125
 30
0.0
 11
75.09999999999999
 21
898.6124999999999
 31
0.0
  0
LINE
  5
210
330
1E
100
AcDbEntity
  8
0
100
AcDbLine
 10
75.09999999999999
 20
885.2124999999999
 30
0.0
 11
76.0
 21
891.9125000000001
 31
0.0
  0
LINE
  5
211
330
1E
100
AcDbEntity
  8
0
100
AcDbLine
 10
70.0
 20
635.2454999999999
 30
0.0
 11
70.0
 21
632.3685
 31
0.0
  0
LINE
  5
212
330
1E
100
AcDbEntity
  8
0
100
AcDbLine
 10
70.0
 20
635.2454999999999
 30
0.0
 11
70.0
 21
638.9124999999999
 31
0.0
  0
LINE
  5
213
330
1E
100
AcDbEntity
  8
0
100
AcDbLine
 10
70.0
 20
632.3685
 30
0.0
 11
70.0
 21
630.5035
 31
0.0
  0
LINE
  5
214
330
1E
100
AcDbEntity
  8
0
100
AcDbLine
 10
70.0
 20
632.3685
 30
0.0
 11
70.0
 21
635.2454999999999
 31
0.0
  0
LINE
  5
215
330
1E
100
AcDbEntity
  8
0
100
AcDbLine
 10
32.66669999999999
 20
632.7714999999999
 30
0.0
 11
32.66669999999999
 21
630.9955
 31
0.0
  0
LINE
  5
216
330
1E
100
AcDbEntity
  8
0
100
AcDbLine
 10
32.66669999999999
 20
632.7714999999999
 30
0.0
 11
32.66669999999999
 21
635.5245
 31
0.0
  0
LINE
  5
217
330
1E
100
AcDbEntity
  8
0
100
AcDbLine
 10
32.66669999999999
 20
630.9955
 30
0.0
 11
32.66669999999999
 21
630.3995
 31
0.0
  0
LINE
  5
218
330
1E
100
AcDbEntity
  8
0
100
AcDbLine
 10
32.66669999999999
 20
630.9955
 30
0.0
 11
32.66669999999999
 21
632.7714999999999
 31
0.0
  0
LINE
  5
219
330
1E
100
AcDbEntity
  8
0
100
AcDbLine
 10
31.9128
 20
629.9174999999999
 30
0.0
 11
32.66669999999999
 21
630.3995
 31
0.0
  0
ENDSEC
  0
SECTION
  2
OBJECTS
  0
DICTIONARY
  5
C
330
0
100
AcDbDictionary
  3
ACAD_GROUP
350
D
  3
ACAD_LAYOUT
350
19
  3
ACAD_MLINESTYLE
350
16
  3
ACAD_PLOTSETTINGS
350
18
  3
ACAD_PLOTSTYLENAME
350
E
  3
ACDBHEADERROUNDTRIPXREC
350
221
  3
ACDBVARIABLEDICTIONARY
350
21E
  0
DICTIONARY
  5
243
330
1E
100
AcDbDictionary
280
     1
  3
ACAD_LAYOUTSELFREF
360
244
  0
DICTIONARY
  5
241
330
1A
100
AcDbDictionary
280
     1
  3
ACAD_LAYOUTSELFREF
360
242
  0
DICTIONARY
  5
D
102
{ACAD_REACTORS
330
C
102
}
330
C
100
AcDbDictionary
  0
DICTIONARY
  5
19
102
{ACAD_REACTORS
330
C
102
}
330
C
100
AcDbDictionary
  0
DICTIONARY
  5
16
102
{ACAD_REACTORS
330
C
102
}
330
C
100
AcDbDictionary
  3
STANDARD
350
17
  0
DICTIONARY
  5
18
102
{ACAD_REACTORS
330
C
102
}
330
C
100
AcDbDictionary
  0
ACDBDICTIONARYWDFLT
  5
E
102
{ACAD_REACTORS
330
C
102
}
330
C
100
AcDbDictionary
281
     1
  3
Normal
350
F
100
AcDbDictionaryWithDefault
340
F
  0
DICTIONARY
  5
221
102
{ACAD_REACTORS
330
C
102
}
330
C
100
AcDbDictionary
  3
CEPSNTYPE
350
22B
  3
FINGERPRINTGUID
350
22C
  3
HYPERLINKBASE
350
224
  3
INSUNITS
350
22A
  3
LAYOUTDICT
350
226
  3
LWETCUNION
350
229
  3
PLOTSETDICT
350
227
  3
PLOTSTYLNAMDICT
350
228
  3
PSVPSCALE
350
22E
  3
PUCSBASE
350
231
  3
PUCSORGBACK
350
237
  3
PUCSORGBOTTOM
350
233
  3
PUCSORGFRONT
350
236
  3
PUCSORGLEFT
350
234
  3
PUCSORGRIGHT
350
235
  3
PUCSORGTOP
350
232
  3
PUCSORTHOREF
350
22F
  3
PUCSORTHOVIEW
350
230
  3
STYLESHEET
350
225
  3
TSTACKALIGN
350
222
  3
TSTACKSIZE
350
223
  3
UCSBASE
350
23A
  3
UCSORGBACK
350
240
  3
UCSORGBOTTOM
350
23C
  3
UCSORGFRONT
350
23F
  3
UCSORGLEFT
350
23D
  3
UCSORGRIGHT
350
23E
  3
UCSORGTOP
350
23B
  3
UCSORTHOREF
350
238
  3
UCSORTHOVIEW
350
239
  3
VERSIONGUID
350
22D
  0
DICTIONARY
  5
21E
102
{ACAD_REACTORS
330
C
102
}
330
C
100
AcDbDictionary
  3
DIMASSOC
350
21F
  0
XRECORD
  5
244
102
{ACAD_REACTORS
330
243
102
}
330
243
100
AcDbXrecord
340
1E
  0
XRECORD
  5
242
102
{ACAD_REACTORS
330
241
102
}
330
241
100
AcDbXrecord
340
1A
  0
MLINESTYLE
  5
17
102
{ACAD_REACTORS
330
16
102
}
330
16
100
AcDbMlineStyle
  2
STANDARD
 70
     0
  3

 62
   256
 51
90.0
 52
90.0
 71
     2
 49
0.5
 62
   256
  6
BYLAYER
 49
-0.5
 62
   256
  6
BYLAYER
  0
ACDBPLACEHOLDER
  5
F
102
{ACAD_REACTORS
330
E
102
}
330
E
100
AcDbPlaceHolder
280
     0
  0
XRECORD
  5
22B
102
{ACAD_REACTORS
330
221
102
}
330
221
100
AcDbXrecord
 90
        0
  0
XRECORD
  5
22C
102
{ACAD_REACTORS
330
221
102
}
330
221
100
AcDbXrecord
  1
{CF53C278-877F-4618-8FFE-280316118EC3}
  0
XRECORD
  5
224
102
{ACAD_REACTORS
330
221
102
}
330
221
100
AcDbXrecord
  1

  0
XRECORD
  5
22A
102
{ACAD_REACTORS
330
221
102
}
330
221
100
AcDbXrecord
 90
        0
  0
XRECORD
  5
226
102
{ACAD_REACTORS
330
221
102
}
330
221
100
AcDbXrecord
340
19
  0
XRECORD
  5
229
102
{ACAD_REACTORS
330
221
102
}
330
221
100
AcDbXrecord
 90
    10781
  0
XRECORD
  5
227
102
{ACAD_REACTORS
330
221
102
}
330
221
100
AcDbXrecord
340
18
  0
XRECORD
  5
228
102
{ACAD_REACTORS
330
221
102
}
330
221
100
AcDbXrecord
340
E
  0
XRECORD
  5
22E
102
{ACAD_REACTORS
330
221
102
}
330
221
100
AcDbXrecord
 40
0.0
  0
XRECORD
  5
231
102
{ACAD_REACTORS
330
221
102
}
330
221
100
AcDbXrecord
340
0
  0
XRECORD
  5
237
102
{ACAD_REACTORS
330
221
102
}
330
221
100
AcDbXrecord
 10
0.0
 20
0.0
 30
0.0
  0
XRECORD
  5
233
102
{ACAD_REACTORS
330
221
102
}
330
221
100
AcDbXrecord
 10
0.0
 20
0.0
 30
0.0
  0
XRECORD
  5
236
102
{ACAD_REACTORS
330
221
102
}
330
221
100
AcDbXrecord
 10
0.0
 20
0.0
 30
0.0
  0
XRECORD
  5
234
102
{ACAD_REACTORS
330
221
102
}
330
221
100
AcDbXrecord
 10
0.0
 20
0.0
 30
0.0
  0
XRECORD
  5
235
102
{ACAD_REACTORS
330
221
102
}
330
221
100
AcDbXrecord
 10
0.0
 20
0.0
 30
0.0
  0
XRECORD
  5
232
102
{ACAD_REACTORS
330
221
102
}
330
221
100
AcDbXrecord
 10
0.0
 20
0.0
 30
0.0
  0
XRECORD
  5
22F
102
{ACAD_REACTORS
330
221
102
}
330
221
100
AcDbXrecord
340
0
  0
XRECORD
  5
230
102
{ACAD_REACTORS
330
221
102
}
330
221
100
AcDbXrecord
 70
     0
  0
XRECORD
  5
225
102
{ACAD_REACTORS
330
221
102
}
330
221
100
AcDbXrecord
  1

  0
XRECORD
  5
222
102
{ACAD_REACTORS
330
221
102
}
330
221
100
AcDbXrecord
 90
        1
  0
XRECORD
  5
223
102
{ACAD_REACTORS
330
221
102
}
330
221
100
AcDbXrecord
 90
       70
  0
XRECORD
  5
23A
102
{ACAD_REACTORS
330
221
102
}
330
221
100
AcDbXrecord
340
0
  0
XRECORD
  5
240
102
{ACAD_REACTORS
330
221
102
}
330
221
100
AcDbXrecord
 10
0.0
 20
0.0
 30
0.0
  0
XRECORD
  5
23C
102
{ACAD_REACTORS
330
221
102
}
330
221
100
AcDbXrecord
 10
0.0
 20
0.0
 30
0.0
  0
XRECORD
  5
23F
102
{ACAD_REACTORS
330
221
102
}
330
221
100
AcDbXrecord
 10
0.0
 20
0.0
 30
0.0
  0
XRECORD
  5
23D
102
{ACAD_REACTORS
330
221
102
}
330
221
100
AcDbXrecord
 10
0.0
 20
0.0
 30
0.0
  0
XRECORD
  5
23E
102
{ACAD_REACTORS
330
221
102
}
330
221
100
AcDbXrecord
 10
0.0
 20
0.0
 30
0.0
  0
XRECORD
  5
23B
102
{ACAD_REACTORS
330
221
102
}
330
221
100
AcDbXrecord
 10
0.0
 20
0.0
 30
0.0
  0
XRECORD
  5
238
102
{ACAD_REACTORS
330
221
102
}
330
221
100
AcDbXrecord
340
0
  0
XRECORD
  5
239
102
{ACAD_REACTORS
330
221
102
}
330
221
100
AcDbXrecord
 70
     1
  0
XRECORD
  5
22D
102
{ACAD_REACTORS
330
221
102
}
330
221
100
AcDbXrecord
  1
{00C82AF5-9181-47D8-9869-EE55662EEB73}
  0
DICTIONARYVAR
  5
21F
102
{ACAD_REACTORS
330
21E
102
}
330
21E
100
DictionaryVariables
280
     0
  1
1
  0
ENDSEC
  0
EOF
