  0
SECTION
  2
HEADER
  9
$ACADVER
  1
AC1014
  9
$ACADMAINTVER
 70
     9
  9
$DWGCODEPAGE
  3
ANSI_1252
  9
$INSBASE
 10
0.0
 20
0.0
 30
0.0
  9
$EXTMIN
 10
0.0000000000000041
 20
0.0695999999999934
 30
0.0
  9
$EXTMAX
 10
98.0
 20
84.9304
 30
0.0
  9
$LIMMIN
 10
0.0
 20
0.0
  9
$LIMMAX
 10
12.0
 20
9.0
  9
$ORTHOMODE
 70
     0
  9
$REGENMODE
 70
     1
  9
$FILLMODE
 70
     1
  9
$QTEXTMODE
 70
     0
  9
$MIRRTEXT
 70
     1
  9
$DRAGMODE
 70
     2
  9
$LTSCALE
 40
1.0
  9
$OSMODE
 70
    37
  9
$ATTMODE
 70
     1
  9
$TEXTSIZE
 40
0.2
  9
$TRACEWID
 40
0.05
  9
$TEXTSTYLE
  7
STANDARD
  9
$CLAYER
  8
0
  9
$CELTYPE
  6
CONTINUOUS
  9
$CECOLOR
 62
   256
  9
$CELTSCALE
 40
1.0
  9
$DELOBJ
 70
     1
  9
$DISPSILH
 70
     0
  9
$DIMSCALE
 40
1.0
  9
$DIMASZ
 40
0.18
  9
$DIMEXO
 40
0.0625
  9
$DIMDLI
 40
0.38
  9
$DIMRND
 40
0.0
  9
$DIMDLE
 40
0.0
  9
$DIMEXE
 40
0.18
  9
$DIMTP
 40
0.0
  9
$DIMTM
 40
0.0
  9
$DIMTXT
 40
0.18
  9
$DIMCEN
 40
0.09
  9
$DIMTSZ
 40
0.0
  9
$DIMTOL
 70
     0
  9
$DIMLIM
 70
     0
  9
$DIMTIH
 70
     1
  9
$DIMTOH
 70
     1
  9
$DIMSE1
 70
     0
  9
$DIMSE2
 70
     0
  9
$DIMTAD
 70
     0
  9
$DIMZIN
 70
     0
  9
$DIMBLK
  1

  9
$DIMASO
 70
     1
  9
$DIMSHO
 70
     1
  9
$DIMPOST
  1

  9
$DIMAPOST
  1

  9
$DIMALT
 70
     0
  9
$DIMALTD
 70
     2
  9
$DIMALTF
 40
25.4
  9
$DIMLFAC
 40
1.0
  9
$DIMTOFL
 70
     0
  9
$DIMTVP
 40
0.0
  9
$DIMTIX
 70
     0
  9
$DIMSOXD
 70
     0
  9
$DIMSAH
 70
     0
  9
$DIMBLK1
  1

  9
$DIMBLK2
  1

  9
$DIMSTYLE
  2
STANDARD
  9
$DIMCLRD
 70
     0
  9
$DIMCLRE
 70
     0
  9
$DIMCLRT
 70
     0
  9
$DIMTFAC
 40
1.0
  9
$DIMGAP
 40
0.09
  9
$DIMJUST
 70
     0
  9
$DIMSD1
 70
     0
  9
$DIMSD2
 70
     0
  9
$DIMTOLJ
 70
     1
  9
$DIMTZIN
 70
     0
  9
$DIMALTZ
 70
     0
  9
$DIMALTTZ
 70
     0
  9
$DIMFIT
 70
     3
  9
$DIMUPT
 70
     0
  9
$DIMUNIT
 70
     2
  9
$DIMDEC
 70
     4
  9
$DIMTDEC
 70
     4
  9
$DIMALTU
 70
     2
  9
$DIMALTTD
 70
     2
  9
$DIMTXSTY
  7
STANDARD
  9
$DIMAUNIT
 70
     0
  9
$LUNITS
 70
     2
  9
$LUPREC
 70
     4
  9
$SKETCHINC
 40
0.1
  9
$FILLETRAD
 40
0.0
  9
$AUNITS
 70
     0
  9
$AUPREC
 70
     0
  9
$MENU
  1
.
  9
$ELEVATION
 40
0.0
  9
$PELEVATION
 40
0.0
  9
$THICKNESS
 40
0.0
  9
$LIMCHECK
 70
     0
  9
$BLIPMODE
 70
     0
  9
$CHAMFERA
 40
0.0
  9
$CHAMFERB
 40
0.0
  9
$CHAMFERC
 40
0.0
  9
$CHAMFERD
 40
0.0
  9
$SKPOLY
 70
     0
  9
$TDCREATE
 40
2454697.476527234
  9
$TDUPDATE
 40
2454697.486569190
  9
$TDINDWG
 40
0.0058436343
  9
$TDUSRTIMER
 40
0.0058436343
  9
$USRTIMER
 70
     1
  9
$ANGBASE
 50
0.0
  9
$ANGDIR
 70
     0
  9
$PDMODE
 70
     0
  9
$PDSIZE
 40
0.0
  9
$PLINEWID
 40
0.0
  9
$COORDS
 70
     1
  9
$SPLFRAME
 70
     0
  9
$SPLINETYPE
 70
     6
  9
$SPLINESEGS
 70
     8
  9
$ATTDIA
 70
     0
  9
$ATTREQ
 70
     1
  9
$HANDLING
 70
 22529
  9
$HANDSEED
  5
282
  9
$SURFTAB1
 70
     6
  9
$SURFTAB2
 70
     6
  9
$SURFTYPE
 70
     6
  9
$SURFU
 70
     6
  9
$SURFV
 70
     6
  9
$UCSNAME
  2

  9
$UCSORG
 10
0.0
 20
0.0
 30
0.0
  9
$UCSXDIR
 10
1.0
 20
0.0
 30
0.0
  9
$UCSYDIR
 10
0.0
 20
1.0
 30
0.0
  9
$PUCSNAME
  2

  9
$PUCSORG
 10
0.0
 20
0.0
 30
0.0
  9
$PUCSXDIR
 10
1.0
 20
0.0
 30
0.0
  9
$PUCSYDIR
 10
0.0
 20
1.0
 30
0.0
  9
$USERI1
 70
     0
  9
$USERI2
 70
     0
  9
$USERI3
 70
     0
  9
$USERI4
 70
     0
  9
$USERI5
 70
     0
  9
$USERR1
 40
0.0
  9
$USERR2
 40
0.0
  9
$USERR3
 40
0.0
  9
$USERR4
 40
0.0
  9
$USERR5
 40
0.0
  9
$WORLDVIEW
 70
     1
  9
$SHADEDGE
 70
     3
  9
$SHADEDIF
 70
    70
  9
$TILEMODE
 70
     1
  9
$MAXACTVP
 70
    64
  9
$PINSBASE
 10
0.0
 20
0.0
 30
0.0
  9
$PLIMCHECK
 70
     0
  9
$PEXTMIN
 10
1.000000000000000E+20
 20
1.000000000000000E+20
 30
1.000000000000000E+20
  9
$PEXTMAX
 10
-1.000000000000000E+20
 20
-1.000000000000000E+20
 30
-1.000000000000000E+20
  9
$PLIMMIN
 10
0.0
 20
0.0
  9
$PLIMMAX
 10
12.0
 20
9.0
  9
$UNITMODE
 70
     0
  9
$VISRETAIN
 70
     1
  9
$PLINEGEN
 70
     0
  9
$PSLTSCALE
 70
     1
  9
$TREEDEPTH
 70
  3020
  9
$PICKSTYLE
 70
     1
  9
$CMLSTYLE
  2
STANDARD
  9
$CMLJUST
 70
     0
  9
$CMLSCALE
 40
1.0
  9
$PROXYGRAPHICS
 70
     1
  9
$MEASUREMENT
 70
     0
  0
ENDSEC
  0
SECTION
  2
CLASSES
  0
CLASS
  1
ACDBDICTIONARYWDFLT
  2
AcDbDictionaryWithDefault
  3
AutoCAD 2000
 90
        0
280
     0
281
     0
  0
CLASS
  1
ACDBPLACEHOLDER
  2
AcDbPlaceHolder
  3
AutoCAD 2000
 90
        0
280
     0
281
     0
  0
CLASS
  1
LAYOUT
  2
AcDbLayout
  3
AutoCAD 2000
 90
        0
280
     0
281
     0
  0
CLASS
  1
DICTIONARYVAR
  2
AcDbDictionaryVar
  3
AutoCAD 2000
 90
        0
280
     0
281
     0
  0
CLASS
  1
LONG_TRANSACTION
  2
AcDbLongTransaction
  3
AutoCAD 2000
 90
        0
280
     0
281
     0
  0
CLASS
  1
LWPOLYLINE
  2
AcDbPolyline
  3
AutoCAD 2000
 90
        0
280
     0
281
     1
  0
CLASS
  1
HATCH
  2
AcDbHatch
  3
AutoCAD 2000
 90
        0
280
     0
281
     1
  0
CLASS
  1
XRECORD
  2
AcDbXrecord
  3
AutoCAD 2000
 90
        0
280
     0
281
     0
  0
ENDSEC
  0
SECTION
  2
TABLES
  0
TABLE
  2
VPORT
  5
8
330
0
100
AcDbSymbolTable
 70
     2
  0
VPORT
  5
25D
330
8
100
AcDbSymbolTableRecord
100
AcDbViewportTableRecord
  2
*ACTIVE
 70
     0
 10
0.0
 20
0.0
 11
1.0
 21
1.0
 12
49.00000000000001
 22
42.5
 13
0.0
 23
0.0
 14
1.0
 24
1.0
 15
0.0
 25
0.0
 16
0.0
 26
0.0
 36
1.0
 17
0.0
 27
0.0
 37
0.0
 40
85.51190588235295
 41
2.078104993597951
 42
50.0
 43
0.0
 44
0.0
 50
0.0
 51
0.0
 71
     0
 72
   100
 73
     1
 74
     3
 75
     0
 76
     0
 77
     0
 78
     0
  0
ENDTAB
  0
TABLE
  2
LTYPE
  5
5
330
0
100
AcDbSymbolTable
 70
     1
  0
LTYPE
  5
13
330
5
100
AcDbSymbolTableRecord
100
AcDbLinetypeTableRecord
  2
BYBLOCK
 70
     0
  3

 72
    65
 73
     0
 40
0.0
  0
LTYPE
  5
14
330
5
100
AcDbSymbolTableRecord
100
AcDbLinetypeTableRecord
  2
BYLAYER
 70
     0
  3

 72
    65
 73
     0
 40
0.0
  0
LTYPE
  5
15
330
5
100
AcDbSymbolTableRecord
100
AcDbLinetypeTableRecord
  2
CONTINUOUS
 70
     0
  3
Solid line
 72
    65
 73
     0
 40
0.0
  0
ENDTAB
  0
TABLE
  2
LAYER
  5
2
330
0
100
AcDbSymbolTable
 70
     1
  0
LAYER
  5
10
330
2
100
AcDbSymbolTableRecord
100
AcDbLayerTableRecord
  2
0
 70
     0
 62
     7
  6
CONTINUOUS
  0
ENDTAB
  0
TABLE
  2
STYLE
  5
3
330
0
100
AcDbSymbolTable
 70
     1
  0
STYLE
  5
11
330
3
100
AcDbSymbolTableRecord
100
AcDbTextStyleTableRecord
  2
STANDARD
 70
     0
 40
0.0
 41
1.0
 50
0.0
 71
     0
 42
0.2
  3
txt
  4

  0
ENDTAB
  0
TABLE
  2
VIEW
  5
6
330
0
100
AcDbSymbolTable
 70
     0
  0
ENDTAB
  0
TABLE
  2
UCS
  5
7
330
0
100
AcDbSymbolTable
 70
     0
  0
ENDTAB
  0
TABLE
  2
APPID
  5
9
330
0
100
AcDbSymbolTable
 70
     1
  0
APPID
  5
12
330
9
100
AcDbSymbolTableRecord
100
AcDbRegAppTableRecord
  2
ACAD
 70
     0
  0
ENDTAB
  0
TABLE
  2
DIMSTYLE
  5
A
330
0
100
AcDbSymbolTable
 70
     1
  0
DIMSTYLE
105
252
330
A
100
AcDbSymbolTableRecord
100
AcDbDimStyleTableRecord
  2
STANDARD
 70
     0
  3

  4

  5

  6

  7

 40
1.0
 41
0.18
 42
0.0625
 43
0.38
 44
0.18
 45
0.0
 46
0.0
 47
0.0
 48
0.0
140
0.18
141
0.09
142
0.0
143
25.4
144
1.0
145
0.0
146
1.0
147
0.09
 71
     0
 72
     0
 73
     1
 74
     1
 75
     0
 76
     0
 77
     0
 78
     0
170
     0
171
     2
172
     0
173
     0
174
     0
175
     0
176
     0
177
     0
178
     0
270
     2
271
     4
272
     4
273
     2
274
     2
340
11
275
     0
280
     0
281
     0
282
     0
283
     1
284
     0
285
     0
286
     0
287
     3
288
     0
  0
ENDTAB
  0
TABLE
  2
BLOCK_RECORD
  5
1
330
0
100
AcDbSymbolTable
 70
     0
  0
BLOCK_RECORD
  5
1E
102
{ACAD_XDICTIONARY
360
280
102
}
330
1
100
AcDbSymbolTableRecord
100
AcDbBlockTableRecord
  2
*MODEL_SPACE
  0
BLOCK_RECORD
  5
1A
102
{ACAD_XDICTIONARY
360
27E
102
}
330
1
100
AcDbSymbolTableRecord
100
AcDbBlockTableRecord
  2
*PAPER_SPACE
  0
ENDTAB
  0
ENDSEC
  0
SECTION
  2
BLOCKS
  0
BLOCK
  5
1F
330
1E
100
AcDbEntity
  8
0
100
AcDbBlockBegin
  2
*MODEL_SPACE
 70
     0
 10
0.0
 20
0.0
 30
0.0
  3
*MODEL_SPACE
  1

  0
ENDBLK
  5
20
330
1E
100
AcDbEntity
  8
0
100
AcDbBlockEnd
  0
BLOCK
  5
1B
330
1A
100
AcDbEntity
 67
     1
  8
0
100
AcDbBlockBegin
  2
*PAPER_SPACE
 70
     0
 10
0.0
 20
0.0
 30
0.0
  3
*PAPER_SPACE
  1

  0
ENDBLK
  5
1C
330
1A
100
AcDbEntity
 67
     1
  8
0
100
AcDbBlockEnd
  0
ENDSEC
  0
SECTION
  2
ENTITIES
  0
LINE
  5
22
330
1E
100
AcDbEntity
  8
0
100
AcDbLine
 10
0.0000000000000041
 20
26.00925
 30
0.0
 11
0.0000000000000041
 21
25.41774
 31
0.0
  0
LINE
  5
23
330
1E
100
AcDbEntity
  8
0
100
AcDbLine
 10
0.0000000000000041
 20
26.00925
 30
0.0
 11
0.0000000000000041
 21
27.71607
 31
0.0
  0
LINE
  5
24
330
1E
100
AcDbEntity
  8
0
100
AcDbLine
 10
0.0000000000000041
 20
25.41774
 30
0.0
 11
0.0000000000000041
 21
26.01354
 31
0.0
  0
LINE
  5
25
330
1E
100
AcDbEntity
  8
0
100
AcDbLine
 10
0.0000000000000041
 20
25.41774
 30
0.0
 11
0.7538000000000059
 21
24.93562
 31
0.0
  0
LINE
  5
26
330
1E
100
AcDbEntity
  8
0
100
AcDbLine
 10
0.0000000000000041
 20
25.41774
 30
0.0
 11
0.0000000000000041
 21
26.00925
 31
0.0
  0
LINE
  5
27
330
1E
100
AcDbEntity
  8
0
100
AcDbLine
 10
0.0000000000000041
 20
26.01354
 30
0.0
 11
0.0000000000000041
 21
27.78959
 31
0.0
  0
LINE
  5
28
330
1E
100
AcDbEntity
  8
0
100
AcDbLine
 10
0.0000000000000041
 20
26.01354
 30
0.0
 11
0.0000000000000041
 21
25.41774
 31
0.0
  0
LINE
  5
29
330
1E
100
AcDbEntity
  8
0
100
AcDbLine
 10
0.0000000000000041
 20
27.78959
 30
0.0
 11
0.0000000000000041
 21
30.54211
 31
0.0
  0
LINE
  5
2A
330
1E
100
AcDbEntity
  8
0
100
AcDbLine
 10
0.0000000000000041
 20
27.78959
 30
0.0
 11
0.0000000000000041
 21
26.01354
 31
0.0
  0
LINE
  5
2B
330
1E
100
AcDbEntity
  8
0
100
AcDbLine
 10
0.0000000000000041
 20
30.54211
 30
0.0
 11
0.0000000000000041
 21
34.1464
 31
0.0
  0
LINE
  5
2C
330
1E
100
AcDbEntity
  8
0
100
AcDbLine
 10
0.0000000000000041
 20
30.54211
 30
0.0
 11
0.0000000000000041
 21
27.78959
 31
0.0
  0
LINE
  5
2D
330
1E
100
AcDbEntity
  8
0
100
AcDbLine
 10
0.0000000000000041
 20
27.71607
 30
0.0
 11
0.0000000000000041
 21
30.54524999999999
 31
0.0
  0
LINE
  5
2E
330
1E
100
AcDbEntity
  8
0
100
AcDbLine
 10
0.0000000000000041
 20
27.71607
 30
0.0
 11
0.0000000000000041
 21
26.00925
 31
0.0
  0
LINE
  5
2F
330
1E
100
AcDbEntity
  8
0
100
AcDbLine
 10
0.0000000000000041
 20
30.54524999999999
 30
0.0
 11
0.0000000000000041
 21
27.71607
 31
0.0
  0
LINE
  5
30
330
1E
100
AcDbEntity
  8
0
100
AcDbLine
 10
0.0000000000000041
 20
30.54524999999999
 30
0.0
 11
0.0000000000000041
 21
34.1297
 31
0.0
  0
LINE
  5
31
330
1E
100
AcDbEntity
  8
0
100
AcDbLine
 10
0.0000000000000041
 20
42.87919999999999
 30
0.0
 11
0.0000000000000041
 21
47.46329999999999
 31
0.0
  0
LINE
  5
32
330
1E
100
AcDbEntity
  8
0
100
AcDbLine
 10
0.0000000000000041
 20
42.87919999999999
 30
0.0
 11
0.0000000000000041
 21
38.39869999999999
 31
0.0
  0
LINE
  5
33
330
1E
100
AcDbEntity
  8
0
100
AcDbLine
 10
0.0000000000000041
 20
38.39869999999999
 30
0.0
 11
0.0000000000000041
 21
42.87919999999999
 31
0.0
  0
LINE
  5
34
330
1E
100
AcDbEntity
  8
0
100
AcDbLine
 10
0.0000000000000041
 20
38.39869999999999
 30
0.0
 11
0.0000000000000041
 21
34.1464
 31
0.0
  0
LINE
  5
35
330
1E
100
AcDbEntity
  8
0
100
AcDbLine
 10
0.0000000000000041
 20
34.1464
 30
0.0
 11
0.0000000000000041
 21
30.54211
 31
0.0
  0
LINE
  5
36
330
1E
100
AcDbEntity
  8
0
100
AcDbLine
 10
0.0000000000000041
 20
34.1464
 30
0.0
 11
0.0000000000000041
 21
38.39869999999999
 31
0.0
  0
LINE
  5
37
330
1E
100
AcDbEntity
  8
0
100
AcDbLine
 10
0.0000000000000041
 20
34.1297
 30
0.0
 11
0.0000000000000041
 21
30.54524999999999
 31
0.0
  0
LINE
  5
38
330
1E
100
AcDbEntity
  8
0
100
AcDbLine
 10
0.0000000000000041
 20
34.1297
 30
0.0
 11
0.0000000000000041
 21
38.3975
 31
0.0
  0
LINE
  5
39
330
1E
100
AcDbEntity
  8
0
100
AcDbLine
 10
0.0000000000000041
 20
38.3975
 30
0.0
 11
0.0000000000000041
 21
34.1297
 31
0.0
  0
LINE
  5
3A
330
1E
100
AcDbEntity
  8
0
100
AcDbLine
 10
0.0000000000000041
 20
38.3975
 30
0.0
 11
0.0000000000000041
 21
42.9816
 31
0.0
  0
LINE
  5
3B
330
1E
100
AcDbEntity
  8
0
100
AcDbLine
 10
0.0000000000000041
 20
47.46329999999999
 30
0.0
 11
0.0000000000000041
 21
51.7311
 31
0.0
  0
LINE
  5
3C
330
1E
100
AcDbEntity
  8
0
100
AcDbLine
 10
0.0000000000000041
 20
47.46329999999999
 30
0.0
 11
0.0000000000000041
 21
42.87919999999999
 31
0.0
  0
LINE
  5
3D
330
1E
100
AcDbEntity
  8
0
100
AcDbLine
 10
0.0000000000000041
 20
42.9816
 30
0.0
 11
0.0000000000000041
 21
38.3975
 31
0.0
  0
LINE
  5
3E
330
1E
100
AcDbEntity
  8
0
100
AcDbLine
 10
0.0000000000000041
 20
42.9816
 30
0.0
 11
0.0000000000000041
 21
47.4621
 31
0.0
  0
LINE
  5
3F
330
1E
100
AcDbEntity
  8
0
100
AcDbLine
 10
31.9128
 20
24.93562
 30
0.0
 11
32.66669999999999
 21
25.41774
 31
0.0
  0
LINE
  5
40
330
1E
100
AcDbEntity
  8
0
100
AcDbLine
 10
0.7538000000000059
 20
24.93562
 30
0.0
 11
31.9128
 21
24.93562
 31
0.0
  0
LINE
  5
41
330
1E
100
AcDbEntity
  8
0
100
AcDbLine
 10
7.432599999999999
 20
40.1104
 30
0.0
 11
8.188599999999999
 21
40.0024
 31
0.0
  0
LINE
  5
42
330
1E
100
AcDbEntity
  8
0
100
AcDbLine
 10
6.736600000000009
 20
40.3984
 30
0.0
 11
7.432599999999999
 21
40.1104
 31
0.0
  0
LINE
  5
43
330
1E
100
AcDbEntity
  8
0
100
AcDbLine
 10
8.188599999999999
 20
40.0024
 30
0.0
 11
8.944599999999999
 21
40.1104
 31
0.0
  0
LINE
  5
44
330
1E
100
AcDbEntity
  8
0
100
AcDbLine
 10
8.944599999999999
 20
40.1104
 30
0.0
 11
9.640599999999999
 21
40.3984
 31
0.0
  0
LINE
  5
45
330
1E
100
AcDbEntity
  8
0
100
AcDbLine
 10
6.1246
 20
40.8664
 30
0.0
 11
6.736600000000009
 21
40.3984
 31
0.0
  0
LINE
  5
46
330
1E
100
AcDbEntity
  8
0
100
AcDbLine
 10
5.6566
 20
41.4784
 30
0.0
 11
6.1246
 21
40.8664
 31
0.0
  0
LINE
  5
47
330
1E
100
AcDbEntity
  8
0
100
AcDbLine
 10
5.368599999999999
 20
42.17439999999999
 30
0.0
 11
5.6566
 21
41.4784
 31
0.0
  0
LINE
  5
48
330
1E
100
AcDbEntity
  8
0
100
AcDbLine
 10
9.640599999999999
 20
40.3984
 30
0.0
 11
10.2526
 21
40.8664
 31
0.0
  0
LINE
  5
49
330
1E
100
AcDbEntity
  8
0
100
AcDbLine
 10
10.2526
 20
40.8664
 30
0.0
 11
10.7206
 21
41.4784
 31
0.0
  0
LINE
  5
4A
330
1E
100
AcDbEntity
  8
0
100
AcDbLine
 10
5.368599999999999
 20
43.6864
 30
0.0
 11
5.6566
 21
44.38239999999999
 31
0.0
  0
LINE
  5
4B
330
1E
100
AcDbEntity
  8
0
100
AcDbLine
 10
5.2606
 20
42.9304
 30
0.0
 11
5.368599999999999
 21
43.6864
 31
0.0
  0
LINE
  5
4C
330
1E
100
AcDbEntity
  8
0
100
AcDbLine
 10
5.2606
 20
42.9304
 30
0.0
 11
5.368599999999999
 21
42.17439999999999
 31
0.0
  0
LINE
  5
4D
330
1E
100
AcDbEntity
  8
0
100
AcDbLine
 10
6.1246
 20
44.99439999999999
 30
0.0
 11
6.736600000000009
 21
45.4624
 31
0.0
  0
LINE
  5
4E
330
1E
100
AcDbEntity
  8
0
100
AcDbLine
 10
5.6566
 20
44.38239999999999
 30
0.0
 11
6.1246
 21
44.99439999999999
 31
0.0
  0
LINE
  5
4F
330
1E
100
AcDbEntity
  8
0
100
AcDbLine
 10
6.736600000000009
 20
45.4624
 30
0.0
 11
7.432599999999999
 21
45.7504
 31
0.0
  0
LINE
  5
55
330
1E
100
AcDbEntity
  8
0
100
AcDbLine
 10
9.640599999999999
 20
45.4624
 30
0.0
 11
10.2526
 21
44.99439999999999
 31
0.0
  0
LINE
  5
56
330
1E
100
AcDbEntity
  8
0
100
AcDbLine
 10
10.2526
 20
44.99439999999999
 30
0.0
 11
10.7206
 21
44.38239999999999
 31
0.0
  0
LINE
  5
57
330
1E
100
AcDbEntity
  8
0
100
AcDbLine
 10
7.432599999999999
 20
45.7504
 30
0.0
 11
8.188599999999999
 21
45.8584
 31
0.0
  0
LINE
  5
59
330
1E
100
AcDbEntity
  8
0
100
AcDbLine
 10
8.188599999999999
 20
45.8584
 30
0.0
 11
8.944599999999999
 21
45.7504
 31
0.0
  0
LINE
  5
5A
330
1E
100
AcDbEntity
  8
0
100
AcDbLine
 10
8.944599999999999
 20
45.7504
 30
0.0
 11
9.640599999999999
 21
45.4624
 31
0.0
  0
LINE
  5
5E
330
1E
100
AcDbEntity
  8
0
100
AcDbLine
 10
10.7206
 20
41.4784
 30
0.0
 11
11.00859999999999
 21
42.17439999999999
 31
0.0
  0
LINE
  5
5F
330
1E
100
AcDbEntity
  8
0
100
AcDbLine
 10
11.00859999999999
 20
42.17439999999999
 30
0.0
 11
11.1166
 21
42.9304
 31
0.0
  0
LINE
  5
61
330
1E
100
AcDbEntity
  8
0
100
AcDbLine
 10
10.7206
 20
44.38239999999999
 30
0.0
 11
11.00859999999999
 21
43.6864
 31
0.0
  0
LINE
  5
62
330
1E
100
AcDbEntity
  8
0
100
AcDbLine
 10
11.00859999999999
 20
43.6864
 30
0.0
 11
11.1166
 21
42.9304
 31
0.0
  0
LINE
  5
64
330
1E
100
AcDbEntity
  8
0
100
AcDbLine
 10
0.753800000000005
 20
24.93562
 30
0.0
 11
31.9128
 21
24.93562
 31
0.0
  0
LINE
  5
65
330
1E
100
AcDbEntity
  8
0
100
AcDbLine
 10
0.0000000000000041
 20
47.4621
 30
0.0
 11
0.0000000000000041
 21
42.9816
 31
0.0
  0
LINE
  5
66
330
1E
100
AcDbEntity
  8
0
100
AcDbLine
 10
0.0000000000000041
 20
47.4621
 30
0.0
 11
0.0000000000000041
 21
51.7144
 31
0.0
  0
LINE
  5
67
330
1E
100
AcDbEntity
  8
0
100
AcDbLine
 10
0.0000000000000041
 20
55.3156
 30
0.0
 11
0.0000000000000041
 21
58.1447
 31
0.0
  0
LINE
  5
68
330
1E
100
AcDbEntity
  8
0
100
AcDbLine
 10
0.0000000000000041
 20
55.3156
 30
0.0
 11
0.0000000000000041
 21
51.7311
 31
0.0
  0
LINE
  5
69
330
1E
100
AcDbEntity
  8
0
100
AcDbLine
 10
0.0000000000000041
 20
51.7311
 30
0.0
 11
0.0000000000000041
 21
55.3156
 31
0.0
  0
LINE
  5
6A
330
1E
100
AcDbEntity
  8
0
100
AcDbLine
 10
0.0000000000000041
 20
51.7311
 30
0.0
 11
0.0000000000000041
 21
47.46329999999999
 31
0.0
  0
LINE
  5
6B
330
1E
100
AcDbEntity
  8
0
100
AcDbLine
 10
0.0000000000000041
 20
58.1447
 30
0.0
 11
0.0000000000000041
 21
59.8516
 31
0.0
  0
LINE
  5
6C
330
1E
100
AcDbEntity
  8
0
100
AcDbLine
 10
0.0000000000000041
 20
58.1447
 30
0.0
 11
0.0000000000000041
 21
55.3156
 31
0.0
  0
LINE
  5
6D
330
1E
100
AcDbEntity
  8
0
100
AcDbLine
 10
0.0000000000000041
 20
59.8516
 30
0.0
 11
0.0000000000000041
 21
60.4431
 31
0.0
  0
LINE
  5
6E
330
1E
100
AcDbEntity
  8
0
100
AcDbLine
 10
0.0000000000000041
 20
59.8516
 30
0.0
 11
0.0000000000000041
 21
58.1447
 31
0.0
  0
LINE
  5
6F
330
1E
100
AcDbEntity
  8
0
100
AcDbLine
 10
0.0000000000000041
 20
60.4431
 30
0.0
 11
0.0000000000000041
 21
59.84729999999999
 31
0.0
  0
LINE
  5
70
330
1E
100
AcDbEntity
  8
0
100
AcDbLine
 10
0.0000000000000041
 20
60.4431
 30
0.0
 11
0.7538000000000059
 21
60.9252
 31
0.0
  0
LINE
  5
71
330
1E
100
AcDbEntity
  8
0
100
AcDbLine
 10
0.0000000000000041
 20
60.4431
 30
0.0
 11
0.0000000000000041
 21
59.8516
 31
0.0
  0
LINE
  5
72
330
1E
100
AcDbEntity
  8
0
100
AcDbLine
 10
0.0000000000000041
 20
59.84729999999999
 30
0.0
 11
0.0000000000000041
 21
58.0712
 31
0.0
  0
LINE
  5
73
330
1E
100
AcDbEntity
  8
0
100
AcDbLine
 10
0.0000000000000041
 20
59.84729999999999
 30
0.0
 11
0.0000000000000041
 21
60.4431
 31
0.0
  0
LINE
  5
74
330
1E
100
AcDbEntity
  8
0
100
AcDbLine
 10
0.0000000000000041
 20
58.0712
 30
0.0
 11
0.0000000000000041
 21
55.3187
 31
0.0
  0
LINE
  5
75
330
1E
100
AcDbEntity
  8
0
100
AcDbLine
 10
0.0000000000000041
 20
58.0712
 30
0.0
 11
0.0000000000000041
 21
59.84729999999999
 31
0.0
  0
LINE
  5
76
330
1E
100
AcDbEntity
  8
0
100
AcDbLine
 10
0.0000000000000041
 20
55.3187
 30
0.0
 11
0.0000000000000041
 21
51.7144
 31
0.0
  0
LINE
  5
77
330
1E
100
AcDbEntity
  8
0
100
AcDbLine
 10
0.0000000000000041
 20
55.3187
 30
0.0
 11
0.0000000000000041
 21
58.0712
 31
0.0
  0
LINE
  5
78
330
1E
100
AcDbEntity
  8
0
100
AcDbLine
 10
24.0
 20
82.93040000000001
 30
0.0
 11
24.0
 21
84.9304
 31
0.0
  0
LINE
  5
79
330
1E
100
AcDbEntity
  8
0
100
AcDbLine
 10
24.0
 20
82.93040000000001
 30
0.0
 11
24.9
 21
82.93040000000001
 31
0.0
  0
LINE
  5
7A
330
1E
100
AcDbEntity
  8
0
100
AcDbLine
 10
24.0
 20
82.93040000000001
 30
0.0
 11
27.5
 21
81.93040000000001
 31
0.0
  0
LINE
  5
7B
330
1E
100
AcDbEntity
  8
0
100
AcDbLine
 10
24.0
 20
84.9304
 30
0.0
 11
24.9
 21
84.9304
 31
0.0
  0
LINE
  5
7C
330
1E
100
AcDbEntity
  8
0
100
AcDbLine
 10
24.0
 20
84.9304
 30
0.0
 11
24.0
 21
82.93040000000001
 31
0.0
  0
LINE
  5
7D
330
1E
100
AcDbEntity
  8
0
100
AcDbLine
 10
24.0
 20
84.93039999999991
 30
0.0
 11
24.0
 21
82.9303999999999
 31
0.0
  0
LINE
  5
7E
330
1E
100
AcDbEntity
  8
0
100
AcDbLine
 10
31.0
 20
79.4304
 30
0.0
 11
33.5
 21
75.43040000000001
 31
0.0
  0
LINE
  5
7F
330
1E
100
AcDbEntity
  8
0
100
AcDbLine
 10
31.0
 20
79.4303999999999
 30
0.0
 11
33.5
 21
75.43040000000001
 31
0.0
  0
LINE
  5
80
330
1E
100
AcDbEntity
  8
0
100
AcDbLine
 10
24.9
 20
82.93040000000001
 30
0.0
 11
27.5
 21
82.93040000000001
 31
0.0
  0
LINE
  5
81
330
1E
100
AcDbEntity
  8
0
100
AcDbLine
 10
27.5
 20
81.93040000000001
 30
0.0
 11
31.0
 21
79.4304
 31
0.0
  0
LINE
  5
82
330
1E
100
AcDbEntity
  8
0
100
AcDbLine
 10
31.69999999999999
 20
82.93040000000001
 30
0.0
 11
37.1
 21
82.93040000000001
 31
0.0
  0
LINE
  5
83
330
1E
100
AcDbEntity
  8
0
100
AcDbLine
 10
31.69999999999999
 20
84.9304
 30
0.0
 11
37.1
 21
84.9304
 31
0.0
  0
LINE
  5
84
330
1E
100
AcDbEntity
  8
0
100
AcDbLine
 10
27.5
 20
82.93040000000001
 30
0.0
 11
31.69999999999999
 21
82.93040000000001
 31
0.0
  0
LINE
  5
85
330
1E
100
AcDbEntity
  8
0
100
AcDbLine
 10
27.5
 20
84.9304
 30
0.0
 11
31.69999999999999
 21
84.9304
 31
0.0
  0
LINE
  5
86
330
1E
100
AcDbEntity
  8
0
100
AcDbLine
 10
24.9
 20
84.9304
 30
0.0
 11
27.5
 21
84.9304
 31
0.0
  0
LINE
  5
87
330
1E
100
AcDbEntity
  8
0
100
AcDbLine
 10
27.5
 20
81.9303999999999
 30
0.0
 11
31.0
 21
79.4303999999999
 31
0.0
  0
LINE
  5
88
330
1E
100
AcDbEntity
  8
0
100
AcDbLine
 10
24.0
 20
82.9303999999999
 30
0.0
 11
24.0
 21
84.93039999999991
 31
0.0
  0
LINE
  5
89
330
1E
100
AcDbEntity
  8
0
100
AcDbLine
 10
24.0
 20
82.9303999999999
 30
0.0
 11
27.5
 21
81.9303999999999
 31
0.0
  0
LINE
  5
8A
330
1E
100
AcDbEntity
  8
0
100
AcDbLine
 10
0.7538000000000059
 20
60.9252
 30
0.0
 11
31.9128
 21
60.9252
 31
0.0
  0
LINE
  5
8B
330
1E
100
AcDbEntity
  8
0
100
AcDbLine
 10
0.753800000000005
 20
60.9252
 30
0.0
 11
31.9128
 21
60.9252
 31
0.0
  0
LINE
  5
8C
330
1E
100
AcDbEntity
  8
0
100
AcDbLine
 10
0.0000000000000041
 20
51.7144
 30
0.0
 11
0.0000000000000041
 21
47.4621
 31
0.0
  0
LINE
  5
8D
330
1E
100
AcDbEntity
  8
0
100
AcDbLine
 10
0.0000000000000041
 20
51.7144
 30
0.0
 11
0.0000000000000041
 21
55.3187
 31
0.0
  0
LINE
  5
8E
330
1E
100
AcDbEntity
  8
0
100
AcDbLine
 10
32.66669999999999
 20
25.41774
 30
0.0
 11
32.66669999999999
 21
26.01354
 31
0.0
  0
LINE
  5
8F
330
1E
100
AcDbEntity
  8
0
100
AcDbLine
 10
32.66669999999999
 20
25.41774
 30
0.0
 11
33.42049999999999
 21
24.93562
 31
0.0
  0
LINE
  5
90
330
1E
100
AcDbEntity
  8
0
100
AcDbLine
 10
32.66669999999999
 20
26.01354
 30
0.0
 11
32.66669999999999
 21
25.41774
 31
0.0
  0
LINE
  5
91
330
1E
100
AcDbEntity
  8
0
100
AcDbLine
 10
32.66669999999999
 20
26.01354
 30
0.0
 11
32.66669999999999
 21
27.78959
 31
0.0
  0
LINE
  5
92
330
1E
100
AcDbEntity
  8
0
100
AcDbLine
 10
32.66669999999999
 20
27.78959
 30
0.0
 11
32.66669999999999
 21
26.01354
 31
0.0
  0
LINE
  5
93
330
1E
100
AcDbEntity
  8
0
100
AcDbLine
 10
32.66669999999999
 20
27.78959
 30
0.0
 11
32.66669999999999
 21
30.54211
 31
0.0
  0
LINE
  5
94
330
1E
100
AcDbEntity
  8
0
100
AcDbLine
 10
32.66669999999999
 20
55.3156
 30
0.0
 11
32.66669999999999
 21
51.7311
 31
0.0
  0
LINE
  5
95
330
1E
100
AcDbEntity
  8
0
100
AcDbLine
 10
32.66669999999999
 20
55.3156
 30
0.0
 11
32.66669999999999
 21
58.1447
 31
0.0
  0
LINE
  5
96
330
1E
100
AcDbEntity
  8
0
100
AcDbLine
 10
32.66669999999999
 20
51.7311
 30
0.0
 11
32.66669999999999
 21
47.46329999999999
 31
0.0
  0
LINE
  5
97
330
1E
100
AcDbEntity
  8
0
100
AcDbLine
 10
32.66669999999999
 20
51.7311
 30
0.0
 11
32.66669999999999
 21
55.3156
 31
0.0
  0
LINE
  5
98
330
1E
100
AcDbEntity
  8
0
100
AcDbLine
 10
32.66669999999999
 20
47.46329999999999
 30
0.0
 11
32.66669999999999
 21
42.87919999999999
 31
0.0
  0
LINE
  5
99
330
1E
100
AcDbEntity
  8
0
100
AcDbLine
 10
32.66669999999999
 20
47.46329999999999
 30
0.0
 11
32.66669999999999
 21
51.7311
 31
0.0
  0
LINE
  5
9A
330
1E
100
AcDbEntity
  8
0
100
AcDbLine
 10
32.66669999999999
 20
42.87919999999999
 30
0.0
 11
32.66669999999999
 21
38.39869999999999
 31
0.0
  0
LINE
  5
9B
330
1E
100
AcDbEntity
  8
0
100
AcDbLine
 10
32.66669999999999
 20
42.87919999999999
 30
0.0
 11
32.66669999999999
 21
47.46329999999999
 31
0.0
  0
LINE
  5
9C
330
1E
100
AcDbEntity
  8
0
100
AcDbLine
 10
32.66669999999999
 20
38.39869999999999
 30
0.0
 11
32.66669999999999
 21
34.1464
 31
0.0
  0
LINE
  5
9D
330
1E
100
AcDbEntity
  8
0
100
AcDbLine
 10
32.66669999999999
 20
38.39869999999999
 30
0.0
 11
32.66669999999999
 21
42.87919999999999
 31
0.0
  0
LINE
  5
9E
330
1E
100
AcDbEntity
  8
0
100
AcDbLine
 10
32.66669999999999
 20
30.54211
 30
0.0
 11
32.66669999999999
 21
27.78959
 31
0.0
  0
LINE
  5
9F
330
1E
100
AcDbEntity
  8
0
100
AcDbLine
 10
32.66669999999999
 20
30.54211
 30
0.0
 11
32.66669999999999
 21
34.1464
 31
0.0
  0
LINE
  5
A0
330
1E
100
AcDbEntity
  8
0
100
AcDbLine
 10
32.66669999999999
 20
34.1464
 30
0.0
 11
32.66669999999999
 21
30.54211
 31
0.0
  0
LINE
  5
A1
330
1E
100
AcDbEntity
  8
0
100
AcDbLine
 10
32.66669999999999
 20
34.1464
 30
0.0
 11
32.66669999999999
 21
38.39869999999999
 31
0.0
  0
LINE
  5
A2
330
1E
100
AcDbEntity
  8
0
100
AcDbLine
 10
32.66669999999999
 20
58.1447
 30
0.0
 11
32.66669999999999
 21
59.8516
 31
0.0
  0
LINE
  5
A3
330
1E
100
AcDbEntity
  8
0
100
AcDbLine
 10
32.66669999999999
 20
58.1447
 30
0.0
 11
32.66669999999999
 21
55.3156
 31
0.0
  0
LINE
  5
A4
330
1E
100
AcDbEntity
  8
0
100
AcDbLine
 10
39.0
 20
21.4304
 30
0.0
 11
44.0
 21
20.93039999999999
 31
0.0
  0
LINE
  5
A5
330
1E
100
AcDbEntity
  8
0
100
AcDbLine
 10
45.8
 20
20.93039999999999
 30
0.0
 11
47.0
 21
20.93039999999999
 31
0.0
  0
LINE
  5
A6
330
1E
100
AcDbEntity
  8
0
100
AcDbLine
 10
47.0
 20
20.93039999999999
 30
0.0
 11
48.5
 21
20.93039999999999
 31
0.0
  0
LINE
  5
A7
330
1E
100
AcDbEntity
  8
0
100
AcDbLine
 10
54.2
 20
20.93039999999999
 30
0.0
 11
55.2
 21
20.93039999999999
 31
0.0
  0
LINE
  5
A8
330
1E
100
AcDbEntity
  8
0
100
AcDbLine
 10
70.0
 20
10.9304
 30
0.0
 11
70.50399999999999
 21
7.87539999999999
 31
0.0
  0
LINE
  5
A9
330
1E
100
AcDbEntity
  8
0
100
AcDbLine
 10
70.0
 20
10.9304
 30
0.0
 11
70.0
 21
32.93039999999999
 31
0.0
  0
LINE
  5
AA
330
1E
100
AcDbEntity
  8
0
100
AcDbLine
 10
70.0
 20
10.9304
 30
0.0
 11
70.50399999999999
 21
13.9853
 31
0.0
  0
LINE
  5
AB
330
1E
100
AcDbEntity
  8
0
100
AcDbLine
 10
55.2
 20
20.93039999999999
 30
0.0
 11
55.8
 21
20.93039999999999
 31
0.0
  0
LINE
  5
AC
330
1E
100
AcDbEntity
  8
0
100
AcDbLine
 10
55.8
 20
20.93039999999999
 30
0.0
 11
56.0
 21
20.93039999999999
 31
0.0
  0
LINE
  5
AD
330
1E
100
AcDbEntity
  8
0
100
AcDbLine
 10
53.0
 20
20.93039999999999
 30
0.0
 11
54.2
 21
20.93039999999999
 31
0.0
  0
LINE
  5
AE
330
1E
100
AcDbEntity
  8
0
100
AcDbLine
 10
51.5
 20
20.93039999999999
 30
0.0
 11
53.0
 21
20.93039999999999
 31
0.0
  0
LINE
  5
AF
330
1E
100
AcDbEntity
  8
0
100
AcDbLine
 10
50.0
 20
20.93039999999999
 30
0.0
 11
51.5
 21
20.93039999999999
 31
0.0
  0
LINE
  5
B0
330
1E
100
AcDbEntity
  8
0
100
AcDbLine
 10
56.0
 20
20.93039999999999
 30
0.0
 11
61.0
 21
21.4304
 31
0.0
  0
LINE
  5
B1
330
1E
100
AcDbEntity
  8
0
100
AcDbLine
 10
48.5
 20
20.93039999999999
 30
0.0
 11
50.0
 21
20.93039999999999
 31
0.0
  0
LINE
  5
B2
330
1E
100
AcDbEntity
  8
0
100
AcDbLine
 10
44.79999999999999
 20
20.93039999999999
 30
0.0
 11
45.8
 21
20.93039999999999
 31
0.0
  0
LINE
  5
B3
330
1E
100
AcDbEntity
  8
0
100
AcDbLine
 10
44.2
 20
20.93039999999999
 30
0.0
 11
44.79999999999999
 21
20.93039999999999
 31
0.0
  0
LINE
  5
B4
330
1E
100
AcDbEntity
  8
0
100
AcDbLine
 10
44.79999999999999
 20
20.93039999999999
 30
0.0
 11
45.8
 21
20.93039999999999
 31
0.0
  0
LINE
  5
B5
330
1E
100
AcDbEntity
  8
0
100
AcDbLine
 10
44.2
 20
20.93039999999999
 30
0.0
 11
44.79999999999999
 21
20.93039999999999
 31
0.0
  0
LINE
  5
B6
330
1E
100
AcDbEntity
  8
0
100
AcDbLine
 10
44.0
 20
20.93039999999999
 30
0.0
 11
44.2
 21
20.93039999999999
 31
0.0
  0
LINE
  5
B7
330
1E
100
AcDbEntity
  8
0
100
AcDbLine
 10
45.8
 20
20.93039999999999
 30
0.0
 11
47.0
 21
20.93039999999999
 31
0.0
  0
LINE
  5
B8
330
1E
100
AcDbEntity
  8
0
100
AcDbLine
 10
47.0
 20
20.93039999999999
 30
0.0
 11
48.5
 21
20.93039999999999
 31
0.0
  0
LINE
  5
B9
330
1E
100
AcDbEntity
  8
0
100
AcDbLine
 10
48.5
 20
20.93039999999999
 30
0.0
 11
50.0
 21
20.93039999999999
 31
0.0
  0
LINE
  5
BA
330
1E
100
AcDbEntity
  8
0
100
AcDbLine
 10
53.0
 20
20.93039999999999
 30
0.0
 11
54.2
 21
20.93039999999999
 31
0.0
  0
LINE
  5
BB
330
1E
100
AcDbEntity
  8
0
100
AcDbLine
 10
51.5
 20
20.93039999999999
 30
0.0
 11
53.0
 21
20.93039999999999
 31
0.0
  0
LINE
  5
BC
330
1E
100
AcDbEntity
  8
0
100
AcDbLine
 10
50.0
 20
20.93039999999999
 30
0.0
 11
51.5
 21
20.93039999999999
 31
0.0
  0
LINE
  5
BD
330
1E
100
AcDbEntity
  8
0
100
AcDbLine
 10
54.2
 20
20.93039999999999
 30
0.0
 11
55.2
 21
20.93039999999999
 31
0.0
  0
LINE
  5
BE
330
1E
100
AcDbEntity
  8
0
100
AcDbLine
 10
55.2
 20
20.93039999999999
 30
0.0
 11
55.8
 21
20.93039999999999
 31
0.0
  0
LINE
  5
BF
330
1E
100
AcDbEntity
  8
0
100
AcDbLine
 10
55.8
 20
20.93039999999999
 30
0.0
 11
56.0
 21
20.93039999999999
 31
0.0
  0
LINE
  5
C0
330
1E
100
AcDbEntity
  8
0
100
AcDbLine
 10
56.0
 20
20.93039999999999
 30
0.0
 11
61.0
 21
21.4304
 31
0.0
  0
LINE
  5
C1
330
1E
100
AcDbEntity
  8
0
100
AcDbLine
 10
61.0
 20
21.4304
 30
0.0
 11
63.0
 21
21.93039999999999
 31
0.0
  0
LINE
  5
C2
330
1E
100
AcDbEntity
  8
0
100
AcDbLine
 10
61.0
 20
21.4304
 30
0.0
 11
63.0
 21
21.93039999999999
 31
0.0
  0
LINE
  5
C3
330
1E
100
AcDbEntity
  8
0
100
AcDbLine
 10
44.0
 20
20.93039999999999
 30
0.0
 11
44.2
 21
20.93039999999999
 31
0.0
  0
LINE
  5
C4
330
1E
100
AcDbEntity
  8
0
100
AcDbLine
 10
39.0
 20
21.4304
 30
0.0
 11
44.0
 21
20.93039999999999
 31
0.0
  0
LINE
  5
C5
330
1E
100
AcDbEntity
  8
0
100
AcDbLine
 10
37.0
 20
21.93039999999999
 30
0.0
 11
37.0
 21
42.43039999999999
 31
0.0
  0
LINE
  5
C6
330
1E
100
AcDbEntity
  8
0
100
AcDbLine
 10
37.0
 20
21.93039999999999
 30
0.0
 11
37.5
 21
21.93039999999999
 31
0.0
  0
LINE
  5
C7
330
1E
100
AcDbEntity
  8
0
100
AcDbLine
 10
37.0
 20
21.93039999999999
 30
0.0
 11
39.0
 21
21.4304
 31
0.0
  0
LINE
  5
C8
330
1E
100
AcDbEntity
  8
0
100
AcDbLine
 10
40.8
 20
21.93039999999999
 30
0.0
 11
43.5
 21
21.93039999999999
 31
0.0
  0
LINE
  5
C9
330
1E
100
AcDbEntity
  8
0
100
AcDbLine
 10
43.5
 20
21.93039999999999
 30
0.0
 11
46.7
 21
21.93039999999999
 31
0.0
  0
LINE
  5
CA
330
1E
100
AcDbEntity
  8
0
100
AcDbLine
 10
46.7
 20
21.93039999999999
 30
0.0
 11
50.0
 21
21.93039999999999
 31
0.0
  0
LINE
  5
CB
330
1E
100
AcDbEntity
  8
0
100
AcDbLine
 10
38.7
 20
21.93039999999999
 30
0.0
 11
40.8
 21
21.93039999999999
 31
0.0
  0
LINE
  5
CC
330
1E
100
AcDbEntity
  8
0
100
AcDbLine
 10
37.5
 20
21.93039999999999
 30
0.0
 11
38.7
 21
21.93039999999999
 31
0.0
  0
LINE
  5
CD
330
1E
100
AcDbEntity
  8
0
100
AcDbLine
 10
59.2
 20
21.93039999999999
 30
0.0
 11
61.29999999999999
 21
21.93039999999999
 31
0.0
  0
LINE
  5
CE
330
1E
100
AcDbEntity
  8
0
100
AcDbLine
 10
61.29999999999999
 20
21.93039999999999
 30
0.0
 11
62.5
 21
21.93039999999999
 31
0.0
  0
LINE
  5
CF
330
1E
100
AcDbEntity
  8
0
100
AcDbLine
 10
62.5
 20
21.93039999999999
 30
0.0
 11
63.0
 21
21.93039999999999
 31
0.0
  0
LINE
  5
D0
330
1E
100
AcDbEntity
  8
0
100
AcDbLine
 10
56.5
 20
21.93039999999999
 30
0.0
 11
59.2
 21
21.93039999999999
 31
0.0
  0
LINE
  5
D1
330
1E
100
AcDbEntity
  8
0
100
AcDbLine
 10
53.3
 20
21.93039999999999
 30
0.0
 11
56.5
 21
21.93039999999999
 31
0.0
  0
LINE
  5
D2
330
1E
100
AcDbEntity
  8
0
100
AcDbLine
 10
50.0
 20
21.93039999999999
 30
0.0
 11
53.3
 21
21.93039999999999
 31
0.0
  0
LINE
  5
D3
330
1E
100
AcDbEntity
  8
0
100
AcDbLine
 10
70.0
 20
24.9356
 30
0.0
 11
70.0
 21
25.52179999999999
 31
0.0
  0
LINE
  5
D5
330
1E
100
AcDbEntity
  8
0
100
AcDbLine
 10
63.0
 20
21.93039999999999
 30
0.0
 11
63.0
 21
42.43039999999999
 31
0.0
  0
LINE
  5
D6
330
1E
100
AcDbEntity
  8
0
100
AcDbLine
 10
37.0
 20
24.93562
 30
0.0
 11
37.0
 21
21.93039999999999
 31
0.0
  0
LINE
  5
D7
330
1E
100
AcDbEntity
  8
0
100
AcDbLine
 10
37.0
 20
21.93039999999999
 30
0.0
 11
37.0
 21
24.93562
 31
0.0
  0
LINE
  5
D8
330
1E
100
AcDbEntity
  8
0
100
AcDbLine
 10
37.0
 20
21.93039999999999
 30
0.0
 11
39.0
 21
21.4304
 31
0.0
  0
LINE
  5
D9
330
1E
100
AcDbEntity
  8
0
100
AcDbLine
 10
33.42049999999999
 20
24.93562
 30
0.0
 11
37.0
 21
24.93562
 31
0.0
  0
LINE
  5
DA
330
1E
100
AcDbEntity
  8
0
100
AcDbLine
 10
70.0
 20
27.3865
 30
0.0
 11
70.0
 21
30.2638
 31
0.0
  0
LINE
  5
DB
330
1E
100
AcDbEntity
  8
0
100
AcDbLine
 10
70.0
 20
27.3865
 30
0.0
 11
70.0
 21
25.52179999999999
 31
0.0
  0
LINE
  5
DC
330
1E
100
AcDbEntity
  8
0
100
AcDbLine
 10
70.0
 20
25.52179999999999
 30
0.0
 11
70.0
 21
27.3865
 31
0.0
  0
LINE
  5
DD
330
1E
100
AcDbEntity
  8
0
100
AcDbLine
 10
70.0
 20
25.52179999999999
 30
0.0
 11
70.0
 21
24.9356
 31
0.0
  0
LINE
  5
DE
330
1E
100
AcDbEntity
  8
0
100
AcDbLine
 10
70.0
 20
25.52177
 30
0.0
 11
70.0
 21
24.93562
 31
0.0
  0
LINE
  5
DF
330
1E
100
AcDbEntity
  8
0
100
AcDbLine
 10
63.0
 20
24.93562
 30
0.0
 11
70.0
 21
24.93562
 31
0.0
  0
LINE
  5
E0
330
1E
100
AcDbEntity
  8
0
100
AcDbLine
 10
70.0
 20
27.38652
 30
0.0
 11
70.0
 21
25.52177
 31
0.0
  0
LINE
  5
E1
330
1E
100
AcDbEntity
  8
0
100
AcDbLine
 10
40.8
 20
42.43039999999999
 30
0.0
 11
43.5
 21
42.43039999999999
 31
0.0
  0
LINE
  5
E2
330
1E
100
AcDbEntity
  8
0
100
AcDbLine
 10
38.7
 20
42.43039999999999
 30
0.0
 11
40.8
 21
42.43039999999999
 31
0.0
  0
LINE
  5
E3
330
1E
100
AcDbEntity
  8
0
100
AcDbLine
 10
37.5
 20
42.43039999999999
 30
0.0
 11
38.7
 21
42.43039999999999
 31
0.0
  0
LINE
  5
E4
330
1E
100
AcDbEntity
  8
0
100
AcDbLine
 10
43.5
 20
42.43039999999999
 30
0.0
 11
46.7
 21
42.43039999999999
 31
0.0
  0
LINE
  5
E5
330
1E
100
AcDbEntity
  8
0
100
AcDbLine
 10
46.7
 20
42.43039999999999
 30
0.0
 11
50.0
 21
42.43039999999999
 31
0.0
  0
LINE
  5
E6
330
1E
100
AcDbEntity
  8
0
100
AcDbLine
 10
37.0
 20
42.43039999999999
 30
0.0
 11
37.5
 21
42.9304
 31
0.0
  0
LINE
  5
E7
330
1E
100
AcDbEntity
  8
0
100
AcDbLine
 10
37.0
 20
42.43039999999999
 30
0.0
 11
37.5
 21
42.43039999999999
 31
0.0
  0
LINE
  5
E8
330
1E
100
AcDbEntity
  8
0
100
AcDbLine
 10
37.0
 20
42.43039999999999
 30
0.0
 11
37.0
 21
21.93039999999999
 31
0.0
  0
LINE
  5
E9
330
1E
100
AcDbEntity
  8
0
100
AcDbLine
 10
59.2
 20
42.43039999999999
 30
0.0
 11
61.29999999999999
 21
42.43039999999999
 31
0.0
  0
LINE
  5
EA
330
1E
100
AcDbEntity
  8
0
100
AcDbLine
 10
70.0
 20
30.2638
 30
0.0
 11
70.0
 21
33.9304
 31
0.0
  0
LINE
  5
EB
330
1E
100
AcDbEntity
  8
0
100
AcDbLine
 10
70.0
 20
30.2638
 30
0.0
 11
70.0
 21
27.3865
 31
0.0
  0
LINE
  5
ED
330
1E
100
AcDbEntity
  8
0
100
AcDbLine
 10
70.0
 20
32.93039999999999
 30
0.0
 11
70.0
 21
10.9304
 31
0.0
  0
LINE
  5
F0
330
1E
100
AcDbEntity
  8
0
100
AcDbLine
 10
70.0
 20
32.93039999999999
 30
0.0
 11
70.0
 21
33.9304
 31
0.0
  0
LINE
  5
F1
330
1E
100
AcDbEntity
  8
0
100
AcDbLine
 10
63.0
 20
42.43039999999999
 30
0.0
 11
63.0
 21
21.93039999999999
 31
0.0
  0
LINE
  5
F2
330
1E
100
AcDbEntity
  8
0
100
AcDbLine
 10
61.29999999999999
 20
42.43039999999999
 30
0.0
 11
62.5
 21
42.43039999999999
 31
0.0
  0
LINE
  5
F3
330
1E
100
AcDbEntity
  8
0
100
AcDbLine
 10
62.5
 20
42.43039999999999
 30
0.0
 11
63.0
 21
42.43039999999999
 31
0.0
  0
LINE
  5
F4
330
1E
100
AcDbEntity
  8
0
100
AcDbLine
 10
56.5
 20
42.43039999999999
 30
0.0
 11
59.2
 21
42.43039999999999
 31
0.0
  0
LINE
  5
F5
330
1E
100
AcDbEntity
  8
0
100
AcDbLine
 10
53.3
 20
42.43039999999999
 30
0.0
 11
56.5
 21
42.43039999999999
 31
0.0
  0
LINE
  5
F6
330
1E
100
AcDbEntity
  8
0
100
AcDbLine
 10
50.0
 20
42.43039999999999
 30
0.0
 11
53.3
 21
42.43039999999999
 31
0.0
  0
LINE
  5
F7
330
1E
100
AcDbEntity
  8
0
100
AcDbLine
 10
41.2
 20
42.9304
 30
0.0
 11
43.79999999999999
 21
42.9304
 31
0.0
  0
LINE
  5
F8
330
1E
100
AcDbEntity
  8
0
100
AcDbLine
 10
43.79999999999999
 20
42.9304
 30
0.0
 11
46.79999999999999
 21
42.9304
 31
0.0
  0
LINE
  5
F9
330
1E
100
AcDbEntity
  8
0
100
AcDbLine
 10
46.79999999999999
 20
42.9304
 30
0.0
 11
50.0
 21
42.9304
 31
0.0
  0
LINE
  5
FA
330
1E
100
AcDbEntity
  8
0
100
AcDbLine
 10
39.2
 20
42.9304
 30
0.0
 11
41.2
 21
42.9304
 31
0.0
  0
LINE
  5
FB
330
1E
100
AcDbEntity
  8
0
100
AcDbLine
 10
38.0
 20
42.9304
 30
0.0
 11
39.2
 21
42.9304
 31
0.0
  0
LINE
  5
FC
330
1E
100
AcDbEntity
  8
0
100
AcDbLine
 10
37.5
 20
42.9304
 30
0.0
 11
38.0
 21
42.9304
 31
0.0
  0
LINE
  5
FD
330
1E
100
AcDbEntity
  8
0
100
AcDbLine
 10
58.79999999999999
 20
42.9304
 30
0.0
 11
60.8
 21
42.9304
 31
0.0
  0
LINE
  5
FE
330
1E
100
AcDbEntity
  8
0
100
AcDbLine
 10
60.8
 20
42.9304
 30
0.0
 11
62.0
 21
42.9304
 31
0.0
  0
LINE
  5
FF
330
1E
100
AcDbEntity
  8
0
100
AcDbLine
 10
62.0
 20
42.9304
 30
0.0
 11
62.5
 21
42.9304
 31
0.0
  0
LINE
  5
100
330
1E
100
AcDbEntity
  8
0
100
AcDbLine
 10
56.2
 20
42.9304
 30
0.0
 11
58.79999999999999
 21
42.9304
 31
0.0
  0
LINE
  5
101
330
1E
100
AcDbEntity
  8
0
100
AcDbLine
 10
53.2
 20
42.9304
 30
0.0
 11
56.2
 21
42.9304
 31
0.0
  0
LINE
  5
102
330
1E
100
AcDbEntity
  8
0
100
AcDbLine
 10
50.0
 20
42.9304
 30
0.0
 11
53.2
 21
42.9304
 31
0.0
  0
LINE
  5
103
330
1E
100
AcDbEntity
  8
0
100
AcDbLine
 10
40.8
 20
43.4304
 30
0.0
 11
43.5
 21
43.4304
 31
0.0
  0
LINE
  5
104
330
1E
100
AcDbEntity
  8
0
100
AcDbLine
 10
43.5
 20
43.4304
 30
0.0
 11
46.7
 21
43.4304
 31
0.0
  0
LINE
  5
105
330
1E
100
AcDbEntity
  8
0
100
AcDbLine
 10
46.7
 20
43.4304
 30
0.0
 11
50.0
 21
43.4304
 31
0.0
  0
LINE
  5
106
330
1E
100
AcDbEntity
  8
0
100
AcDbLine
 10
38.7
 20
43.4304
 30
0.0
 11
40.8
 21
43.4304
 31
0.0
  0
LINE
  5
107
330
1E
100
AcDbEntity
  8
0
100
AcDbLine
 10
37.5
 20
43.4304
 30
0.0
 11
38.7
 21
43.4304
 31
0.0
  0
LINE
  5
108
330
1E
100
AcDbEntity
  8
0
100
AcDbLine
 10
37.0
 20
43.4304
 30
0.0
 11
37.0
 21
53.9304
 31
0.0
  0
LINE
  5
109
330
1E
100
AcDbEntity
  8
0
100
AcDbLine
 10
37.0
 20
43.4304
 30
0.0
 11
37.5
 21
43.4304
 31
0.0
  0
LINE
  5
10A
330
1E
100
AcDbEntity
  8
0
100
AcDbLine
 10
37.0
 20
43.4304
 30
0.0
 11
37.5
 21
42.9304
 31
0.0
  0
LINE
  5
10B
330
1E
100
AcDbEntity
  8
0
100
AcDbLine
 10
59.2
 20
43.4304
 30
0.0
 11
61.29999999999999
 21
43.4304
 31
0.0
  0
LINE
  5
10C
330
1E
100
AcDbEntity
  8
0
100
AcDbLine
 10
61.29999999999999
 20
43.4304
 30
0.0
 11
62.5
 21
43.4304
 31
0.0
  0
LINE
  5
10D
330
1E
100
AcDbEntity
  8
0
100
AcDbLine
 10
62.5
 20
43.4304
 30
0.0
 11
63.0
 21
43.4304
 31
0.0
  0
LINE
  5
10E
330
1E
100
AcDbEntity
  8
0
100
AcDbLine
 10
56.5
 20
43.4304
 30
0.0
 11
59.2
 21
43.4304
 31
0.0
  0
LINE
  5
10F
330
1E
100
AcDbEntity
  8
0
100
AcDbLine
 10
53.3
 20
43.4304
 30
0.0
 11
56.5
 21
43.4304
 31
0.0
  0
LINE
  5
110
330
1E
100
AcDbEntity
  8
0
100
AcDbLine
 10
50.0
 20
43.4304
 30
0.0
 11
53.3
 21
43.4304
 31
0.0
  0
LINE
  5
111
330
1E
100
AcDbEntity
  8
0
100
AcDbLine
 10
62.5
 20
42.9304
 30
0.0
 11
63.0
 21
43.4304
 31
0.0
  0
LINE
  5
112
330
1E
100
AcDbEntity
  8
0
100
AcDbLine
 10
62.5
 20
42.9304
 30
0.0
 11
63.0
 21
42.43039999999999
 31
0.0
  0
LINE
  5
114
330
1E
100
AcDbEntity
  8
0
100
AcDbLine
 10
70.0
 20
47.9304
 30
0.0
 11
70.50399999999999
 21
50.9853
 31
0.0
  0
LINE
  5
115
330
1E
100
AcDbEntity
  8
0
100
AcDbLine
 10
63.0
 20
43.4304
 30
0.0
 11
63.0
 21
53.9304
 31
0.0
  0
LINE
  5
116
330
1E
100
AcDbEntity
  8
0
100
AcDbLine
 10
37.0
 20
53.9304
 30
0.0
 11
37.0
 21
43.4304
 31
0.0
  0
LINE
  5
117
330
1E
100
AcDbEntity
  8
0
100
AcDbLine
 10
63.0
 20
53.9304
 30
0.0
 11
63.5
 21
61.93039999999999
 31
0.0
  0
LINE
  5
118
330
1E
100
AcDbEntity
  8
0
100
AcDbLine
 10
63.0
 20
53.9304
 30
0.0
 11
63.0
 21
43.4304
 31
0.0
  0
LINE
  5
119
330
1E
100
AcDbEntity
  8
0
100
AcDbLine
 10
70.0
 20
58.5189
 30
0.0
 11
70.0
 21
55.6537
 31
0.0
  0
LINE
  5
11A
330
1E
100
AcDbEntity
  8
0
100
AcDbLine
 10
70.0
 20
58.5189
 30
0.0
 11
70.0
 21
60.2617
 31
0.0
  0
LINE
  5
11B
330
1E
100
AcDbEntity
  8
0
100
AcDbLine
 10
70.0
 20
55.6537
 30
0.0
 11
70.0
 21
51.9972
 31
0.0
  0
LINE
  5
11C
330
1E
100
AcDbEntity
  8
0
100
AcDbLine
 10
70.0
 20
55.6537
 30
0.0
 11
70.0
 21
58.5189
 31
0.0
  0
LINE
  5
11D
330
1E
100
AcDbEntity
  8
0
100
AcDbLine
 10
70.0
 20
51.9972
 30
0.0
 11
70.0
 21
47.595
 31
0.0
  0
LINE
  5
11E
330
1E
100
AcDbEntity
  8
0
100
AcDbLine
 10
70.0
 20
51.9972
 30
0.0
 11
70.0
 21
55.6537
 31
0.0
  0
LINE
  5
11F
330
1E
100
AcDbEntity
  8
0
100
AcDbLine
 10
70.0
 20
47.595
 30
0.0
 11
70.0
 21
42.85029999999999
 31
0.0
  0
LINE
  5
120
330
1E
100
AcDbEntity
  8
0
100
AcDbLine
 10
70.0
 20
47.595
 30
0.0
 11
70.0
 21
51.9972
 31
0.0
  0
LINE
  5
121
330
1E
100
AcDbEntity
  8
0
100
AcDbLine
 10
70.0
 20
42.85029999999999
 30
0.0
 11
70.0
 21
38.245
 31
0.0
  0
LINE
  5
122
330
1E
100
AcDbEntity
  8
0
100
AcDbLine
 10
70.0
 20
42.85029999999999
 30
0.0
 11
70.0
 21
47.595
 31
0.0
  0
LINE
  5
123
330
1E
100
AcDbEntity
  8
0
100
AcDbLine
 10
70.0
 20
38.245
 30
0.0
 11
70.0
 21
33.9304
 31
0.0
  0
LINE
  5
124
330
1E
100
AcDbEntity
  8
0
100
AcDbLine
 10
70.0
 20
38.245
 30
0.0
 11
70.0
 21
42.85029999999999
 31
0.0
  0
LINE
  5
125
330
1E
100
AcDbEntity
  8
0
100
AcDbLine
 10
70.0
 20
30.26375
 30
0.0
 11
70.0
 21
27.38652
 31
0.0
  0
LINE
  5
126
330
1E
100
AcDbEntity
  8
0
100
AcDbLine
 10
71.848
 20
5.01139999999999
 30
0.0
 11
74.08800000000001
 21
2.4815
 31
0.0
  0
LINE
  5
127
330
1E
100
AcDbEntity
  8
0
100
AcDbLine
 10
70.50399999999999
 20
7.87539999999999
 30
0.0
 11
71.848
 21
5.01139999999999
 31
0.0
  0
LINE
  5
129
330
1E
100
AcDbEntity
  8
0
100
AcDbLine
 10
74.08800000000001
 20
2.4815
 30
0.0
 11
76.0
 21
1.21319999999999
 31
0.0
  0
LINE
  5
12A
330
1E
100
AcDbEntity
  8
0
100
AcDbLine
 10
76.0
 20
1.21319999999999
 30
0.0
 11
76.0
 21
4.4522
 31
0.0
  0
LINE
  5
12B
330
1E
100
AcDbEntity
  8
0
100
AcDbLine
 10
76.0
 20
1.21319999999999
 30
0.0
 11
76.0
 21
2.94554166666666
 31
0.0
  0
LINE
  5
12C
330
1E
100
AcDbEntity
  8
0
100
AcDbLine
 10
84.0
 20
0.0695999999999934
 30
0.0
 11
87.0
 21
0.415999999999993
 31
0.0
  0
LINE
  5
12D
330
1E
100
AcDbEntity
  8
0
100
AcDbLine
 10
84.0
 20
0.0695999999999935
 30
0.0
 11
87.0
 21
0.415999999999993
 31
0.0
  0
LINE
  5
12E
330
1E
100
AcDbEntity
  8
0
100
AcDbLine
 10
92.0
 20
1.21319999999999
 30
0.0
 11
92.0
 21
4.4522
 31
0.0
  0
LINE
  5
12F
330
1E
100
AcDbEntity
  8
0
100
AcDbLine
 10
92.0
 20
1.21319999999999
 30
0.0
 11
92.0
 21
2.94554166666666
 31
0.0
  0
LINE
  5
130
330
1E
100
AcDbEntity
  8
0
100
AcDbLine
 10
92.0
 20
1.21319999999999
 30
0.0
 11
93.91200000000001
 21
2.4815
 31
0.0
  0
LINE
  5
131
330
1E
100
AcDbEntity
  8
0
100
AcDbLine
 10
87.0
 20
0.415999999999993
 30
0.0
 11
89.7
 21
1.3687
 31
0.0
  0
LINE
  5
132
330
1E
100
AcDbEntity
  8
0
100
AcDbLine
 10
89.7
 20
1.3687
 30
0.0
 11
92.09999999999999
 21
3.0141
 31
0.0
  0
LINE
  5
133
330
1E
100
AcDbEntity
  8
0
100
AcDbLine
 10
81.0
 20
0.415999999999993
 30
0.0
 11
84.0
 21
0.0695999999999934
 31
0.0
  0
LINE
  5
134
330
1E
100
AcDbEntity
  8
0
100
AcDbLine
 10
81.0
 20
0.415999999999993
 30
0.0
 11
84.0
 21
0.0695999999999935
 31
0.0
  0
LINE
  5
135
330
1E
100
AcDbEntity
  8
0
100
AcDbLine
 10
93.91200000000001
 20
2.4815
 30
0.0
 11
96.15200000000001
 21
5.01139999999999
 31
0.0
  0
LINE
  5
136
330
1E
100
AcDbEntity
  8
0
100
AcDbLine
 10
92.0
 20
2.94554166666666
 30
0.0
 11
92.0
 21
1.21319999999999
 31
0.0
  0
LINE
  5
137
330
1E
100
AcDbEntity
  8
0
100
AcDbLine
 10
76.0
 20
2.94554166666666
 30
0.0
 11
76.0
 21
1.21319999999999
 31
0.0
  0
LINE
  5
138
330
1E
100
AcDbEntity
  8
0
100
AcDbLine
 10
92.0
 20
4.4522
 30
0.0
 11
93.54799999999999
 21
6.27969999999999
 31
0.0
  0
LINE
  5
139
330
1E
100
AcDbEntity
  8
0
100
AcDbLine
 10
92.0
 20
4.4522
 30
0.0
 11
92.0
 21
1.21319999999999
 31
0.0
  0
LINE
  5
13A
330
1E
100
AcDbEntity
  8
0
100
AcDbLine
 10
76.0
 20
4.4522
 30
0.0
 11
76.0
 21
1.21319999999999
 31
0.0
  0
LINE
  5
13B
330
1E
100
AcDbEntity
  8
0
100
AcDbLine
 10
92.09999999999999
 20
3.0141
 30
0.0
 11
94.0
 21
5.09259999999999
 31
0.0
  0
LINE
  5
13C
330
1E
100
AcDbEntity
  8
0
100
AcDbLine
 10
96.15200000000001
 20
5.01139999999999
 30
0.0
 11
97.496
 21
7.87539999999999
 31
0.0
  0
LINE
  5
13D
330
1E
100
AcDbEntity
  8
0
100
AcDbLine
 10
94.0
 20
5.09259999999999
 30
0.0
 11
95.09999999999999
 21
7.43089999999999
 31
0.0
  0
LINE
  5
13E
330
1E
100
AcDbEntity
  8
0
100
AcDbLine
 10
78.3
 20
1.3687
 30
0.0
 11
81.0
 21
0.415999999999993
 31
0.0
  0
LINE
  5
13F
330
1E
100
AcDbEntity
  8
0
100
AcDbLine
 10
75.9
 20
3.0141
 30
0.0
 11
78.3
 21
1.3687
 31
0.0
  0
LINE
  5
140
330
1E
100
AcDbEntity
  8
0
100
AcDbLine
 10
93.54799999999999
 20
6.27969999999999
 30
0.0
 11
94.60399999999999
 21
8.53009999999999
 31
0.0
  0
LINE
  5
141
330
1E
100
AcDbEntity
  8
0
100
AcDbLine
 10
94.60399999999999
 20
8.53009999999999
 30
0.0
 11
95.0
 21
10.9304
 31
0.0
  0
LINE
  5
142
330
1E
100
AcDbEntity
  8
0
100
AcDbLine
 10
74.45199999999999
 20
6.27969999999999
 30
0.0
 11
76.0
 21
4.4522
 31
0.0
  0
LINE
  5
143
330
1E
100
AcDbEntity
  8
0
100
AcDbLine
 10
73.396
 20
8.53009999999999
 30
0.0
 11
74.45199999999999
 21
6.27969999999999
 31
0.0
  0
LINE
  5
144
330
1E
100
AcDbEntity
  8
0
100
AcDbLine
 10
97.496
 20
7.87539999999999
 30
0.0
 11
98.0
 21
10.9304
 31
0.0
  0
LINE
  5
145
330
1E
100
AcDbEntity
  8
0
100
AcDbLine
 10
95.09999999999999
 20
7.43089999999999
 30
0.0
 11
95.5
 21
10.0289
 31
0.0
  0
LINE
  5
146
330
1E
100
AcDbEntity
  8
0
100
AcDbLine
 10
74.0
 20
5.09259999999999
 30
0.0
 11
75.9
 21
3.0141
 31
0.0
  0
LINE
  5
147
330
1E
100
AcDbEntity
  8
0
100
AcDbLine
 10
72.9
 20
7.43089999999999
 30
0.0
 11
74.0
 21
5.09259999999999
 31
0.0
  0
LINE
  5
148
330
1E
100
AcDbEntity
  8
0
100
AcDbLine
 10
71.848
 20
16.8493
 30
0.0
 11
74.08800000000001
 21
19.3793
 31
0.0
  0
LINE
  5
149
330
1E
100
AcDbEntity
  8
0
100
AcDbLine
 10
70.50399999999999
 20
13.9853
 30
0.0
 11
71.848
 21
16.8493
 31
0.0
  0
LINE
  5
14A
330
1E
100
AcDbEntity
  8
0
100
AcDbLine
 10
73.396
 20
13.3307
 30
0.0
 11
74.45199999999999
 21
15.581
 31
0.0
  0
LINE
  5
14C
330
1E
100
AcDbEntity
  8
0
100
AcDbLine
 10
73.0
 20
10.9304
 30
0.0
 11
73.396
 21
8.53009999999999
 31
0.0
  0
LINE
  5
14D
330
1E
100
AcDbEntity
  8
0
100
AcDbLine
 10
73.0
 20
10.9304
 30
0.0
 11
73.396
 21
13.3307
 31
0.0
  0
LINE
  5
14E
330
1E
100
AcDbEntity
  8
0
100
AcDbLine
 10
94.0
 20
14.96523999999999
 30
0.0
 11
95.09999999999999
 21
12.62704
 31
0.0
  0
LINE
  5
14F
330
1E
100
AcDbEntity
  8
0
100
AcDbLine
 10
74.45199999999999
 20
15.581
 30
0.0
 11
76.212
 21
17.5687
 31
0.0
  0
LINE
  5
150
330
1E
100
AcDbEntity
  8
0
100
AcDbLine
 10
74.08800000000001
 20
19.3793
 30
0.0
 11
77.056
 21
21.28859999999999
 31
0.0
  0
LINE
  5
151
330
1E
100
AcDbEntity
  8
0
100
AcDbLine
 10
91.788
 20
17.5687
 30
0.0
 11
93.54799999999999
 21
15.581
 31
0.0
  0
LINE
  5
152
330
1E
100
AcDbEntity
  8
0
100
AcDbLine
 10
76.212
 20
17.5687
 30
0.0
 11
78.544
 21
19.069
 31
0.0
  0
LINE
  5
153
330
1E
100
AcDbEntity
  8
0
100
AcDbLine
 10
89.7
 20
18.68914
 30
0.0
 11
92.09999999999999
 21
17.04374
 31
0.0
  0
LINE
  5
154
330
1E
100
AcDbEntity
  8
0
100
AcDbLine
 10
93.54799999999999
 20
15.581
 30
0.0
 11
94.60399999999999
 21
13.3307
 31
0.0
  0
LINE
  5
155
330
1E
100
AcDbEntity
  8
0
100
AcDbLine
 10
92.09999999999999
 20
17.04374
 30
0.0
 11
94.0
 21
14.96523999999999
 31
0.0
  0
LINE
  5
156
330
1E
100
AcDbEntity
  8
0
100
AcDbLine
 10
78.544
 20
19.069
 30
0.0
 11
81.18399999999999
 21
19.9691
 31
0.0
  0
LINE
  5
157
330
1E
100
AcDbEntity
  8
0
100
AcDbLine
 10
80.416
 20
22.43419999999999
 30
0.0
 11
84.0
 21
22.8638
 31
0.0
  0
LINE
  5
158
330
1E
100
AcDbEntity
  8
0
100
AcDbLine
 10
77.056
 20
21.28859999999999
 30
0.0
 11
80.416
 21
22.43419999999999
 31
0.0
  0
LINE
  5
159
330
1E
100
AcDbEntity
  8
0
100
AcDbLine
 10
89.456
 20
19.069
 30
0.0
 11
91.788
 21
17.5687
 31
0.0
  0
LINE
  5
15A
330
1E
100
AcDbEntity
  8
0
100
AcDbLine
 10
93.91200000000001
 20
19.3793
 30
0.0
 11
96.15200000000001
 21
16.8493
 31
0.0
  0
LINE
  5
15B
330
1E
100
AcDbEntity
  8
0
100
AcDbLine
 10
84.0
 20
20.3066
 30
0.0
 11
86.81600000000001
 21
19.9691
 31
0.0
  0
LINE
  5
15C
330
1E
100
AcDbEntity
  8
0
100
AcDbLine
 10
84.0
 20
22.8638
 30
0.0
 11
87.58399999999999
 21
22.43419999999999
 31
0.0
  0
LINE
  5
15D
330
1E
100
AcDbEntity
  8
0
100
AcDbLine
 10
81.18399999999999
 20
19.9691
 30
0.0
 11
84.0
 21
20.3066
 31
0.0
  0
LINE
  5
15E
330
1E
100
AcDbEntity
  8
0
100
AcDbLine
 10
86.81600000000001
 20
19.9691
 30
0.0
 11
89.456
 21
19.069
 31
0.0
  0
LINE
  5
15F
330
1E
100
AcDbEntity
  8
0
100
AcDbLine
 10
87.58399999999999
 20
22.43419999999999
 30
0.0
 11
90.944
 21
21.28859999999999
 31
0.0
  0
LINE
  5
160
330
1E
100
AcDbEntity
  8
0
100
AcDbLine
 10
90.944
 20
21.28859999999999
 30
0.0
 11
93.91200000000001
 21
19.3793
 31
0.0
  0
LINE
  5
161
330
1E
100
AcDbEntity
  8
0
100
AcDbLine
 10
84.0
 20
19.98823599999999
 30
0.0
 11
87.0
 21
19.64183999999999
 31
0.0
  0
LINE
  5
162
330
1E
100
AcDbEntity
  8
0
100
AcDbLine
 10
87.0
 20
19.64183999999999
 30
0.0
 11
89.7
 21
18.68914
 31
0.0
  0
LINE
  5
163
330
1E
100
AcDbEntity
  8
0
100
AcDbLine
 10
81.0
 20
19.64183999999999
 30
0.0
 11
84.0
 21
19.98823599999999
 31
0.0
  0
LINE
  5
164
330
1E
100
AcDbEntity
  8
0
100
AcDbLine
 10
78.3
 20
18.68914
 30
0.0
 11
81.0
 21
19.64183999999999
 31
0.0
  0
LINE
  5
165
330
1E
100
AcDbEntity
  8
0
100
AcDbLine
 10
75.9
 20
17.04374
 30
0.0
 11
78.3
 21
18.68914
 31
0.0
  0
LINE
  5
166
330
1E
100
AcDbEntity
  8
0
100
AcDbLine
 10
74.0
 20
14.96523999999999
 30
0.0
 11
75.9
 21
17.04374
 31
0.0
  0
LINE
  5
167
330
1E
100
AcDbEntity
  8
0
100
AcDbLine
 10
72.9
 20
12.62704
 30
0.0
 11
74.0
 21
14.96523999999999
 31
0.0
  0
LINE
  5
16A
330
1E
100
AcDbEntity
  8
0
100
AcDbLine
 10
70.50399999999999
 20
50.9853
 30
0.0
 11
71.848
 21
53.8493
 31
0.0
  0
LINE
  5
184
330
1E
100
AcDbEntity
  8
0
100
AcDbLine
 10
73.0
 20
55.597
 30
0.0
 11
73.0
 21
58.4743
 31
0.0
  0
LINE
  5
189
330
1E
100
AcDbEntity
  8
0
100
AcDbLine
 10
73.0
 20
55.09071082600417
 30
0.0
 11
73.0
 21
58.5189
 31
0.0
  0
LINE
  5
190
330
1E
100
AcDbEntity
  8
0
100
AcDbLine
 10
73.0
 20
58.4743
 30
0.0
 11
73.0
 21
55.597
 31
0.0
  0
LINE
  5
191
330
1E
100
AcDbEntity
  8
0
100
AcDbLine
 10
73.0
 20
58.4743
 30
0.0
 11
73.0
 21
60.339
 31
0.0
  0
LINE
  5
192
330
1E
100
AcDbEntity
  8
0
100
AcDbLine
 10
73.0
 20
60.2617
 30
0.0
 11
73.0
 21
60.9252
 31
0.0
  0
LINE
  5
193
330
1E
100
AcDbEntity
  8
0
100
AcDbLine
 10
73.0
 20
60.2617
 30
0.0
 11
73.0
 21
58.5189
 31
0.0
  0
LINE
  5
194
330
1E
100
AcDbEntity
  8
0
100
AcDbLine
 10
73.0
 20
58.5189
 30
0.0
 11
73.0
 21
55.597
 31
0.0
  0
LINE
  5
195
330
1E
100
AcDbEntity
  8
0
100
AcDbLine
 10
73.0
 20
58.5189
 30
0.0
 11
73.0
 21
60.2617
 31
0.0
  0
LINE
  5
196
330
1E
100
AcDbEntity
  8
0
100
AcDbLine
 10
74.0538
 20
56.2263
 30
0.0
 11
77.0083
 21
57.76749999999999
 31
0.0
  0
LINE
  5
197
330
1E
100
AcDbEntity
  8
0
100
AcDbLine
 10
71.848
 20
53.8493
 30
0.0
 11
74.0538
 21
56.2263
 31
0.0
  0
LINE
  5
1B0
330
1E
100
AcDbEntity
  8
0
100
AcDbLine
 10
75.1898
 20
59.7702
 30
0.0
 11
75.4265170939584
 21
56.94237093762352
 31
0.0
  0
LINE
  5
1B1
330
1E
100
AcDbEntity
  8
0
100
AcDbLine
 10
75.1898
 20
59.7702
 30
0.0
 11
76.22580000000001
 21
62.6762
 31
0.0
  0
LINE
  5
1C3
330
1E
100
AcDbEntity
  8
0
100
AcDbLine
 10
80.33280000000001
 20
58.3518
 30
0.0
 11
84.24129999999999
 21
57.9957
 31
0.0
  0
LINE
  5
1C4
330
1E
100
AcDbEntity
  8
0
100
AcDbLine
 10
77.0083
 20
57.76749999999999
 30
0.0
 11
80.33280000000001
 21
58.3518
 31
0.0
  0
LINE
  5
1D6
330
1E
100
AcDbEntity
  8
0
100
AcDbLine
 10
84.24129999999999
 20
57.9957
 30
0.0
 11
87.74550000000001
 21
56.69039999999999
 31
0.0
  0
LINE
  5
1D9
330
1E
100
AcDbEntity
  8
0
100
AcDbLine
 10
87.74550000000001
 20
56.69039999999999
 30
0.0
 11
91.06990000000001
 21
54.6917
 31
0.0
  0
LINE
  5
1DA
330
1E
100
AcDbEntity
  8
0
100
AcDbLine
 10
91.06990000000001
 20
54.6917
 30
0.0
 11
93.94519999999999
 21
51.88439999999999
 31
0.0
  0
LINE
  5
1E6
330
1E
100
AcDbEntity
  8
0
100
AcDbLine
 10
93.94519999999999
 20
51.88439999999999
 30
0.0
 11
96.461
 21
48.4789
 31
0.0
  0
LINE
  5
1E7
330
1E
100
AcDbEntity
  8
0
100
AcDbLine
 10
92.05960000000001
 20
56.4832
 30
0.0
 11
92.0758
 21
58.3842
 31
0.0
  0
LINE
  5
1E8
330
1E
100
AcDbEntity
  8
0
100
AcDbLine
 10
92.03556378974766
 20
53.74887387508828
 30
0.0
 11
92.05960000000001
 21
56.4832
 31
0.0
  0
LINE
  5
1F5
330
1E
100
AcDbEntity
  8
0
100
AcDbLine
 10
98.0
 20
10.9304
 30
0.0
 11
98.0
 21
41.93039999999999
 31
0.0
  0
LINE
  5
1F6
330
1E
100
AcDbEntity
  8
0
100
AcDbLine
 10
94.60399999999999
 20
13.3307
 30
0.0
 11
95.0
 21
10.9304
 31
0.0
  0
LINE
  5
1F8
330
1E
100
AcDbEntity
  8
0
100
AcDbLine
 10
96.15200000000001
 20
16.8493
 30
0.0
 11
97.496
 21
13.9853
 31
0.0
  0
LINE
  5
1FA
330
1E
100
AcDbEntity
  8
0
100
AcDbLine
 10
97.496
 20
13.9853
 30
0.0
 11
98.0
 21
10.9304
 31
0.0
  0
LINE
  5
207
330
1E
100
AcDbEntity
  8
0
100
AcDbLine
 10
96.461
 20
48.4789
 30
0.0
 11
97.62999999999999
 21
45.19029999999999
 31
0.0
  0
LINE
  5
20A
330
1E
100
AcDbEntity
  8
0
100
AcDbLine
 10
97.62999999999999
 20
45.19029999999999
 30
0.0
 11
98.0
 21
41.93039999999999
 31
0.0
  0
LINE
  5
20D
330
1E
100
AcDbEntity
  8
0
100
AcDbLine
 10
98.0
 20
41.93039999999999
 30
0.0
 11
98.0
 21
10.9304
 31
0.0
  0
LINE
  5
20E
330
1E
100
AcDbEntity
  8
0
100
AcDbLine
 10
95.09999999999999
 20
12.62704
 30
0.0
 11
95.5
 21
10.0289
 31
0.0
  0
LINE
  5
212
330
1E
100
AcDbEntity
  8
0
100
AcDbLine
 10
72.5
 20
10.0289
 30
0.0
 11
72.9
 21
7.43089999999999
 31
0.0
  0
LINE
  5
213
330
1E
100
AcDbEntity
  8
0
100
AcDbLine
 10
72.5
 20
10.0289
 30
0.0
 11
72.9
 21
12.62704
 31
0.0
  0
LINE
  5
214
330
1E
100
AcDbEntity
  8
0
100
AcDbLine
 10
70.0
 20
33.9304
 30
0.0
 11
70.0
 21
30.26375
 31
0.0
  0
LINE
  5
215
330
1E
100
AcDbEntity
  8
0
100
AcDbLine
 10
70.0
 20
33.9304
 30
0.0
 11
70.0
 21
32.93039999999999
 31
0.0
  0
LINE
  5
216
330
1E
100
AcDbEntity
  8
0
100
AcDbLine
 10
70.0
 20
33.9304
 30
0.0
 11
70.0
 21
38.245
 31
0.0
  0
LINE
  5
217
330
1E
100
AcDbEntity
  8
0
100
AcDbLine
 10
70.0
 20
33.9304
 30
0.0
 11
70.0
 21
30.2638
 31
0.0
  0
LINE
  5
218
330
1E
100
AcDbEntity
  8
0
100
AcDbLine
 10
73.0
 20
60.339
 30
0.0
 11
73.0
 21
58.4743
 31
0.0
  0
LINE
  5
219
330
1E
100
AcDbEntity
  8
0
100
AcDbLine
 10
73.0
 20
60.339
 30
0.0
 11
73.0
 21
60.9252
 31
0.0
  0
LINE
  5
21A
330
1E
100
AcDbEntity
  8
0
100
AcDbLine
 10
70.0
 20
60.2617
 30
0.0
 11
70.0
 21
58.5189
 31
0.0
  0
LINE
  5
21B
330
1E
100
AcDbEntity
  8
0
100
AcDbLine
 10
70.0
 20
60.2617
 30
0.0
 11
70.0
 21
60.9252
 31
0.0
  0
LINE
  5
21C
330
1E
100
AcDbEntity
  8
0
100
AcDbLine
 10
32.66669999999999
 20
59.8516
 30
0.0
 11
32.66669999999999
 21
58.1447
 31
0.0
  0
LINE
  5
21D
330
1E
100
AcDbEntity
  8
0
100
AcDbLine
 10
32.66669999999999
 20
59.8516
 30
0.0
 11
32.66669999999999
 21
60.4431
 31
0.0
  0
LINE
  5
21E
330
1E
100
AcDbEntity
  8
0
100
AcDbLine
 10
33.5
 20
75.43040000000001
 30
0.0
 11
35.5
 21
68.9304
 31
0.0
  0
LINE
  5
21F
330
1E
100
AcDbEntity
  8
0
100
AcDbLine
 10
36.5
 20
61.93039999999999
 30
0.0
 11
37.0
 21
53.9304
 31
0.0
  0
LINE
  5
220
330
1E
100
AcDbEntity
  8
0
100
AcDbLine
 10
36.5
 20
61.93039999999999
 30
0.0
 11
36.56282499999999
 21
60.9252
 31
0.0
  0
LINE
  5
221
330
1E
100
AcDbEntity
  8
0
100
AcDbLine
 10
37.1
 20
82.93040000000001
 30
0.0
 11
43.3
 21
82.93040000000001
 31
0.0
  0
LINE
  5
222
330
1E
100
AcDbEntity
  8
0
100
AcDbLine
 10
43.3
 20
82.93040000000001
 30
0.0
 11
50.0
 21
82.93040000000001
 31
0.0
  0
LINE
  5
223
330
1E
100
AcDbEntity
  8
0
100
AcDbLine
 10
35.5
 20
68.9304
 30
0.0
 11
36.5
 21
61.93039999999999
 31
0.0
  0
LINE
  5
224
330
1E
100
AcDbEntity
  8
0
100
AcDbLine
 10
37.1
 20
84.9304
 30
0.0
 11
43.3
 21
84.9304
 31
0.0
  0
LINE
  5
225
330
1E
100
AcDbEntity
  8
0
100
AcDbLine
 10
43.3
 20
84.9304
 30
0.0
 11
50.0
 21
84.9304
 31
0.0
  0
LINE
  5
226
330
1E
100
AcDbEntity
  8
0
100
AcDbLine
 10
50.0
 20
82.93040000000001
 30
0.0
 11
56.7
 21
82.93040000000001
 31
0.0
  0
LINE
  5
227
330
1E
100
AcDbEntity
  8
0
100
AcDbLine
 10
62.9
 20
82.93040000000001
 30
0.0
 11
68.3
 21
82.93040000000001
 31
0.0
  0
LINE
  5
228
330
1E
100
AcDbEntity
  8
0
100
AcDbLine
 10
56.7
 20
82.93040000000001
 30
0.0
 11
62.9
 21
82.93040000000001
 31
0.0
  0
LINE
  5
229
330
1E
100
AcDbEntity
  8
0
100
AcDbLine
 10
62.9
 20
84.9304
 30
0.0
 11
68.3
 21
84.9304
 31
0.0
  0
LINE
  5
22A
330
1E
100
AcDbEntity
  8
0
100
AcDbLine
 10
56.7
 20
84.9304
 30
0.0
 11
62.9
 21
84.9304
 31
0.0
  0
LINE
  5
22B
330
1E
100
AcDbEntity
  8
0
100
AcDbLine
 10
50.0
 20
84.9304
 30
0.0
 11
56.7
 21
84.9304
 31
0.0
  0
LINE
  5
22C
330
1E
100
AcDbEntity
  8
0
100
AcDbLine
 10
35.5
 20
68.93039999999989
 30
0.0
 11
36.5
 21
61.93039999999999
 31
0.0
  0
LINE
  5
22D
330
1E
100
AcDbEntity
  8
0
100
AcDbLine
 10
33.5
 20
75.43040000000001
 30
0.0
 11
35.5
 21
68.93039999999989
 31
0.0
  0
LINE
  5
22E
330
1E
100
AcDbEntity
  8
0
100
AcDbLine
 10
33.42049999999999
 20
60.9252
 30
0.0
 11
36.56282499999999
 21
60.9252
 31
0.0
  0
LINE
  5
22F
330
1E
100
AcDbEntity
  8
0
100
AcDbLine
 10
73.0
 20
60.9252
 30
0.0
 11
73.0
 21
60.339
 31
0.0
  0
LINE
  5
230
330
1E
100
AcDbEntity
  8
0
100
AcDbLine
 10
73.0
 20
60.9252
 30
0.0
 11
73.0
 21
60.2617
 31
0.0
  0
LINE
  5
231
330
1E
100
AcDbEntity
  8
0
100
AcDbLine
 10
70.0
 20
60.9252
 30
0.0
 11
70.0
 21
60.2617
 31
0.0
  0
LINE
  5
232
330
1E
100
AcDbEntity
  8
0
100
AcDbLine
 10
70.0
 20
60.9252
 30
0.0
 11
73.0
 21
60.9252
 31
0.0
  0
LINE
  5
233
330
1E
100
AcDbEntity
  8
0
100
AcDbLine
 10
63.5
 20
61.93039999999999
 30
0.0
 11
64.5
 21
68.9304
 31
0.0
  0
LINE
  5
234
330
1E
100
AcDbEntity
  8
0
100
AcDbLine
 10
64.5
 20
68.9304
 30
0.0
 11
66.5
 21
75.43040000000001
 31
0.0
  0
LINE
  5
235
330
1E
100
AcDbEntity
  8
0
100
AcDbLine
 10
63.5
 20
61.93039999999999
 30
0.0
 11
64.5
 21
68.93039999999989
 31
0.0
  0
LINE
  5
236
330
1E
100
AcDbEntity
  8
0
100
AcDbLine
 10
64.5
 20
68.93039999999989
 30
0.0
 11
66.5
 21
75.43040000000001
 31
0.0
  0
LINE
  5
237
330
1E
100
AcDbEntity
  8
0
100
AcDbLine
 10
66.5
 20
75.43040000000001
 30
0.0
 11
69.0
 21
79.4304
 31
0.0
  0
LINE
  5
238
330
1E
100
AcDbEntity
  8
0
100
AcDbLine
 10
69.0
 20
79.4304
 30
0.0
 11
72.5
 21
81.93040000000001
 31
0.0
  0
LINE
  5
239
330
1E
100
AcDbEntity
  8
0
100
AcDbLine
 10
66.5
 20
75.43040000000001
 30
0.0
 11
69.0
 21
79.4303999999999
 31
0.0
  0
LINE
  5
23A
330
1E
100
AcDbEntity
  8
0
100
AcDbLine
 10
69.0
 20
79.4303999999999
 30
0.0
 11
72.5
 21
81.9303999999999
 31
0.0
  0
LINE
  5
23B
330
1E
100
AcDbEntity
  8
0
100
AcDbLine
 10
68.3
 20
82.93040000000001
 30
0.0
 11
72.5
 21
82.93040000000001
 31
0.0
  0
LINE
  5
23C
330
1E
100
AcDbEntity
  8
0
100
AcDbLine
 10
72.5
 20
82.93040000000001
 30
0.0
 11
75.09999999999999
 21
82.93040000000001
 31
0.0
  0
LINE
  5
23D
330
1E
100
AcDbEntity
  8
0
100
AcDbLine
 10
68.3
 20
84.9304
 30
0.0
 11
72.5
 21
84.9304
 31
0.0
  0
LINE
  5
23E
330
1E
100
AcDbEntity
  8
0
100
AcDbLine
 10
72.5
 20
84.9304
 30
0.0
 11
75.09999999999999
 21
84.9304
 31
0.0
  0
LINE
  5
23F
330
1E
100
AcDbEntity
  8
0
100
AcDbLine
 10
75.09999999999999
 20
82.93040000000001
 30
0.0
 11
76.0
 21
82.93040000000001
 31
0.0
  0
LINE
  5
240
330
1E
100
AcDbEntity
  8
0
100
AcDbLine
 10
75.09999999999999
 20
84.9304
 30
0.0
 11
76.0
 21
84.9304
 31
0.0
  0
LINE
  5
241
330
1E
100
AcDbEntity
  8
0
100
AcDbLine
 10
72.5
 20
81.93040000000001
 30
0.0
 11
76.0
 21
82.93040000000001
 31
0.0
  0
LINE
  5
242
330
1E
100
AcDbEntity
  8
0
100
AcDbLine
 10
72.5
 20
81.9303999999999
 30
0.0
 11
76.0
 21
82.9303999999999
 31
0.0
  0
LINE
  5
243
330
1E
100
AcDbEntity
  8
0
100
AcDbLine
 10
89.72269999999999
 20
64.0042
 30
0.0
 11
91.50159999999999
 21
61.4882
 31
0.0
  0
LINE
  5
244
330
1E
100
AcDbEntity
  8
0
100
AcDbLine
 10
91.50159999999999
 20
61.4882
 30
0.0
 11
92.0758
 21
58.3842
 31
0.0
  0
LINE
  5
245
330
1E
100
AcDbEntity
  8
0
100
AcDbLine
 10
84.10529999999999
 20
66.7602
 30
0.0
 11
87.23879999999999
 21
65.82519999999999
 31
0.0
  0
LINE
  5
246
330
1E
100
AcDbEntity
  8
0
100
AcDbLine
 10
87.23879999999999
 20
65.82519999999999
 30
0.0
 11
89.72269999999999
 21
64.0042
 31
0.0
  0
LINE
  5
247
330
1E
100
AcDbEntity
  8
0
100
AcDbLine
 10
80.96149999999999
 20
66.49720000000001
 30
0.0
 11
84.10529999999999
 21
66.7602
 31
0.0
  0
LINE
  5
248
330
1E
100
AcDbEntity
  8
0
100
AcDbLine
 10
78.1637
 20
65.06819999999989
 30
0.0
 11
80.96149999999999
 21
66.49720000000001
 31
0.0
  0
LINE
  5
249
330
1E
100
AcDbEntity
  8
0
100
AcDbLine
 10
76.22580000000001
 20
62.6762
 30
0.0
 11
78.1637
 21
65.06819999999989
 31
0.0
  0
LINE
  5
24A
330
1E
100
AcDbEntity
  8
0
100
AcDbLine
 10
76.0
 20
84.9304
 30
0.0
 11
76.0
 21
82.93040000000001
 31
0.0
  0
LINE
  5
24B
330
1E
100
AcDbEntity
  8
0
100
AcDbLine
 10
76.0
 20
82.93040000000001
 30
0.0
 11
76.0
 21
84.9304
 31
0.0
  0
LINE
  5
24C
330
1E
100
AcDbEntity
  8
0
100
AcDbLine
 10
63.437175
 20
60.9252
 30
0.0
 11
70.0
 21
60.9252
 31
0.0
  0
LINE
  5
24D
330
1E
100
AcDbEntity
  8
0
100
AcDbLine
 10
63.437175
 20
60.9252
 30
0.0
 11
63.5
 21
61.93039999999999
 31
0.0
  0
LINE
  5
24E
330
1E
100
AcDbEntity
  8
0
100
AcDbLine
 10
63.437175
 20
60.9252
 30
0.0
 11
70.0
 21
60.9252
 31
0.0
  0
LINE
  5
24F
330
1E
100
AcDbEntity
  8
0
100
AcDbLine
 10
32.66669999999999
 20
60.4431
 30
0.0
 11
32.66669999999999
 21
59.8516
 31
0.0
  0
LINE
  5
250
330
1E
100
AcDbEntity
  8
0
100
AcDbLine
 10
32.66669999999999
 20
60.4431
 30
0.0
 11
33.42049999999999
 21
60.9252
 31
0.0
  0
LINE
  5
251
330
1E
100
AcDbEntity
  8
0
100
AcDbLine
 10
31.9128
 20
60.9252
 30
0.0
 11
32.66669999999999
 21
60.4431
 31
0.0
  0
ENDSEC
  0
SECTION
  2
OBJECTS
  0
DICTIONARY
  5
C
330
0
100
AcDbDictionary
  3
ACAD_GROUP
350
D
  3
ACAD_LAYOUT
350
19
  3
ACAD_MLINESTYLE
350
16
  3
ACAD_PLOTSETTINGS
350
18
  3
ACAD_PLOTSTYLENAME
350
E
  3
ACDBHEADERROUNDTRIPXREC
350
25E
  3
ACDBVARIABLEDICTIONARY
350
257
  0
DICTIONARY
  5
280
330
1E
100
AcDbDictionary
280
     1
  3
ACAD_LAYOUTSELFREF
360
281
  0
DICTIONARY
  5
27E
330
1A
100
AcDbDictionary
280
     1
  3
ACAD_LAYOUTSELFREF
360
27F
  0
DICTIONARY
  5
D
102
{ACAD_REACTORS
330
C
102
}
330
C
100
AcDbDictionary
  0
DICTIONARY
  5
19
102
{ACAD_REACTORS
330
C
102
}
330
C
100
AcDbDictionary
  0
DICTIONARY
  5
16
102
{ACAD_REACTORS
330
C
102
}
330
C
100
AcDbDictionary
  3
STANDARD
350
17
  0
DICTIONARY
  5
18
102
{ACAD_REACTORS
330
C
102
}
330
C
100
AcDbDictionary
  0
ACDBDICTIONARYWDFLT
  5
E
102
{ACAD_REACTORS
330
C
102
}
330
C
100
AcDbDictionary
281
     1
  3
Normal
350
F
100
AcDbDictionaryWithDefault
340
F
  0
DICTIONARY
  5
25E
102
{ACAD_REACTORS
330
C
102
}
330
C
100
AcDbDictionary
  3
CEPSNTYPE
350
268
  3
FINGERPRINTGUID
350
269
  3
HYPERLINKBASE
350
261
  3
INSUNITS
350
267
  3
LAYOUTDICT
350
263
  3
LWETCUNION
350
266
  3
PLOTSETDICT
350
264
  3
PLOTSTYLNAMDICT
350
265
  3
PSVPSCALE
350
26B
  3
PUCSBASE
350
26E
  3
PUCSORGBACK
350
274
  3
PUCSORGBOTTOM
350
270
  3
PUCSORGFRONT
350
273
  3
PUCSORGLEFT
350
271
  3
PUCSORGRIGHT
350
272
  3
PUCSORGTOP
350
26F
  3
PUCSORTHOREF
350
26C
  3
PUCSORTHOVIEW
350
26D
  3
STYLESHEET
350
262
  3
TSTACKALIGN
350
25F
  3
TSTACKSIZE
350
260
  3
UCSBASE
350
277
  3
UCSORGBACK
350
27D
  3
UCSORGBOTTOM
350
279
  3
UCSORGFRONT
350
27C
  3
UCSORGLEFT
350
27A
  3
UCSORGRIGHT
350
27B
  3
UCSORGTOP
350
278
  3
UCSORTHOREF
350
275
  3
UCSORTHOVIEW
350
276
  3
VERSIONGUID
350
26A
  0
DICTIONARY
  5
257
102
{ACAD_REACTORS
330
C
102
}
330
C
100
AcDbDictionary
  3
DIMASSOC
350
258
  0
XRECORD
  5
281
102
{ACAD_REACTORS
330
280
102
}
330
280
100
AcDbXrecord
340
1E
  0
XRECORD
  5
27F
102
{ACAD_REACTORS
330
27E
102
}
330
27E
100
AcDbXrecord
340
1A
  0
MLINESTYLE
  5
17
102
{ACAD_REACTORS
330
16
102
}
330
16
100
AcDbMlineStyle
  2
STANDARD
 70
     0
  3

 62
   256
 51
90.0
 52
90.0
 71
     2
 49
0.5
 62
   256
  6
BYLAYER
 49
-0.5
 62
   256
  6
BYLAYER
  0
ACDBPLACEHOLDER
  5
F
102
{ACAD_REACTORS
330
E
102
}
330
E
100
AcDbPlaceHolder
280
     0
  0
XRECORD
  5
268
102
{ACAD_REACTORS
330
25E
102
}
330
25E
100
AcDbXrecord
 90
        0
  0
XRECORD
  5
269
102
{ACAD_REACTORS
330
25E
102
}
330
25E
100
AcDbXrecord
  1
{B727C762-2135-47C8-B617-0820DB0FD2AA}
  0
XRECORD
  5
261
102
{ACAD_REACTORS
330
25E
102
}
330
25E
100
AcDbXrecord
  1

  0
XRECORD
  5
267
102
{ACAD_REACTORS
330
25E
102
}
330
25E
100
AcDbXrecord
 90
        0
  0
XRECORD
  5
263
102
{ACAD_REACTORS
330
25E
102
}
330
25E
100
AcDbXrecord
340
19
  0
XRECORD
  5
266
102
{ACAD_REACTORS
330
25E
102
}
330
25E
100
AcDbXrecord
 90
    10781
  0
XRECORD
  5
264
102
{ACAD_REACTORS
330
25E
102
}
330
25E
100
AcDbXrecord
340
18
  0
XRECORD
  5
265
102
{ACAD_REACTORS
330
25E
102
}
330
25E
100
AcDbXrecord
340
E
  0
XRECORD
  5
26B
102
{ACAD_REACTORS
330
25E
102
}
330
25E
100
AcDbXrecord
 40
0.0
  0
XRECORD
  5
26E
102
{ACAD_REACTORS
330
25E
102
}
330
25E
100
AcDbXrecord
340
0
  0
XRECORD
  5
274
102
{ACAD_REACTORS
330
25E
102
}
330
25E
100
AcDbXrecord
 10
0.0
 20
0.0
 30
0.0
  0
XRECORD
  5
270
102
{ACAD_REACTORS
330
25E
102
}
330
25E
100
AcDbXrecord
 10
0.0
 20
0.0
 30
0.0
  0
XRECORD
  5
273
102
{ACAD_REACTORS
330
25E
102
}
330
25E
100
AcDbXrecord
 10
0.0
 20
0.0
 30
0.0
  0
XRECORD
  5
271
102
{ACAD_REACTORS
330
25E
102
}
330
25E
100
AcDbXrecord
 10
0.0
 20
0.0
 30
0.0
  0
XRECORD
  5
272
102
{ACAD_REACTORS
330
25E
102
}
330
25E
100
AcDbXrecord
 10
0.0
 20
0.0
 30
0.0
  0
XRECORD
  5
26F
102
{ACAD_REACTORS
330
25E
102
}
330
25E
100
AcDbXrecord
 10
0.0
 20
0.0
 30
0.0
  0
XRECORD
  5
26C
102
{ACAD_REACTORS
330
25E
102
}
330
25E
100
AcDbXrecord
340
0
  0
XRECORD
  5
26D
102
{ACAD_REACTORS
330
25E
102
}
330
25E
100
AcDbXrecord
 70
     0
  0
XRECORD
  5
262
102
{ACAD_REACTORS
330
25E
102
}
330
25E
100
AcDbXrecord
  1

  0
XRECORD
  5
25F
102
{ACAD_REACTORS
330
25E
102
}
330
25E
100
AcDbXrecord
 90
        1
  0
XRECORD
  5
260
102
{ACAD_REACTORS
330
25E
102
}
330
25E
100
AcDbXrecord
 90
       70
  0
XRECORD
  5
277
102
{ACAD_REACTORS
330
25E
102
}
330
25E
100
AcDbXrecord
340
0
  0
XRECORD
  5
27D
102
{ACAD_REACTORS
330
25E
102
}
330
25E
100
AcDbXrecord
 10
0.0
 20
0.0
 30
0.0
  0
XRECORD
  5
279
102
{ACAD_REACTORS
330
25E
102
}
330
25E
100
AcDbXrecord
 10
0.0
 20
0.0
 30
0.0
  0
XRECORD
  5
27C
102
{ACAD_REACTORS
330
25E
102
}
330
25E
100
AcDbXrecord
 10
0.0
 20
0.0
 30
0.0
  0
XRECORD
  5
27A
102
{ACAD_REACTORS
330
25E
102
}
330
25E
100
AcDbXrecord
 10
0.0
 20
0.0
 30
0.0
  0
XRECORD
  5
27B
102
{ACAD_REACTORS
330
25E
102
}
330
25E
100
AcDbXrecord
 10
0.0
 20
0.0
 30
0.0
  0
XRECORD
  5
278
102
{ACAD_REACTORS
330
25E
102
}
330
25E
100
AcDbXrecord
 10
0.0
 20
0.0
 30
0.0
  0
XRECORD
  5
275
102
{ACAD_REACTORS
330
25E
102
}
330
25E
100
AcDbXrecord
340
0
  0
XRECORD
  5
276
102
{ACAD_REACTORS
330
25E
102
}
330
25E
100
AcDbXrecord
 70
     1
  0
XRECORD
  5
26A
102
{ACAD_REACTORS
330
25E
102
}
330
25E
100
AcDbXrecord
  1
{C6A03962-847B-49B9-B732-9996B14EE675}
  0
DICTIONARYVAR
  5
258
102
{ACAD_REACTORS
330
257
102
}
330
257
100
DictionaryVariables
280
     0
  1
1
  0
ENDSEC
  0
EOF
