999
unknown String-ID: 20550
0
SECTION
2
HEADER
9
$ACADVER
1
AC1009
9
$DWGCODEPAGE
3
unknown String-ID: 20561
0
ENDSEC
0
SECTION
2
TABLES
0
TABLE
2
LAYER
70
1
0
LAYER
2
0
70
0
62
7
6
CONTINUOUS
0
ENDTAB
0
ENDSEC
0
SECTION
2
ENTITIES
0
LINE
8
0
6
CONTINUOUS
10
0.023865
20
0.012834
30
0.0
11
0.023865
21
0.015850
31
0.0
0
LINE
8
0
6
CONTINUOUS
10
-0.023865
20
0.015850
30
0.0
11
-0.023865
21
0.012834
31
0.0
0
LINE
8
0
6
CONTINUOUS
10
0.005605
20
-0.029850
30
0.0
11
0.013767
21
-0.029850
31
0.0
0
LINE
8
0
6
CONTINUOUS
10
-0.018528
20
-0.029850
30
0.0
11
-0.013767
21
-0.029850
31
0.0
0
LINE
8
0
6
CONTINUOUS
10
0.020640
20
-0.029850
30
0.0
11
0.022040
21
-0.029850
31
0.0
0
LINE
8
0
6
CONTINUOUS
10
0.025215
20
-0.029850
30
0.0
11
0.025800
21
-0.029850
31
0.0
0
LINE
8
0
6
CONTINUOUS
10
-0.022040
20
-0.029850
30
0.0
11
-0.020640
21
-0.029850
31
0.0
0
LINE
8
0
6
CONTINUOUS
10
-0.020640
20
-0.029850
30
0.0
11
-0.018528
21
-0.029850
31
0.0
0
LINE
8
0
6
CONTINUOUS
10
0.013767
20
-0.029850
30
0.0
11
0.018528
21
-0.029850
31
0.0
0
LINE
8
0
6
CONTINUOUS
10
-0.026689
20
-0.029746
30
0.0
11
-0.026447
21
-0.029850
31
0.0
0
LINE
8
0
6
CONTINUOUS
10
-0.026447
20
-0.029850
30
0.0
11
-0.026303
21
-0.029850
31
0.0
0
LINE
8
0
6
CONTINUOUS
10
-0.023232
20
-0.029850
30
0.0
11
-0.022040
21
-0.029850
31
0.0
0
LINE
8
0
6
CONTINUOUS
10
0.018528
20
-0.029850
30
0.0
11
0.020640
21
-0.029850
31
0.0
0
LINE
8
0
6
CONTINUOUS
10
-0.025800
20
-0.029850
30
0.0
11
-0.025215
21
-0.029850
31
0.0
0
LINE
8
0
6
CONTINUOUS
10
0.025425
20
-0.029746
30
0.0
11
0.025982
21
-0.029746
31
0.0
0
LINE
8
0
6
CONTINUOUS
10
-0.020791
20
-0.029746
30
0.0
11
-0.018674
21
-0.029746
31
0.0
0
LINE
8
0
6
CONTINUOUS
10
0.026793
20
-0.029502
30
0.0
11
0.026793
21
-0.029284
31
0.0
0
LINE
8
0
6
CONTINUOUS
10
0.018675
20
-0.029746
30
0.0
11
0.020792
21
-0.029746
31
0.0
0
LINE
8
0
6
CONTINUOUS
10
0.024792
20
-0.029850
30
0.0
11
0.025215
21
-0.029850
31
0.0
0
LINE
8
0
6
CONTINUOUS
10
0.005654
20
-0.029746
30
0.0
11
0.000000
21
-0.029746
31
0.0
0
LINE
8
0
6
CONTINUOUS
10
0.000000
20
-0.029850
30
0.0
11
0.005605
21
-0.029850
31
0.0
0
LINE
8
0
6
CONTINUOUS
10
-0.022227
20
-0.029746
30
0.0
11
-0.020791
21
-0.029746
31
0.0
0
LINE
8
0
6
CONTINUOUS
10
-0.023405
20
-0.029746
30
0.0
11
-0.022227
21
-0.029746
31
0.0
0
LINE
8
0
6
CONTINUOUS
10
-0.025809
20
0.012834
30
0.0
11
-0.026276
21
0.012834
31
0.0
0
LINE
8
0
6
CONTINUOUS
10
0.022040
20
-0.029850
30
0.0
11
0.023232
21
-0.029850
31
0.0
0
LINE
8
0
6
CONTINUOUS
10
0.020792
20
-0.029746
30
0.0
11
0.022227
21
-0.029746
31
0.0
0
LINE
8
0
6
CONTINUOUS
10
-0.027563
20
0.012365
30
0.0
11
-0.026793
21
-0.029284
31
0.0
0
LINE
8
0
6
CONTINUOUS
10
0.024987
20
-0.029746
30
0.0
11
0.024326
21
-0.029746
31
0.0
0
LINE
8
0
6
CONTINUOUS
10
0.024148
20
-0.029850
30
0.0
11
0.024792
21
-0.029850
31
0.0
0
LINE
8
0
6
CONTINUOUS
10
-0.026303
20
-0.029850
30
0.0
11
-0.025800
21
-0.029850
31
0.0
0
LINE
8
0
6
CONTINUOUS
10
-0.025982
20
-0.029746
30
0.0
11
-0.026525
21
-0.029746
31
0.0
0
LINE
8
0
6
CONTINUOUS
10
-0.018674
20
-0.029746
30
0.0
11
-0.013837
21
-0.029746
31
0.0
0
LINE
8
0
6
CONTINUOUS
10
-0.024792
20
-0.029850
30
0.0
11
-0.024148
21
-0.029850
31
0.0
0
LINE
8
0
6
CONTINUOUS
10
-0.024326
20
-0.029746
30
0.0
11
-0.024986
21
-0.029746
31
0.0
0
LINE
8
0
6
CONTINUOUS
10
0.013837
20
-0.029746
30
0.0
11
0.018675
21
-0.029746
31
0.0
0
LINE
8
0
6
CONTINUOUS
10
-0.005605
20
-0.029850
30
0.0
11
0.000000
21
-0.029850
31
0.0
0
LINE
8
0
6
CONTINUOUS
10
-0.025215
20
-0.029850
30
0.0
11
-0.024792
21
-0.029850
31
0.0
0
LINE
8
0
6
CONTINUOUS
10
-0.024986
20
-0.029746
30
0.0
11
-0.025425
21
-0.029746
31
0.0
0
LINE
8
0
6
CONTINUOUS
10
-0.023405
20
-0.029746
30
0.0
11
-0.024326
21
-0.029746
31
0.0
0
LINE
8
0
6
CONTINUOUS
10
-0.024148
20
-0.029850
30
0.0
11
-0.023232
21
-0.029850
31
0.0
0
LINE
8
0
6
CONTINUOUS
10
-0.005653
20
-0.029746
30
0.0
11
0.000000
21
-0.029746
31
0.0
0
LINE
8
0
6
CONTINUOUS
10
0.022227
20
-0.029746
30
0.0
11
0.023405
21
-0.029746
31
0.0
0
LINE
8
0
6
CONTINUOUS
10
-0.025982
20
-0.029746
30
0.0
11
-0.025425
21
-0.029746
31
0.0
0
LINE
8
0
6
CONTINUOUS
10
0.024987
20
-0.029746
30
0.0
11
0.025425
21
-0.029746
31
0.0
0
LINE
8
0
6
CONTINUOUS
10
0.005654
20
-0.029746
30
0.0
11
0.013837
21
-0.029746
31
0.0
0
LINE
8
0
6
CONTINUOUS
10
0.026690
20
-0.029746
30
0.0
11
0.026793
21
-0.029502
31
0.0
0
LINE
8
0
6
CONTINUOUS
10
0.025800
20
-0.029850
30
0.0
11
0.026303
21
-0.029850
31
0.0
0
LINE
8
0
6
CONTINUOUS
10
0.026525
20
-0.029746
30
0.0
11
0.025982
21
-0.029746
31
0.0
0
LINE
8
0
6
CONTINUOUS
10
0.026690
20
-0.029746
30
0.0
11
0.026525
21
-0.029746
31
0.0
0
LINE
8
0
6
CONTINUOUS
10
0.026447
20
-0.029850
30
0.0
11
0.026690
21
-0.029746
31
0.0
0
LINE
8
0
6
CONTINUOUS
10
0.026303
20
-0.029850
30
0.0
11
0.026447
21
-0.029850
31
0.0
0
LINE
8
0
6
CONTINUOUS
10
-0.005653
20
-0.029746
30
0.0
11
-0.013837
21
-0.029746
31
0.0
0
LINE
8
0
6
CONTINUOUS
10
-0.013767
20
-0.029850
30
0.0
11
-0.005605
21
-0.029850
31
0.0
0
LINE
8
0
6
CONTINUOUS
10
0.024326
20
-0.029746
30
0.0
11
0.023405
21
-0.029746
31
0.0
0
LINE
8
0
6
CONTINUOUS
10
0.023232
20
-0.029850
30
0.0
11
0.024148
21
-0.029850
31
0.0
0
LINE
8
0
6
CONTINUOUS
10
-0.026793
20
-0.029502
30
0.0
11
-0.026689
21
-0.029746
31
0.0
0
LINE
8
0
6
CONTINUOUS
10
-0.026689
20
-0.029746
30
0.0
11
-0.026525
21
-0.029746
31
0.0
0
LINE
8
0
6
CONTINUOUS
10
0.014312
20
0.012834
30
0.0
11
0.005838
21
0.012834
31
0.0
0
LINE
8
0
6
CONTINUOUS
10
-0.026868
20
0.012834
30
0.0
11
-0.027416
21
0.012834
31
0.0
0
LINE
8
0
6
CONTINUOUS
10
0.026793
20
-0.029284
30
0.0
11
0.027564
21
0.012365
31
0.0
0
LINE
8
0
6
CONTINUOUS
10
-0.025111
20
0.012834
30
0.0
11
-0.025809
21
0.012834
31
0.0
0
LINE
8
0
6
CONTINUOUS
10
-0.026793
20
-0.029284
30
0.0
11
-0.026793
21
-0.029502
31
0.0
0
LINE
8
0
6
CONTINUOUS
10
0.005838
20
0.012834
30
0.0
11
0.000000
21
0.012834
31
0.0
0
LINE
8
0
6
CONTINUOUS
10
0.024175
20
0.012834
30
0.0
11
0.022951
21
0.012834
31
0.0
0
LINE
8
0
6
CONTINUOUS
10
0.022951
20
0.012834
30
0.0
11
0.021480
21
0.012834
31
0.0
0
LINE
8
0
6
CONTINUOUS
10
0.019277
20
0.012834
30
0.0
11
0.014312
21
0.012834
31
0.0
0
LINE
8
0
6
CONTINUOUS
10
0.021480
20
0.012834
30
0.0
11
0.019277
21
0.012834
31
0.0
0
LINE
8
0
6
CONTINUOUS
10
-0.026276
20
0.012834
30
0.0
11
-0.026868
21
0.012834
31
0.0
0
LINE
8
0
6
CONTINUOUS
10
-0.024174
20
0.012834
30
0.0
11
-0.025111
21
0.012834
31
0.0
0
LINE
8
0
6
CONTINUOUS
10
0.027416
20
0.012834
30
0.0
11
0.026869
21
0.012834
31
0.0
0
LINE
8
0
6
CONTINUOUS
10
-0.027572
20
0.012834
30
0.0
11
-0.027563
21
0.012365
31
0.0
0
LINE
8
0
6
CONTINUOUS
10
-0.027416
20
0.012834
30
0.0
11
-0.027572
21
0.012834
31
0.0
0
LINE
8
0
6
CONTINUOUS
10
-0.014311
20
0.012834
30
0.0
11
-0.019276
21
0.012834
31
0.0
0
LINE
8
0
6
CONTINUOUS
10
-0.005837
20
0.012834
30
0.0
11
-0.014311
21
0.012834
31
0.0
0
LINE
8
0
6
CONTINUOUS
10
0.026869
20
0.012834
30
0.0
11
0.026276
21
0.012834
31
0.0
0
LINE
8
0
6
CONTINUOUS
10
-0.019276
20
0.012834
30
0.0
11
-0.021480
21
0.012834
31
0.0
0
LINE
8
0
6
CONTINUOUS
10
0.027564
20
0.012365
30
0.0
11
0.027572
21
0.012834
31
0.0
0
LINE
8
0
6
CONTINUOUS
10
0.027572
20
0.012834
30
0.0
11
0.027416
21
0.012834
31
0.0
0
LINE
8
0
6
CONTINUOUS
10
0.000000
20
0.012834
30
0.0
11
-0.005837
21
0.012834
31
0.0
0
LINE
8
0
6
CONTINUOUS
10
0.025809
20
0.012834
30
0.0
11
0.025112
21
0.012834
31
0.0
0
LINE
8
0
6
CONTINUOUS
10
-0.021480
20
0.012834
30
0.0
11
-0.022951
21
0.012834
31
0.0
0
LINE
8
0
6
CONTINUOUS
10
-0.022951
20
0.012834
30
0.0
11
-0.024174
21
0.012834
31
0.0
0
LINE
8
0
6
CONTINUOUS
10
0.025112
20
0.012834
30
0.0
11
0.024175
21
0.012834
31
0.0
0
LINE
8
0
6
CONTINUOUS
10
0.026276
20
0.012834
30
0.0
11
0.025809
21
0.012834
31
0.0
0
LINE
8
0
6
CONTINUOUS
10
0.016213
20
0.015850
30
0.0
11
0.028654
21
0.015850
31
0.0
0
LINE
8
0
6
CONTINUOUS
10
0.028654
20
0.015850
30
0.0
11
0.039822
21
0.015850
31
0.0
0
LINE
8
0
6
CONTINUOUS
10
0.039822
20
0.015850
30
0.0
11
0.047467
21
0.015850
31
0.0
0
LINE
8
0
6
CONTINUOUS
10
0.055563
20
0.015850
30
0.0
11
0.059452
21
0.015850
31
0.0
0
LINE
8
0
6
CONTINUOUS
10
0.074407
20
0.015850
30
0.0
11
0.075279
21
0.015850
31
0.0
0
LINE
8
0
6
CONTINUOUS
10
0.066330
20
0.015850
30
0.0
11
0.068941
21
0.015850
31
0.0
0
LINE
8
0
6
CONTINUOUS
10
0.074923
20
0.016150
30
0.0
11
0.075806
21
0.016150
31
0.0
0
LINE
8
0
6
CONTINUOUS
10
0.059452
20
0.015850
30
0.0
11
0.063070
21
0.015850
31
0.0
0
LINE
8
0
6
CONTINUOUS
10
0.076500
20
0.015850
30
0.0
11
0.077200
21
0.016150
31
0.0
0
LINE
8
0
6
CONTINUOUS
10
0.076291
20
0.015850
30
0.0
11
0.076500
21
0.015850
31
0.0
0
LINE
8
0
6
CONTINUOUS
10
0.016353
20
0.016150
30
0.0
11
0.000000
21
0.016150
31
0.0
0
LINE
8
0
6
CONTINUOUS
10
0.000000
20
0.015850
30
0.0
11
0.016213
21
0.015850
31
0.0
0
LINE
8
0
6
CONTINUOUS
10
0.016353
20
0.016150
30
0.0
11
0.028962
21
0.016150
31
0.0
0
LINE
8
0
6
CONTINUOUS
10
0.028962
20
0.016150
30
0.0
11
0.040025
21
0.016150
31
0.0
0
LINE
8
0
6
CONTINUOUS
10
0.055946
20
0.016150
30
0.0
11
0.059870
21
0.016150
31
0.0
0
LINE
8
0
6
CONTINUOUS
10
0.077200
20
0.016150
30
0.0
11
0.077500
21
0.016850
31
0.0
0
LINE
8
0
6
CONTINUOUS
10
0.076935
20
0.016150
30
0.0
11
0.077200
21
0.016150
31
0.0
0
LINE
8
0
6
CONTINUOUS
10
0.051888
20
0.016150
30
0.0
11
0.047743
21
0.016150
31
0.0
0
LINE
8
0
6
CONTINUOUS
10
0.047467
20
0.015850
30
0.0
11
0.051544
21
0.015850
31
0.0
0
LINE
8
0
6
CONTINUOUS
10
0.055946
20
0.016150
30
0.0
11
0.051888
21
0.016150
31
0.0
0
LINE
8
0
6
CONTINUOUS
10
0.051544
20
0.015850
30
0.0
11
0.055563
21
0.015850
31
0.0
0
LINE
8
0
6
CONTINUOUS
10
0.066776
20
0.016150
30
0.0
11
0.063551
21
0.016150
31
0.0
0
LINE
8
0
6
CONTINUOUS
10
0.063070
20
0.015850
30
0.0
11
0.066330
21
0.015850
31
0.0
0
LINE
8
0
6
CONTINUOUS
10
0.075949
20
0.015850
30
0.0
11
0.076291
21
0.015850
31
0.0
0
LINE
8
0
6
CONTINUOUS
10
0.075279
20
0.015850
30
0.0
11
0.075949
21
0.015850
31
0.0
0
LINE
8
0
6
CONTINUOUS
10
0.076565
20
0.016150
30
0.0
11
0.075806
21
0.016150
31
0.0
0
LINE
8
0
6
CONTINUOUS
10
0.073518
20
0.015850
30
0.0
11
0.074407
21
0.015850
31
0.0
0
LINE
8
0
6
CONTINUOUS
10
0.074923
20
0.016150
30
0.0
11
0.074143
21
0.016150
31
0.0
0
LINE
8
0
6
CONTINUOUS
10
0.072434
20
0.015850
30
0.0
11
0.073518
21
0.015850
31
0.0
0
LINE
8
0
6
CONTINUOUS
10
0.074143
20
0.016150
30
0.0
11
0.073009
21
0.016150
31
0.0
0
LINE
8
0
6
CONTINUOUS
10
0.070952
20
0.015850
30
0.0
11
0.072434
21
0.015850
31
0.0
0
LINE
8
0
6
CONTINUOUS
10
0.077500
20
0.017226
30
0.0
11
0.077500
21
0.029474
31
0.0
0
LINE
8
0
6
CONTINUOUS
10
0.076565
20
0.016150
30
0.0
11
0.076935
21
0.016150
31
0.0
0
LINE
8
0
6
CONTINUOUS
10
0.071521
20
0.016150
30
0.0
11
0.073009
21
0.016150
31
0.0
0
LINE
8
0
6
CONTINUOUS
10
0.068941
20
0.015850
30
0.0
11
0.070952
21
0.015850
31
0.0
0
LINE
8
0
6
CONTINUOUS
10
0.071521
20
0.016150
30
0.0
11
0.069428
21
0.016150
31
0.0
0
LINE
8
0
6
CONTINUOUS
10
0.066776
20
0.016150
30
0.0
11
0.069428
21
0.016150
31
0.0
0
LINE
8
0
6
CONTINUOUS
10
0.059870
20
0.016150
30
0.0
11
0.063551
21
0.016150
31
0.0
0
LINE
8
0
6
CONTINUOUS
10
0.016409
20
0.029850
30
0.0
11
0.000000
21
0.029850
31
0.0
0
LINE
8
0
6
CONTINUOUS
10
0.069697
20
0.029850
30
0.0
11
0.067038
21
0.029850
31
0.0
0
LINE
8
0
6
CONTINUOUS
10
0.060091
20
0.029850
30
0.0
11
0.056144
21
0.029850
31
0.0
0
LINE
8
0
6
CONTINUOUS
10
0.029102
20
0.029850
30
0.0
11
0.016409
21
0.029850
31
0.0
0
LINE
8
0
6
CONTINUOUS
10
0.076171
20
0.029850
30
0.0
11
0.075247
21
0.029850
31
0.0
0
LINE
8
0
6
CONTINUOUS
10
0.075247
20
0.029850
30
0.0
11
0.074454
21
0.029850
31
0.0
0
LINE
8
0
6
CONTINUOUS
10
0.052068
20
0.029850
30
0.0
11
0.047903
21
0.029850
31
0.0
0
LINE
8
0
6
CONTINUOUS
10
0.077500
20
0.016850
30
0.0
11
0.077500
21
0.017226
31
0.0
0
LINE
8
0
6
CONTINUOUS
10
0.047903
20
0.029850
30
0.0
11
0.040227
21
0.029850
31
0.0
0
LINE
8
0
6
CONTINUOUS
10
0.067038
20
0.029850
30
0.0
11
0.063759
21
0.029850
31
0.0
0
LINE
8
0
6
CONTINUOUS
10
0.063759
20
0.029850
30
0.0
11
0.060091
21
0.029850
31
0.0
0
LINE
8
0
6
CONTINUOUS
10
0.040227
20
0.029850
30
0.0
11
0.029102
21
0.029850
31
0.0
0
LINE
8
0
6
CONTINUOUS
10
0.073306
20
0.029850
30
0.0
11
0.071798
21
0.029850
31
0.0
0
LINE
8
0
6
CONTINUOUS
10
0.077500
20
0.029850
30
0.0
11
0.077270
21
0.029850
31
0.0
0
LINE
8
0
6
CONTINUOUS
10
0.077500
20
0.029474
30
0.0
11
0.077500
21
0.029850
31
0.0
0
LINE
8
0
6
CONTINUOUS
10
0.077270
20
0.029850
30
0.0
11
0.076873
21
0.029850
31
0.0
0
LINE
8
0
6
CONTINUOUS
10
0.071798
20
0.029850
30
0.0
11
0.069697
21
0.029850
31
0.0
0
LINE
8
0
6
CONTINUOUS
10
0.074454
20
0.029850
30
0.0
11
0.073306
21
0.029850
31
0.0
0
LINE
8
0
6
CONTINUOUS
10
0.076873
20
0.029850
30
0.0
11
0.076171
21
0.029850
31
0.0
0
LINE
8
0
6
CONTINUOUS
10
0.056144
20
0.029850
30
0.0
11
0.052068
21
0.029850
31
0.0
0
LINE
8
0
6
CONTINUOUS
10
-0.028654
20
0.015850
30
0.0
11
-0.016213
21
0.015850
31
0.0
0
LINE
8
0
6
CONTINUOUS
10
-0.039822
20
0.015850
30
0.0
11
-0.028654
21
0.015850
31
0.0
0
LINE
8
0
6
CONTINUOUS
10
-0.047467
20
0.015850
30
0.0
11
-0.039822
21
0.015850
31
0.0
0
LINE
8
0
6
CONTINUOUS
10
-0.059452
20
0.015850
30
0.0
11
-0.055563
21
0.015850
31
0.0
0
LINE
8
0
6
CONTINUOUS
10
-0.075279
20
0.015850
30
0.0
11
-0.074407
21
0.015850
31
0.0
0
LINE
8
0
6
CONTINUOUS
10
-0.068941
20
0.015850
30
0.0
11
-0.066330
21
0.015850
31
0.0
0
LINE
8
0
6
CONTINUOUS
10
-0.075806
20
0.016150
30
0.0
11
-0.074923
21
0.016150
31
0.0
0
LINE
8
0
6
CONTINUOUS
10
-0.063070
20
0.015850
30
0.0
11
-0.059452
21
0.015850
31
0.0
0
LINE
8
0
6
CONTINUOUS
10
-0.076500
20
0.015850
30
0.0
11
-0.076291
21
0.015850
31
0.0
0
LINE
8
0
6
CONTINUOUS
10
-0.077200
20
0.016150
30
0.0
11
-0.076500
21
0.015850
31
0.0
0
LINE
8
0
6
CONTINUOUS
10
-0.016213
20
0.015850
30
0.0
11
0.000000
21
0.015850
31
0.0
0
LINE
8
0
6
CONTINUOUS
10
0.000000
20
0.016150
30
0.0
11
-0.016353
21
0.016150
31
0.0
0
LINE
8
0
6
CONTINUOUS
10
-0.028962
20
0.016150
30
0.0
11
-0.016353
21
0.016150
31
0.0
0
LINE
8
0
6
CONTINUOUS
10
-0.040025
20
0.016150
30
0.0
11
-0.028962
21
0.016150
31
0.0
0
LINE
8
0
6
CONTINUOUS
10
-0.059870
20
0.016150
30
0.0
11
-0.055946
21
0.016150
31
0.0
0
LINE
8
0
6
CONTINUOUS
10
-0.077200
20
0.016150
30
0.0
11
-0.076935
21
0.016150
31
0.0
0
LINE
8
0
6
CONTINUOUS
10
-0.077500
20
0.016850
30
0.0
11
-0.077200
21
0.016150
31
0.0
0
LINE
8
0
6
CONTINUOUS
10
-0.051544
20
0.015850
30
0.0
11
-0.047467
21
0.015850
31
0.0
0
LINE
8
0
6
CONTINUOUS
10
-0.047743
20
0.016150
30
0.0
11
-0.051888
21
0.016150
31
0.0
0
LINE
8
0
6
CONTINUOUS
10
-0.055563
20
0.015850
30
0.0
11
-0.051544
21
0.015850
31
0.0
0
LINE
8
0
6
CONTINUOUS
10
-0.051888
20
0.016150
30
0.0
11
-0.055946
21
0.016150
31
0.0
0
LINE
8
0
6
CONTINUOUS
10
-0.066330
20
0.015850
30
0.0
11
-0.063070
21
0.015850
31
0.0
0
LINE
8
0
6
CONTINUOUS
10
-0.063551
20
0.016150
30
0.0
11
-0.066776
21
0.016150
31
0.0
0
LINE
8
0
6
CONTINUOUS
10
-0.076291
20
0.015850
30
0.0
11
-0.075949
21
0.015850
31
0.0
0
LINE
8
0
6
CONTINUOUS
10
-0.075806
20
0.016150
30
0.0
11
-0.076565
21
0.016150
31
0.0
0
LINE
8
0
6
CONTINUOUS
10
-0.075949
20
0.015850
30
0.0
11
-0.075279
21
0.015850
31
0.0
0
LINE
8
0
6
CONTINUOUS
10
-0.074143
20
0.016150
30
0.0
11
-0.074923
21
0.016150
31
0.0
0
LINE
8
0
6
CONTINUOUS
10
-0.074407
20
0.015850
30
0.0
11
-0.073518
21
0.015850
31
0.0
0
LINE
8
0
6
CONTINUOUS
10
-0.073009
20
0.016150
30
0.0
11
-0.074143
21
0.016150
31
0.0
0
LINE
8
0
6
CONTINUOUS
10
-0.073518
20
0.015850
30
0.0
11
-0.072434
21
0.015850
31
0.0
0
LINE
8
0
6
CONTINUOUS
10
-0.072434
20
0.015850
30
0.0
11
-0.070952
21
0.015850
31
0.0
0
LINE
8
0
6
CONTINUOUS
10
-0.077500
20
0.029474
30
0.0
11
-0.077500
21
0.017226
31
0.0
0
LINE
8
0
6
CONTINUOUS
10
-0.076935
20
0.016150
30
0.0
11
-0.076565
21
0.016150
31
0.0
0
LINE
8
0
6
CONTINUOUS
10
-0.073009
20
0.016150
30
0.0
11
-0.071521
21
0.016150
31
0.0
0
LINE
8
0
6
CONTINUOUS
10
-0.069428
20
0.016150
30
0.0
11
-0.071521
21
0.016150
31
0.0
0
LINE
8
0
6
CONTINUOUS
10
-0.070952
20
0.015850
30
0.0
11
-0.068941
21
0.015850
31
0.0
0
LINE
8
0
6
CONTINUOUS
10
-0.069428
20
0.016150
30
0.0
11
-0.066776
21
0.016150
31
0.0
0
LINE
8
0
6
CONTINUOUS
10
-0.063551
20
0.016150
30
0.0
11
-0.059870
21
0.016150
31
0.0
0
LINE
8
0
6
CONTINUOUS
10
0.000000
20
0.029850
30
0.0
11
-0.016409
21
0.029850
31
0.0
0
LINE
8
0
6
CONTINUOUS
10
-0.067038
20
0.029850
30
0.0
11
-0.069697
21
0.029850
31
0.0
0
LINE
8
0
6
CONTINUOUS
10
-0.056144
20
0.029850
30
0.0
11
-0.060091
21
0.029850
31
0.0
0
LINE
8
0
6
CONTINUOUS
10
-0.016409
20
0.029850
30
0.0
11
-0.029102
21
0.029850
31
0.0
0
LINE
8
0
6
CONTINUOUS
10
-0.075247
20
0.029850
30
0.0
11
-0.076171
21
0.029850
31
0.0
0
LINE
8
0
6
CONTINUOUS
10
-0.074454
20
0.029850
30
0.0
11
-0.075247
21
0.029850
31
0.0
0
LINE
8
0
6
CONTINUOUS
10
-0.047903
20
0.029850
30
0.0
11
-0.052068
21
0.029850
31
0.0
0
LINE
8
0
6
CONTINUOUS
10
-0.077500
20
0.017226
30
0.0
11
-0.077500
21
0.016850
31
0.0
0
LINE
8
0
6
CONTINUOUS
10
-0.040227
20
0.029850
30
0.0
11
-0.047903
21
0.029850
31
0.0
0
LINE
8
0
6
CONTINUOUS
10
-0.063759
20
0.029850
30
0.0
11
-0.067038
21
0.029850
31
0.0
0
LINE
8
0
6
CONTINUOUS
10
-0.060091
20
0.029850
30
0.0
11
-0.063759
21
0.029850
31
0.0
0
LINE
8
0
6
CONTINUOUS
10
-0.029102
20
0.029850
30
0.0
11
-0.040227
21
0.029850
31
0.0
0
LINE
8
0
6
CONTINUOUS
10
-0.071798
20
0.029850
30
0.0
11
-0.073306
21
0.029850
31
0.0
0
LINE
8
0
6
CONTINUOUS
10
-0.077500
20
0.029850
30
0.0
11
-0.077500
21
0.029474
31
0.0
0
LINE
8
0
6
CONTINUOUS
10
-0.077270
20
0.029850
30
0.0
11
-0.077500
21
0.029850
31
0.0
0
LINE
8
0
6
CONTINUOUS
10
-0.076873
20
0.029850
30
0.0
11
-0.077270
21
0.029850
31
0.0
0
LINE
8
0
6
CONTINUOUS
10
-0.069697
20
0.029850
30
0.0
11
-0.071798
21
0.029850
31
0.0
0
LINE
8
0
6
CONTINUOUS
10
-0.073306
20
0.029850
30
0.0
11
-0.074454
21
0.029850
31
0.0
0
LINE
8
0
6
CONTINUOUS
10
-0.076171
20
0.029850
30
0.0
11
-0.076873
21
0.029850
31
0.0
0
LINE
8
0
6
CONTINUOUS
10
-0.052068
20
0.029850
30
0.0
11
-0.056144
21
0.029850
31
0.0
0
ENDSEC
0
EOF
