  0
SECTION
  2
HEADER
  9
$ACADVER
  1
AC1015
  9
$ACADMAINTVER
 70
    13
  9
$DWGCODEPAGE
  3
ANSI_1252
  9
$INSBASE
 10
0.0
 20
0.0
 30
0.0
  9
$EXTMIN
 10
0.0000000000000009
 20
0.0000000000000058
 30
0.0
  9
$EXTMAX
 10
62.0
 20
72.0
 30
0.0
  9
$LIMMIN
 10
0.0
 20
0.0
  9
$LIMMAX
 10
12.0
 20
9.0
  9
$ORTHOMODE
 70
     0
  9
$REGENMODE
 70
     1
  9
$FILLMODE
 70
     1
  9
$QTEXTMODE
 70
     0
  9
$MIRRTEXT
 70
     1
  9
$LTSCALE
 40
1.0
  9
$ATTMODE
 70
     1
  9
$TEXTSIZE
 40
0.2
  9
$TRACEWID
 40
0.05
  9
$TEXTSTYLE
  7
Standard
  9
$CLAYER
  8
0
  9
$CELTYPE
  6
Continuous
  9
$CECOLOR
 62
   256
  9
$CELTSCALE
 40
1.0
  9
$DISPSILH
 70
     0
  9
$DIMSCALE
 40
1.0
  9
$DIMASZ
 40
0.18
  9
$DIMEXO
 40
0.0625
  9
$DIMDLI
 40
0.38
  9
$DIMRND
 40
0.0
  9
$DIMDLE
 40
0.0
  9
$DIMEXE
 40
0.18
  9
$DIMTP
 40
0.0
  9
$DIMTM
 40
0.0
  9
$DIMTXT
 40
0.18
  9
$DIMCEN
 40
0.09
  9
$DIMTSZ
 40
0.0
  9
$DIMTOL
 70
     0
  9
$DIMLIM
 70
     0
  9
$DIMTIH
 70
     1
  9
$DIMTOH
 70
     1
  9
$DIMSE1
 70
     0
  9
$DIMSE2
 70
     0
  9
$DIMTAD
 70
     0
  9
$DIMZIN
 70
     0
  9
$DIMBLK
  1

  9
$DIMASO
 70
     1
  9
$DIMSHO
 70
     1
  9
$DIMPOST
  1

  9
$DIMAPOST
  1

  9
$DIMALT
 70
     0
  9
$DIMALTD
 70
     2
  9
$DIMALTF
 40
25.4
  9
$DIMLFAC
 40
1.0
  9
$DIMTOFL
 70
     0
  9
$DIMTVP
 40
0.0
  9
$DIMTIX
 70
     0
  9
$DIMSOXD
 70
     0
  9
$DIMSAH
 70
     0
  9
$DIMBLK1
  1

  9
$DIMBLK2
  1

  9
$DIMSTYLE
  2
Standard
  9
$DIMCLRD
 70
     0
  9
$DIMCLRE
 70
     0
  9
$DIMCLRT
 70
     0
  9
$DIMTFAC
 40
1.0
  9
$DIMGAP
 40
0.09
  9
$DIMJUST
 70
     0
  9
$DIMSD1
 70
     0
  9
$DIMSD2
 70
     0
  9
$DIMTOLJ
 70
     1
  9
$DIMTZIN
 70
     0
  9
$DIMALTZ
 70
     0
  9
$DIMALTTZ
 70
     0
  9
$DIMUPT
 70
     0
  9
$DIMDEC
 70
     4
  9
$DIMTDEC
 70
     4
  9
$DIMALTU
 70
     2
  9
$DIMALTTD
 70
     2
  9
$DIMTXSTY
  7
Standard
  9
$DIMAUNIT
 70
     0
  9
$DIMADEC
 70
     0
  9
$DIMALTRND
 40
0.0
  9
$DIMAZIN
 70
     0
  9
$DIMDSEP
 70
    46
  9
$DIMATFIT
 70
     3
  9
$DIMFRAC
 70
     0
  9
$DIMLDRBLK
  1

  9
$DIMLUNIT
 70
     2
  9
$DIMLWD
 70
    -2
  9
$DIMLWE
 70
    -2
  9
$DIMTMOVE
 70
     0
  9
$LUNITS
 70
     2
  9
$LUPREC
 70
     4
  9
$SKETCHINC
 40
0.1
  9
$FILLETRAD
 40
0.0
  9
$AUNITS
 70
     0
  9
$AUPREC
 70
     0
  9
$MENU
  1
.
  9
$ELEVATION
 40
0.0
  9
$PELEVATION
 40
0.0
  9
$THICKNESS
 40
0.0
  9
$LIMCHECK
 70
     0
  9
$CHAMFERA
 40
0.0
  9
$CHAMFERB
 40
0.0
  9
$CHAMFERC
 40
0.0
  9
$CHAMFERD
 40
0.0
  9
$SKPOLY
 70
     0
  9
$TDCREATE
 40
2454778.709406828
  9
$TDUCREATE
 40
2454778.667740161
  9
$TDUPDATE
 40
2454778.711620185
  9
$TDUUPDATE
 40
2454778.669953518
  9
$TDINDWG
 40
0.0022133565
  9
$TDUSRTIMER
 40
0.0022133565
  9
$USRTIMER
 70
     1
  9
$ANGBASE
 50
0.0
  9
$ANGDIR
 70
     0
  9
$PDMODE
 70
     0
  9
$PDSIZE
 40
0.0
  9
$PLINEWID
 40
0.0
  9
$SPLFRAME
 70
     0
  9
$SPLINETYPE
 70
     6
  9
$SPLINESEGS
 70
     8
  9
$HANDSEED
  5
1BC
  9
$SURFTAB1
 70
     6
  9
$SURFTAB2
 70
     6
  9
$SURFTYPE
 70
     6
  9
$SURFU
 70
     6
  9
$SURFV
 70
     6
  9
$UCSBASE
  2

  9
$UCSNAME
  2

  9
$UCSORG
 10
0.0
 20
0.0
 30
0.0
  9
$UCSXDIR
 10
1.0
 20
0.0
 30
0.0
  9
$UCSYDIR
 10
0.0
 20
1.0
 30
0.0
  9
$UCSORTHOREF
  2

  9
$UCSORTHOVIEW
 70
     1
  9
$UCSORGTOP
 10
0.0
 20
0.0
 30
0.0
  9
$UCSORGBOTTOM
 10
0.0
 20
0.0
 30
0.0
  9
$UCSORGLEFT
 10
0.0
 20
0.0
 30
0.0
  9
$UCSORGRIGHT
 10
0.0
 20
0.0
 30
0.0
  9
$UCSORGFRONT
 10
0.0
 20
0.0
 30
0.0
  9
$UCSORGBACK
 10
0.0
 20
0.0
 30
0.0
  9
$PUCSBASE
  2

  9
$PUCSNAME
  2

  9
$PUCSORG
 10
0.0
 20
0.0
 30
0.0
  9
$PUCSXDIR
 10
1.0
 20
0.0
 30
0.0
  9
$PUCSYDIR
 10
0.0
 20
1.0
 30
0.0
  9
$PUCSORTHOREF
  2

  9
$PUCSORTHOVIEW
 70
     0
  9
$PUCSORGTOP
 10
0.0
 20
0.0
 30
0.0
  9
$PUCSORGBOTTOM
 10
0.0
 20
0.0
 30
0.0
  9
$PUCSORGLEFT
 10
0.0
 20
0.0
 30
0.0
  9
$PUCSORGRIGHT
 10
0.0
 20
0.0
 30
0.0
  9
$PUCSORGFRONT
 10
0.0
 20
0.0
 30
0.0
  9
$PUCSORGBACK
 10
0.0
 20
0.0
 30
0.0
  9
$USERI1
 70
     0
  9
$USERI2
 70
     0
  9
$USERI3
 70
     0
  9
$USERI4
 70
     0
  9
$USERI5
 70
     0
  9
$USERR1
 40
0.0
  9
$USERR2
 40
0.0
  9
$USERR3
 40
0.0
  9
$USERR4
 40
0.0
  9
$USERR5
 40
0.0
  9
$WORLDVIEW
 70
     1
  9
$SHADEDGE
 70
     3
  9
$SHADEDIF
 70
    70
  9
$TILEMODE
 70
     1
  9
$MAXACTVP
 70
    64
  9
$PINSBASE
 10
0.0
 20
0.0
 30
0.0
  9
$PLIMCHECK
 70
     0
  9
$PEXTMIN
 10
1.000000000000000E+20
 20
1.000000000000000E+20
 30
1.000000000000000E+20
  9
$PEXTMAX
 10
-1.000000000000000E+20
 20
-1.000000000000000E+20
 30
-1.000000000000000E+20
  9
$PLIMMIN
 10
0.0
 20
0.0
  9
$PLIMMAX
 10
12.0
 20
9.0
  9
$UNITMODE
 70
     0
  9
$VISRETAIN
 70
     1
  9
$PLINEGEN
 70
     0
  9
$PSLTSCALE
 70
     1
  9
$TREEDEPTH
 70
  3020
  9
$CMLSTYLE
  2
Standard
  9
$CMLJUST
 70
     0
  9
$CMLSCALE
 40
1.0
  9
$PROXYGRAPHICS
 70
     1
  9
$MEASUREMENT
 70
     0
  9
$CELWEIGHT
370
    -1
  9
$ENDCAPS
280
     0
  9
$JOINSTYLE
280
     0
  9
$LWDISPLAY
290
     0
  9
$INSUNITS
 70
     0
  9
$HYPERLINKBASE
  1

  9
$STYLESHEET
  1

  9
$XEDIT
290
     1
  9
$CEPSNTYPE
380
     0
  9
$PSTYLEMODE
290
     1
  9
$FINGERPRINTGUID
  2
{9A467EF2-1696-4A24-B0B7-847A83FF3993}
  9
$VERSIONGUID
  2
{2B69A9D4-DBB3-49F1-8CEF-A71FDC2C6CE9}
  9
$EXTNAMES
290
     1
  9
$PSVPSCALE
 40
0.0
  9
$OLESTARTUP
290
     0
  0
ENDSEC
  0
SECTION
  2
CLASSES
  0
CLASS
  1
ACDBDICTIONARYWDFLT
  2
AcDbDictionaryWithDefault
  3
AutoCAD 2000
 90
        0
280
     0
281
     0
  0
CLASS
  1
ACDBPLACEHOLDER
  2
AcDbPlaceHolder
  3
AutoCAD 2000
 90
        0
280
     0
281
     0
  0
CLASS
  1
LAYOUT
  2
AcDbLayout
  3
AutoCAD 2000
 90
        0
280
     0
281
     0
  0
CLASS
  1
DICTIONARYVAR
  2
AcDbDictionaryVar
  3
AutoCAD 2000
 90
        0
280
     0
281
     0
  0
ENDSEC
  0
SECTION
  2
TABLES
  0
TABLE
  2
VPORT
  5
8
330
0
100
AcDbSymbolTable
 70
     2
  0
VPORT
  5
1BB
330
8
100
AcDbSymbolTableRecord
100
AcDbViewportTableRecord
  2
*Active
 70
     0
 10
0.0
 20
0.0
 11
1.0
 21
1.0
 12
31.0
 22
36.0
 13
0.0
 23
0.0
 14
1.0
 24
1.0
 15
0.0
 25
0.0
 16
0.0
 26
0.0
 36
1.0
 17
0.0
 27
0.0
 37
0.0
 40
72.55242966751918
 41
2.078104993597951
 42
50.0
 43
0.0
 44
0.0
 50
0.0
 51
0.0
 71
     0
 72
   100
 73
     1
 74
     3
 75
     0
 76
     0
 77
     0
 78
     0
281
     0
 65
     1
110
0.0
120
0.0
130
0.0
111
1.0
121
0.0
131
0.0
112
0.0
122
1.0
132
0.0
 79
     1
146
0.0
  0
ENDTAB
  0
TABLE
  2
LTYPE
  5
5
330
0
100
AcDbSymbolTable
 70
     1
  0
LTYPE
  5
13
330
5
100
AcDbSymbolTableRecord
100
AcDbLinetypeTableRecord
  2
ByBlock
 70
     0
  3

 72
    65
 73
     0
 40
0.0
  0
LTYPE
  5
14
330
5
100
AcDbSymbolTableRecord
100
AcDbLinetypeTableRecord
  2
ByLayer
 70
     0
  3

 72
    65
 73
     0
 40
0.0
  0
LTYPE
  5
15
330
5
100
AcDbSymbolTableRecord
100
AcDbLinetypeTableRecord
  2
Continuous
 70
     0
  3
Solid line
 72
    65
 73
     0
 40
0.0
  0
ENDTAB
  0
TABLE
  2
LAYER
  5
2
330
0
100
AcDbSymbolTable
 70
     1
  0
LAYER
  5
10
330
2
100
AcDbSymbolTableRecord
100
AcDbLayerTableRecord
  2
0
 70
     0
 62
     7
  6
Continuous
370
    -3
390
F
  0
ENDTAB
  0
TABLE
  2
STYLE
  5
3
330
0
100
AcDbSymbolTable
 70
     1
  0
STYLE
  5
11
330
3
100
AcDbSymbolTableRecord
100
AcDbTextStyleTableRecord
  2
Standard
 70
     0
 40
0.0
 41
1.0
 50
0.0
 71
     0
 42
0.2
  3
txt
  4

  0
ENDTAB
  0
TABLE
  2
VIEW
  5
6
330
0
100
AcDbSymbolTable
 70
     0
  0
ENDTAB
  0
TABLE
  2
UCS
  5
7
330
0
100
AcDbSymbolTable
 70
     0
  0
ENDTAB
  0
TABLE
  2
APPID
  5
9
330
0
100
AcDbSymbolTable
 70
     1
  0
APPID
  5
12
330
9
100
AcDbSymbolTableRecord
100
AcDbRegAppTableRecord
  2
ACAD
 70
     0
  0
ENDTAB
  0
TABLE
  2
DIMSTYLE
  5
A
330
0
100
AcDbSymbolTable
 70
     1
100
AcDbDimStyleTable
 71
     0
  0
DIMSTYLE
105
1B3
330
A
100
AcDbSymbolTableRecord
100
AcDbDimStyleTableRecord
  2
Standard
 70
     0
340
11
  0
ENDTAB
  0
TABLE
  2
BLOCK_RECORD
  5
1
330
0
100
AcDbSymbolTable
 70
     0
  0
BLOCK_RECORD
  5
1E
330
1
100
AcDbSymbolTableRecord
100
AcDbBlockTableRecord
  2
*Model_Space
340
21
  0
BLOCK_RECORD
  5
1A
330
1
100
AcDbSymbolTableRecord
100
AcDbBlockTableRecord
  2
*Paper_Space
340
1D
  0
ENDTAB
  0
ENDSEC
  0
SECTION
  2
BLOCKS
  0
BLOCK
  5
1F
330
1E
100
AcDbEntity
  8
0
100
AcDbBlockBegin
  2
*Model_Space
 70
     0
 10
0.0
 20
0.0
 30
0.0
  3
*Model_Space
  1

  0
ENDBLK
  5
20
330
1E
100
AcDbEntity
  8
0
100
AcDbBlockEnd
  0
BLOCK
  5
1B
330
1A
100
AcDbEntity
 67
     1
  8
0
100
AcDbBlockBegin
  2
*Paper_Space
 70
     0
 10
0.0
 20
0.0
 30
0.0
  3
*Paper_Space
  1

  0
ENDBLK
  5
1C
330
1A
100
AcDbEntity
 67
     1
  8
0
100
AcDbBlockEnd
  0
ENDSEC
  0
SECTION
  2
ENTITIES
  0
LINE
  5
22
330
1E
100
AcDbEntity
  8
0
100
AcDbLine
 10
28.48
 20
0.0000000000000058
 30
0.0
 11
31.0
 21
0.0000000000000058
 31
0.0
  0
LINE
  5
23
330
1E
100
AcDbEntity
  8
0
100
AcDbLine
 10
26.16
 20
0.0000000000000058
 30
0.0
 11
28.48
 21
0.0000000000000058
 31
0.0
  0
LINE
  5
24
330
1E
100
AcDbEntity
  8
0
100
AcDbLine
 10
24.12
 20
0.0000000000000059
 30
0.0
 11
26.16
 21
0.0000000000000058
 31
0.0
  0
LINE
  5
25
330
1E
100
AcDbEntity
  8
0
100
AcDbLine
 10
22.55999999999999
 20
0.0000000000000061
 30
0.0
 11
24.12
 21
0.0000000000000059
 31
0.0
  0
LINE
  5
26
330
1E
100
AcDbEntity
  8
0
100
AcDbLine
 10
28.48
 20
0.0000000000000069
 30
0.0
 11
31.0
 21
0.000000000000007
 31
0.0
  0
LINE
  5
27
330
1E
100
AcDbEntity
  8
0
100
AcDbLine
 10
26.16
 20
0.0000000000000069
 30
0.0
 11
28.48
 21
0.0000000000000069
 31
0.0
  0
LINE
  5
28
330
1E
100
AcDbEntity
  8
0
100
AcDbLine
 10
24.12
 20
0.0000000000000068
 30
0.0
 11
26.16
 21
0.0000000000000069
 31
0.0
  0
LINE
  5
29
330
1E
100
AcDbEntity
  8
0
100
AcDbLine
 10
22.55999999999999
 20
0.0000000000000067
 30
0.0
 11
24.12
 21
0.0000000000000068
 31
0.0
  0
LINE
  5
2A
330
1E
100
AcDbEntity
  8
0
100
AcDbLine
 10
21.6
 20
0.0000000000000065
 30
0.0
 11
22.55999999999999
 21
0.0000000000000067
 31
0.0
  0
LINE
  5
2B
330
1E
100
AcDbEntity
  8
0
100
AcDbLine
 10
21.6
 20
0.0000000000000062
 30
0.0
 11
22.55999999999999
 21
0.0000000000000061
 31
0.0
  0
LINE
  5
2C
330
1E
100
AcDbEntity
  8
0
100
AcDbLine
 10
21.24
 20
0.0000000000000064
 30
0.0
 11
21.6
 21
0.0000000000000062
 31
0.0
  0
LINE
  5
2D
330
1E
100
AcDbEntity
  8
0
100
AcDbLine
 10
21.24
 20
0.0000000000000064
 30
0.0
 11
21.6
 21
0.0000000000000065
 31
0.0
  0
LINE
  5
2E
330
1E
100
AcDbEntity
  8
0
100
AcDbLine
 10
28.44
 20
0.238949000000007
 30
0.0
 11
31.0
 21
0.238949000000007
 31
0.0
  0
LINE
  5
2F
330
1E
100
AcDbEntity
  8
0
100
AcDbLine
 10
26.04
 20
0.238949000000007
 30
0.0
 11
28.44
 21
0.238949000000007
 31
0.0
  0
LINE
  5
30
330
1E
100
AcDbEntity
  8
0
100
AcDbLine
 10
23.92
 20
0.238949000000007
 30
0.0
 11
26.04
 21
0.238949000000007
 31
0.0
  0
LINE
  5
31
330
1E
100
AcDbEntity
  8
0
100
AcDbLine
 10
22.32
 20
0.238949000000007
 30
0.0
 11
23.92
 21
0.238949000000007
 31
0.0
  0
LINE
  5
32
330
1E
100
AcDbEntity
  8
0
100
AcDbLine
 10
21.36
 20
0.238949000000007
 30
0.0
 11
22.32
 21
0.238949000000007
 31
0.0
  0
LINE
  5
33
330
1E
100
AcDbEntity
  8
0
100
AcDbLine
 10
21.0
 20
0.238949000000006
 30
0.0
 11
21.0
 21
1.242530000000009
 31
0.0
  0
LINE
  5
34
330
1E
100
AcDbEntity
  8
0
100
AcDbLine
 10
21.0
 20
0.238949000000006
 30
0.0
 11
21.36
 21
0.238949000000007
 31
0.0
  0
LINE
  5
35
330
1E
100
AcDbEntity
  8
0
100
AcDbLine
 10
21.0
 20
0.238949000000006
 30
0.0
 11
21.24
 21
0.0000000000000064
 31
0.0
  0
LINE
  5
36
330
1E
100
AcDbEntity
  8
0
100
AcDbLine
 10
21.0
 20
0.238949000000006
 30
0.0
 11
21.24
 21
0.0000000000000064
 31
0.0
  0
LINE
  5
37
330
1E
100
AcDbEntity
  8
0
100
AcDbLine
 10
21.36
 20
1.242530000000009
 30
0.0
 11
22.32
 21
1.242530000000009
 31
0.0
  0
LINE
  5
38
330
1E
100
AcDbEntity
  8
0
100
AcDbLine
 10
21.0
 20
1.242530000000009
 30
0.0
 11
21.24
 21
1.48148000000001
 31
0.0
  0
LINE
  5
39
330
1E
100
AcDbEntity
  8
0
100
AcDbLine
 10
21.0
 20
1.242530000000009
 30
0.0
 11
21.0
 21
0.238949000000006
 31
0.0
  0
LINE
  5
3A
330
1E
100
AcDbEntity
  8
0
100
AcDbLine
 10
21.0
 20
1.242530000000009
 30
0.0
 11
21.36
 21
1.242530000000009
 31
0.0
  0
LINE
  5
3B
330
1E
100
AcDbEntity
  8
0
100
AcDbLine
 10
28.44
 20
1.242530000000009
 30
0.0
 11
31.0
 21
1.242530000000009
 31
0.0
  0
LINE
  5
3C
330
1E
100
AcDbEntity
  8
0
100
AcDbLine
 10
26.04
 20
1.242530000000009
 30
0.0
 11
28.44
 21
1.242530000000009
 31
0.0
  0
LINE
  5
3D
330
1E
100
AcDbEntity
  8
0
100
AcDbLine
 10
23.92
 20
1.242530000000009
 30
0.0
 11
26.04
 21
1.242530000000009
 31
0.0
  0
LINE
  5
3E
330
1E
100
AcDbEntity
  8
0
100
AcDbLine
 10
22.32
 20
1.242530000000009
 30
0.0
 11
23.92
 21
1.242530000000009
 31
0.0
  0
LINE
  5
3F
330
1E
100
AcDbEntity
  8
0
100
AcDbLine
 10
21.0
 20
1.62393000000001
 30
0.0
 11
21.0
 21
21.8575
 31
0.0
  0
LINE
  5
40
330
1E
100
AcDbEntity
  8
0
100
AcDbLine
 10
21.0
 20
1.62393000000001
 30
0.0
 11
21.36
 21
1.62393000000001
 31
0.0
  0
LINE
  5
41
330
1E
100
AcDbEntity
  8
0
100
AcDbLine
 10
21.0
 20
1.62393000000001
 30
0.0
 11
21.24
 21
1.48148000000001
 31
0.0
  0
LINE
  5
42
330
1E
100
AcDbEntity
  8
0
100
AcDbLine
 10
22.32
 20
1.62393000000001
 30
0.0
 11
23.92
 21
1.62393000000001
 31
0.0
  0
LINE
  5
43
330
1E
100
AcDbEntity
  8
0
100
AcDbLine
 10
21.36
 20
1.62393000000001
 30
0.0
 11
22.32
 21
1.62393000000001
 31
0.0
  0
LINE
  5
44
330
1E
100
AcDbEntity
  8
0
100
AcDbLine
 10
26.04
 20
1.62393000000001
 30
0.0
 11
28.44
 21
1.62393000000001
 31
0.0
  0
LINE
  5
45
330
1E
100
AcDbEntity
  8
0
100
AcDbLine
 10
23.92
 20
1.62393000000001
 30
0.0
 11
26.04
 21
1.62393000000001
 31
0.0
  0
LINE
  5
46
330
1E
100
AcDbEntity
  8
0
100
AcDbLine
 10
28.44
 20
1.62393000000001
 30
0.0
 11
31.0
 21
1.62393000000001
 31
0.0
  0
LINE
  5
47
330
1E
100
AcDbEntity
  8
0
100
AcDbLine
 10
31.0
 20
1.62393000000001
 30
0.0
 11
33.56
 21
1.62393000000001
 31
0.0
  0
LINE
  5
48
330
1E
100
AcDbEntity
  8
0
100
AcDbLine
 10
28.48
 20
1.48148000000001
 30
0.0
 11
31.0
 21
1.48148000000001
 31
0.0
  0
LINE
  5
49
330
1E
100
AcDbEntity
  8
0
100
AcDbLine
 10
26.16
 20
1.48148000000001
 30
0.0
 11
28.48
 21
1.48148000000001
 31
0.0
  0
LINE
  5
4A
330
1E
100
AcDbEntity
  8
0
100
AcDbLine
 10
24.12
 20
1.48148000000001
 30
0.0
 11
26.16
 21
1.48148000000001
 31
0.0
  0
LINE
  5
4B
330
1E
100
AcDbEntity
  8
0
100
AcDbLine
 10
22.55999999999999
 20
1.48148000000001
 30
0.0
 11
24.12
 21
1.48148000000001
 31
0.0
  0
LINE
  5
4C
330
1E
100
AcDbEntity
  8
0
100
AcDbLine
 10
21.6
 20
1.48148000000001
 30
0.0
 11
22.55999999999999
 21
1.48148000000001
 31
0.0
  0
LINE
  5
4D
330
1E
100
AcDbEntity
  8
0
100
AcDbLine
 10
21.24
 20
1.48148000000001
 30
0.0
 11
21.6
 21
1.48148000000001
 31
0.0
  0
LINE
  5
4E
330
1E
100
AcDbEntity
  8
0
100
AcDbLine
 10
31.0
 20
1.48148000000001
 30
0.0
 11
33.52
 21
1.48148000000001
 31
0.0
  0
LINE
  5
4F
330
1E
100
AcDbEntity
  8
0
100
AcDbLine
 10
31.0
 20
1.242530000000009
 30
0.0
 11
33.56
 21
1.242530000000009
 31
0.0
  0
LINE
  5
50
330
1E
100
AcDbEntity
  8
0
100
AcDbLine
 10
31.0
 20
0.238949000000007
 30
0.0
 11
33.56
 21
0.238949000000007
 31
0.0
  0
LINE
  5
51
330
1E
100
AcDbEntity
  8
0
100
AcDbLine
 10
31.0
 20
0.000000000000007
 30
0.0
 11
33.52
 21
0.0000000000000069
 31
0.0
  0
LINE
  5
52
330
1E
100
AcDbEntity
  8
0
100
AcDbLine
 10
31.0
 20
0.0000000000000058
 30
0.0
 11
33.52
 21
0.0000000000000058
 31
0.0
  0
LINE
  5
53
330
1E
100
AcDbEntity
  8
0
100
AcDbLine
 10
29.236
 20
3.420000000000029
 30
0.0
 11
31.0
 21
3.168000000000029
 31
0.0
  0
LINE
  5
54
330
1E
100
AcDbEntity
  8
0
100
AcDbLine
 10
29.208
 20
3.252000000000029
 30
0.0
 11
31.0
 21
3.000000000000029
 31
0.0
  0
LINE
  5
55
330
1E
100
AcDbEntity
  8
0
100
AcDbLine
 10
31.0
 20
3.168000000000029
 30
0.0
 11
32.764
 21
3.420000000000029
 31
0.0
  0
LINE
  5
56
330
1E
100
AcDbEntity
  8
0
100
AcDbLine
 10
31.0
 20
3.000000000000029
 30
0.0
 11
32.792
 21
3.252000000000029
 31
0.0
  0
LINE
  5
57
330
1E
100
AcDbEntity
  8
0
100
AcDbLine
 10
33.52
 20
1.48148000000001
 30
0.0
 11
35.84
 21
1.48148000000001
 31
0.0
  0
LINE
  5
58
330
1E
100
AcDbEntity
  8
0
100
AcDbLine
 10
33.56
 20
1.62393000000001
 30
0.0
 11
35.96
 21
1.62393000000001
 31
0.0
  0
LINE
  5
59
330
1E
100
AcDbEntity
  8
0
100
AcDbLine
 10
33.56
 20
1.242530000000009
 30
0.0
 11
35.96
 21
1.242530000000009
 31
0.0
  0
LINE
  5
5A
330
1E
100
AcDbEntity
  8
0
100
AcDbLine
 10
33.56
 20
0.238949000000007
 30
0.0
 11
35.96
 21
0.238949000000007
 31
0.0
  0
LINE
  5
5B
330
1E
100
AcDbEntity
  8
0
100
AcDbLine
 10
33.52
 20
0.0000000000000069
 30
0.0
 11
35.84
 21
0.0000000000000069
 31
0.0
  0
LINE
  5
5C
330
1E
100
AcDbEntity
  8
0
100
AcDbLine
 10
33.52
 20
0.0000000000000058
 30
0.0
 11
35.84
 21
0.0000000000000058
 31
0.0
  0
LINE
  5
5D
330
1E
100
AcDbEntity
  8
0
100
AcDbLine
 10
32.792
 20
3.252000000000029
 30
0.0
 11
34.472
 21
3.924000000000029
 31
0.0
  0
LINE
  5
5E
330
1E
100
AcDbEntity
  8
0
100
AcDbLine
 10
27.612
 20
4.092000000000029
 30
0.0
 11
29.236
 21
3.420000000000029
 31
0.0
  0
LINE
  5
5F
330
1E
100
AcDbEntity
  8
0
100
AcDbLine
 10
27.528
 20
3.924000000000029
 30
0.0
 11
29.208
 21
3.252000000000029
 31
0.0
  0
LINE
  5
60
330
1E
100
AcDbEntity
  8
0
100
AcDbLine
 10
32.764
 20
3.420000000000029
 30
0.0
 11
34.388
 21
4.092000000000029
 31
0.0
  0
LINE
  5
61
330
1E
100
AcDbEntity
  8
0
100
AcDbLine
 10
35.84
 20
1.48148000000001
 30
0.0
 11
37.88
 21
1.48148000000001
 31
0.0
  0
LINE
  5
62
330
1E
100
AcDbEntity
  8
0
100
AcDbLine
 10
35.84
 20
0.0000000000000069
 30
0.0
 11
37.88
 21
0.0000000000000068
 31
0.0
  0
LINE
  5
63
330
1E
100
AcDbEntity
  8
0
100
AcDbLine
 10
35.84
 20
0.0000000000000058
 30
0.0
 11
37.88
 21
0.0000000000000059
 31
0.0
  0
LINE
  5
64
330
1E
100
AcDbEntity
  8
0
100
AcDbLine
 10
34.472
 20
3.924000000000029
 30
0.0
 11
35.95599999999999
 21
5.04400000000003
 31
0.0
  0
LINE
  5
65
330
1E
100
AcDbEntity
  8
0
100
AcDbLine
 10
26.184
 20
5.18400000000003
 30
0.0
 11
27.612
 21
4.092000000000029
 31
0.0
  0
LINE
  5
66
330
1E
100
AcDbEntity
  8
0
100
AcDbLine
 10
26.044
 20
5.04400000000003
 30
0.0
 11
27.528
 21
3.924000000000029
 31
0.0
  0
LINE
  5
67
330
1E
100
AcDbEntity
  8
0
100
AcDbLine
 10
34.388
 20
4.092000000000029
 30
0.0
 11
35.816
 21
5.18400000000003
 31
0.0
  0
LINE
  5
68
330
1E
100
AcDbEntity
  8
0
100
AcDbLine
 10
35.96
 20
1.62393000000001
 30
0.0
 11
38.07999999999999
 21
1.62393000000001
 31
0.0
  0
LINE
  5
69
330
1E
100
AcDbEntity
  8
0
100
AcDbLine
 10
35.96
 20
1.242530000000009
 30
0.0
 11
38.07999999999999
 21
1.242530000000009
 31
0.0
  0
LINE
  5
6A
330
1E
100
AcDbEntity
  8
0
100
AcDbLine
 10
35.96
 20
0.238949000000007
 30
0.0
 11
38.07999999999999
 21
0.238949000000007
 31
0.0
  0
LINE
  5
6B
330
1E
100
AcDbEntity
  8
0
100
AcDbLine
 10
35.95599999999999
 20
5.04400000000003
 30
0.0
 11
37.076
 21
6.528000000000029
 31
0.0
  0
LINE
  5
6C
330
1E
100
AcDbEntity
  8
0
100
AcDbLine
 10
25.09199999999999
 20
6.612000000000029
 30
0.0
 11
26.184
 21
5.18400000000003
 31
0.0
  0
LINE
  5
6D
330
1E
100
AcDbEntity
  8
0
100
AcDbLine
 10
24.92399999999999
 20
6.528000000000029
 30
0.0
 11
26.044
 21
5.04400000000003
 31
0.0
  0
LINE
  5
6E
330
1E
100
AcDbEntity
  8
0
100
AcDbLine
 10
35.816
 20
5.18400000000003
 30
0.0
 11
36.908
 21
6.612000000000029
 31
0.0
  0
LINE
  5
6F
330
1E
100
AcDbEntity
  8
0
100
AcDbLine
 10
37.88
 20
0.0000000000000059
 30
0.0
 11
39.43999999999999
 21
0.0000000000000061
 31
0.0
  0
LINE
  5
70
330
1E
100
AcDbEntity
  8
0
100
AcDbLine
 10
38.07999999999999
 20
1.62393000000001
 30
0.0
 11
39.67999999999999
 21
1.62393000000001
 31
0.0
  0
LINE
  5
71
330
1E
100
AcDbEntity
  8
0
100
AcDbLine
 10
37.88
 20
1.48148000000001
 30
0.0
 11
39.43999999999999
 21
1.48148000000001
 31
0.0
  0
LINE
  5
72
330
1E
100
AcDbEntity
  8
0
100
AcDbLine
 10
38.07999999999999
 20
1.242530000000009
 30
0.0
 11
39.67999999999999
 21
1.242530000000009
 31
0.0
  0
LINE
  5
73
330
1E
100
AcDbEntity
  8
0
100
AcDbLine
 10
39.67999999999999
 20
1.62393000000001
 30
0.0
 11
40.64
 21
1.62393000000001
 31
0.0
  0
LINE
  5
74
330
1E
100
AcDbEntity
  8
0
100
AcDbLine
 10
39.43999999999999
 20
1.48148000000001
 30
0.0
 11
40.4
 21
1.48148000000001
 31
0.0
  0
LINE
  5
75
330
1E
100
AcDbEntity
  8
0
100
AcDbLine
 10
39.67999999999999
 20
1.242530000000009
 30
0.0
 11
40.64
 21
1.242530000000009
 31
0.0
  0
LINE
  5
76
330
1E
100
AcDbEntity
  8
0
100
AcDbLine
 10
38.07999999999999
 20
0.238949000000007
 30
0.0
 11
39.67999999999999
 21
0.238949000000007
 31
0.0
  0
LINE
  5
77
330
1E
100
AcDbEntity
  8
0
100
AcDbLine
 10
37.88
 20
0.0000000000000068
 30
0.0
 11
39.43999999999999
 21
0.0000000000000067
 31
0.0
  0
LINE
  5
78
330
1E
100
AcDbEntity
  8
0
100
AcDbLine
 10
40.4
 20
1.48148000000001
 30
0.0
 11
40.75999999999999
 21
1.48148000000001
 31
0.0
  0
LINE
  5
79
330
1E
100
AcDbEntity
  8
0
100
AcDbLine
 10
39.67999999999999
 20
0.238949000000007
 30
0.0
 11
40.64
 21
0.238949000000007
 31
0.0
  0
LINE
  5
7A
330
1E
100
AcDbEntity
  8
0
100
AcDbLine
 10
39.43999999999999
 20
0.0000000000000067
 30
0.0
 11
40.4
 21
0.0000000000000065
 31
0.0
  0
LINE
  5
7B
330
1E
100
AcDbEntity
  8
0
100
AcDbLine
 10
40.4
 20
0.0000000000000065
 30
0.0
 11
40.75999999999999
 21
0.0000000000000064
 31
0.0
  0
LINE
  5
7C
330
1E
100
AcDbEntity
  8
0
100
AcDbLine
 10
39.43999999999999
 20
0.0000000000000061
 30
0.0
 11
40.4
 21
0.0000000000000062
 31
0.0
  0
LINE
  5
7D
330
1E
100
AcDbEntity
  8
0
100
AcDbLine
 10
40.75999999999999
 20
0.0000000000000064
 30
0.0
 11
41.0
 21
0.238949000000006
 31
0.0
  0
LINE
  5
7E
330
1E
100
AcDbEntity
  8
0
100
AcDbLine
 10
40.64
 20
1.62393000000001
 30
0.0
 11
41.0
 21
1.62393000000001
 31
0.0
  0
LINE
  5
7F
330
1E
100
AcDbEntity
  8
0
100
AcDbLine
 10
40.64
 20
1.242530000000009
 30
0.0
 11
41.0
 21
1.242530000000009
 31
0.0
  0
LINE
  5
80
330
1E
100
AcDbEntity
  8
0
100
AcDbLine
 10
41.0
 20
0.238949000000006
 30
0.0
 11
41.0
 21
1.242530000000009
 31
0.0
  0
LINE
  5
81
330
1E
100
AcDbEntity
  8
0
100
AcDbLine
 10
41.0
 20
1.62393000000001
 30
0.0
 11
41.0
 21
21.8575
 31
0.0
  0
LINE
  5
82
330
1E
100
AcDbEntity
  8
0
100
AcDbLine
 10
40.75999999999999
 20
1.48148000000001
 30
0.0
 11
41.0
 21
1.242530000000009
 31
0.0
  0
LINE
  5
83
330
1E
100
AcDbEntity
  8
0
100
AcDbLine
 10
40.75999999999999
 20
1.48148000000001
 30
0.0
 11
41.0
 21
1.62393000000001
 31
0.0
  0
LINE
  5
84
330
1E
100
AcDbEntity
  8
0
100
AcDbLine
 10
41.0
 20
1.242530000000009
 30
0.0
 11
41.0
 21
0.238949000000006
 31
0.0
  0
LINE
  5
85
330
1E
100
AcDbEntity
  8
0
100
AcDbLine
 10
40.64
 20
0.238949000000007
 30
0.0
 11
41.0
 21
0.238949000000006
 31
0.0
  0
LINE
  5
86
330
1E
100
AcDbEntity
  8
0
100
AcDbLine
 10
40.75999999999999
 20
0.0000000000000064
 30
0.0
 11
41.0
 21
0.238949000000006
 31
0.0
  0
LINE
  5
87
330
1E
100
AcDbEntity
  8
0
100
AcDbLine
 10
40.4
 20
0.0000000000000062
 30
0.0
 11
40.75999999999999
 21
0.0000000000000064
 31
0.0
  0
LINE
  5
88
330
1E
100
AcDbEntity
  8
0
100
AcDbLine
 10
37.076
 20
6.528000000000029
 30
0.0
 11
37.748
 21
8.20800000000003
 31
0.0
  0
LINE
  5
89
330
1E
100
AcDbEntity
  8
0
100
AcDbLine
 10
36.908
 20
6.612000000000029
 30
0.0
 11
37.58
 21
8.236000000000029
 31
0.0
  0
LINE
  5
8A
330
1E
100
AcDbEntity
  8
0
100
AcDbLine
 10
24.42
 20
8.236000000000029
 30
0.0
 11
25.09199999999999
 21
6.612000000000029
 31
0.0
  0
LINE
  5
8B
330
1E
100
AcDbEntity
  8
0
100
AcDbLine
 10
24.252
 20
8.20800000000003
 30
0.0
 11
24.92399999999999
 21
6.528000000000029
 31
0.0
  0
LINE
  5
8C
330
1E
100
AcDbEntity
  8
0
100
AcDbLine
 10
37.748
 20
8.20800000000003
 30
0.0
 11
38.0
 21
10.0
 31
0.0
  0
LINE
  5
8D
330
1E
100
AcDbEntity
  8
0
100
AcDbLine
 10
37.58
 20
8.236000000000029
 30
0.0
 11
37.832
 21
10.0
 31
0.0
  0
LINE
  5
8E
330
1E
100
AcDbEntity
  8
0
100
AcDbLine
 10
9.4
 20
14.4
 30
0.0
 11
15.7
 21
9.4
 31
0.0
  0
LINE
  5
8F
330
1E
100
AcDbEntity
  8
0
100
AcDbLine
 10
24.42
 20
11.764
 30
0.0
 11
25.09199999999999
 21
13.38799999999999
 31
0.0
  0
LINE
  5
90
330
1E
100
AcDbEntity
  8
0
100
AcDbLine
 10
24.168
 20
10.0
 30
0.0
 11
24.42
 21
8.236000000000029
 31
0.0
  0
LINE
  5
91
330
1E
100
AcDbEntity
  8
0
100
AcDbLine
 10
24.168
 20
10.0
 30
0.0
 11
24.42
 21
11.764
 31
0.0
  0
LINE
  5
92
330
1E
100
AcDbEntity
  8
0
100
AcDbLine
 10
24.0
 20
10.0
 30
0.0
 11
24.252
 21
8.20800000000003
 31
0.0
  0
LINE
  5
93
330
1E
100
AcDbEntity
  8
0
100
AcDbLine
 10
24.0
 20
10.0
 30
0.0
 11
24.252
 21
11.792
 31
0.0
  0
LINE
  5
94
330
1E
100
AcDbEntity
  8
0
100
AcDbLine
 10
25.09199999999999
 20
13.38799999999999
 30
0.0
 11
26.184
 21
14.816
 31
0.0
  0
LINE
  5
95
330
1E
100
AcDbEntity
  8
0
100
AcDbLine
 10
24.252
 20
11.792
 30
0.0
 11
24.92399999999999
 21
13.472
 31
0.0
  0
LINE
  5
96
330
1E
100
AcDbEntity
  8
0
100
AcDbLine
 10
26.184
 20
14.816
 30
0.0
 11
27.612
 21
15.90799999999999
 31
0.0
  0
LINE
  5
97
330
1E
100
AcDbEntity
  8
0
100
AcDbLine
 10
24.92399999999999
 20
13.472
 30
0.0
 11
26.044
 21
14.956
 31
0.0
  0
LINE
  5
98
330
1E
100
AcDbEntity
  8
0
100
AcDbLine
 10
27.612
 20
15.90799999999999
 30
0.0
 11
29.236
 21
16.57999999999999
 31
0.0
  0
LINE
  5
99
330
1E
100
AcDbEntity
  8
0
100
AcDbLine
 10
26.044
 20
14.956
 30
0.0
 11
27.528
 21
16.076
 31
0.0
  0
LINE
  5
9A
330
1E
100
AcDbEntity
  8
0
100
AcDbLine
 10
29.236
 20
16.57999999999999
 30
0.0
 11
31.0
 21
16.832
 31
0.0
  0
LINE
  5
9B
330
1E
100
AcDbEntity
  8
0
100
AcDbLine
 10
27.528
 20
16.076
 30
0.0
 11
29.208
 21
16.748
 31
0.0
  0
LINE
  5
9C
330
1E
100
AcDbEntity
  8
0
100
AcDbLine
 10
29.208
 20
16.748
 30
0.0
 11
31.0
 21
17.0
 31
0.0
  0
LINE
  5
9D
330
1E
100
AcDbEntity
  8
0
100
AcDbLine
 10
31.0
 20
17.0
 30
0.0
 11
32.792
 21
16.748
 31
0.0
  0
LINE
  5
9E
330
1E
100
AcDbEntity
  8
0
100
AcDbLine
 10
31.0
 20
16.832
 30
0.0
 11
32.764
 21
16.57999999999999
 31
0.0
  0
LINE
  5
9F
330
1E
100
AcDbEntity
  8
0
100
AcDbLine
 10
32.792
 20
16.748
 30
0.0
 11
34.472
 21
16.076
 31
0.0
  0
LINE
  5
A0
330
1E
100
AcDbEntity
  8
0
100
AcDbLine
 10
32.764
 20
16.57999999999999
 30
0.0
 11
34.388
 21
15.90799999999999
 31
0.0
  0
LINE
  5
A1
330
1E
100
AcDbEntity
  8
0
100
AcDbLine
 10
34.472
 20
16.076
 30
0.0
 11
35.95599999999999
 21
14.956
 31
0.0
  0
LINE
  5
A2
330
1E
100
AcDbEntity
  8
0
100
AcDbLine
 10
34.388
 20
15.90799999999999
 30
0.0
 11
35.816
 21
14.816
 31
0.0
  0
LINE
  5
A3
330
1E
100
AcDbEntity
  8
0
100
AcDbLine
 10
35.95599999999999
 20
14.956
 30
0.0
 11
37.076
 21
13.472
 31
0.0
  0
LINE
  5
A4
330
1E
100
AcDbEntity
  8
0
100
AcDbLine
 10
35.816
 20
14.816
 30
0.0
 11
36.908
 21
13.38799999999999
 31
0.0
  0
LINE
  5
A5
330
1E
100
AcDbEntity
  8
0
100
AcDbLine
 10
37.076
 20
13.472
 30
0.0
 11
37.748
 21
11.792
 31
0.0
  0
LINE
  5
A6
330
1E
100
AcDbEntity
  8
0
100
AcDbLine
 10
36.908
 20
13.38799999999999
 30
0.0
 11
37.58
 21
11.764
 31
0.0
  0
LINE
  5
A7
330
1E
100
AcDbEntity
  8
0
100
AcDbLine
 10
37.748
 20
11.792
 30
0.0
 11
38.0
 21
10.0
 31
0.0
  0
LINE
  5
A8
330
1E
100
AcDbEntity
  8
0
100
AcDbLine
 10
37.58
 20
11.764
 30
0.0
 11
37.832
 21
10.0
 31
0.0
  0
LINE
  5
A9
330
1E
100
AcDbEntity
  8
0
100
AcDbLine
 10
15.7
 20
9.4
 30
0.0
 11
21.0
 21
7.25135135135136
 31
0.0
  0
LINE
  5
AA
330
1E
100
AcDbEntity
  8
0
100
AcDbLine
 10
15.6
 20
9.199999999999999
 30
0.0
 11
21.0
 21
6.93783783783784
 31
0.0
  0
LINE
  5
AB
330
1E
100
AcDbEntity
  8
0
100
AcDbLine
 10
9.099999999999999
 20
14.1
 30
0.0
 11
15.6
 21
9.199999999999999
 31
0.0
  0
LINE
  5
AC
330
1E
100
AcDbEntity
  8
0
100
AcDbLine
 10
0.3000000000000011
 20
36.0
 30
0.0
 11
1.399999999999999
 21
28.1
 31
0.0
  0
LINE
  5
AD
330
1E
100
AcDbEntity
  8
0
100
AcDbLine
 10
0.3000000000000011
 20
36.0
 30
0.0
 11
1.399999999999999
 21
43.89999999999999
 31
0.0
  0
LINE
  5
AE
330
1E
100
AcDbEntity
  8
0
100
AcDbLine
 10
1.1
 20
44.0
 30
0.0
 11
4.2
 21
51.4
 31
0.0
  0
LINE
  5
AF
330
1E
100
AcDbEntity
  8
0
100
AcDbLine
 10
0.3000000000000011
 20
36.0
 30
0.0
 11
1.399999999999999
 21
28.1
 31
0.0
  0
LINE
  5
B0
330
1E
100
AcDbEntity
  8
0
100
AcDbLine
 10
0.3000000000000011
 20
36.0
 30
0.0
 11
1.399999999999999
 21
43.89999999999999
 31
0.0
  0
LINE
  5
B1
330
1E
100
AcDbEntity
  8
0
100
AcDbLine
 10
28.44
 20
21.8575
 30
0.0
 11
31.0
 21
21.8575
 31
0.0
  0
LINE
  5
B3
330
1E
100
AcDbEntity
  8
0
100
AcDbLine
 10
26.04
 20
21.8575
 30
0.0
 11
28.44
 21
21.8575
 31
0.0
  0
LINE
  5
B5
330
1E
100
AcDbEntity
  8
0
100
AcDbLine
 10
23.92
 20
21.8575
 30
0.0
 11
26.04
 21
21.8575
 31
0.0
  0
LINE
  5
B7
330
1E
100
AcDbEntity
  8
0
100
AcDbLine
 10
22.32
 20
21.8575
 30
0.0
 11
23.92
 21
21.8575
 31
0.0
  0
LINE
  5
B9
330
1E
100
AcDbEntity
  8
0
100
AcDbLine
 10
21.36
 20
21.8575
 30
0.0
 11
22.32
 21
21.8575
 31
0.0
  0
LINE
  5
BB
330
1E
100
AcDbEntity
  8
0
100
AcDbLine
 10
21.0
 20
21.8575
 30
0.0
 11
21.24
 21
22.0
 31
0.0
  0
LINE
  5
BC
330
1E
100
AcDbEntity
  8
0
100
AcDbLine
 10
21.0
 20
21.8575
 30
0.0
 11
21.0
 21
1.62393000000001
 31
0.0
  0
LINE
  5
BD
330
1E
100
AcDbEntity
  8
0
100
AcDbLine
 10
21.0
 20
21.8575
 30
0.0
 11
21.36
 21
21.8575
 31
0.0
  0
LINE
  5
BE
330
1E
100
AcDbEntity
  8
0
100
AcDbLine
 10
31.0
 20
21.8575
 30
0.0
 11
33.56
 21
21.8575
 31
0.0
  0
LINE
  5
C0
330
1E
100
AcDbEntity
  8
0
100
AcDbLine
 10
33.56
 20
21.8575
 30
0.0
 11
35.96
 21
21.8575
 31
0.0
  0
LINE
  5
C1
330
1E
100
AcDbEntity
  8
0
100
AcDbLine
 10
35.96
 20
21.8575
 30
0.0
 11
38.07999999999999
 21
21.8575
 31
0.0
  0
LINE
  5
C2
330
1E
100
AcDbEntity
  8
0
100
AcDbLine
 10
38.07999999999999
 20
21.8575
 30
0.0
 11
39.67999999999999
 21
21.8575
 31
0.0
  0
LINE
  5
C3
330
1E
100
AcDbEntity
  8
0
100
AcDbLine
 10
39.67999999999999
 20
21.8575
 30
0.0
 11
40.64
 21
21.8575
 31
0.0
  0
LINE
  5
C4
330
1E
100
AcDbEntity
  8
0
100
AcDbLine
 10
40.64
 20
21.8575
 30
0.0
 11
41.0
 21
21.8575
 31
0.0
  0
LINE
  5
C5
330
1E
100
AcDbEntity
  8
0
100
AcDbLine
 10
28.48
 20
22.0
 30
0.0
 11
31.0
 21
22.0
 31
0.0
  0
LINE
  5
C6
330
1E
100
AcDbEntity
  8
0
100
AcDbLine
 10
26.16
 20
22.0
 30
0.0
 11
28.48
 21
22.0
 31
0.0
  0
LINE
  5
C7
330
1E
100
AcDbEntity
  8
0
100
AcDbLine
 10
24.12
 20
22.0
 30
0.0
 11
26.16
 21
22.0
 31
0.0
  0
LINE
  5
C8
330
1E
100
AcDbEntity
  8
0
100
AcDbLine
 10
22.55999999999999
 20
22.0
 30
0.0
 11
24.12
 21
22.0
 31
0.0
  0
LINE
  5
C9
330
1E
100
AcDbEntity
  8
0
100
AcDbLine
 10
21.6
 20
22.0
 30
0.0
 11
22.55999999999999
 21
22.0
 31
0.0
  0
LINE
  5
CA
330
1E
100
AcDbEntity
  8
0
100
AcDbLine
 10
21.24
 20
22.0
 30
0.0
 11
21.6
 21
22.0
 31
0.0
  0
LINE
  5
CC
330
1E
100
AcDbEntity
  8
0
100
AcDbLine
 10
31.0
 20
22.0
 30
0.0
 11
33.52
 21
22.0
 31
0.0
  0
LINE
  5
CE
330
1E
100
AcDbEntity
  8
0
100
AcDbLine
 10
33.52
 20
22.0
 30
0.0
 11
35.84
 21
22.0
 31
0.0
  0
LINE
  5
D0
330
1E
100
AcDbEntity
  8
0
100
AcDbLine
 10
35.84
 20
22.0
 30
0.0
 11
37.88
 21
22.0
 31
0.0
  0
LINE
  5
D2
330
1E
100
AcDbEntity
  8
0
100
AcDbLine
 10
37.88
 20
22.0
 30
0.0
 11
39.43999999999999
 21
22.0
 31
0.0
  0
LINE
  5
D4
330
1E
100
AcDbEntity
  8
0
100
AcDbLine
 10
39.43999999999999
 20
22.0
 30
0.0
 11
40.4
 21
22.0
 31
0.0
  0
LINE
  5
D5
330
1E
100
AcDbEntity
  8
0
100
AcDbLine
 10
28.44
 20
22.14249999999999
 30
0.0
 11
31.0
 21
22.14249999999999
 31
0.0
  0
LINE
  5
D6
330
1E
100
AcDbEntity
  8
0
100
AcDbLine
 10
26.04
 20
22.14249999999999
 30
0.0
 11
28.44
 21
22.14249999999999
 31
0.0
  0
LINE
  5
D7
330
1E
100
AcDbEntity
  8
0
100
AcDbLine
 10
23.92
 20
22.14249999999999
 30
0.0
 11
26.04
 21
22.14249999999999
 31
0.0
  0
LINE
  5
D8
330
1E
100
AcDbEntity
  8
0
100
AcDbLine
 10
22.32
 20
22.14249999999999
 30
0.0
 11
23.92
 21
22.14249999999999
 31
0.0
  0
LINE
  5
D9
330
1E
100
AcDbEntity
  8
0
100
AcDbLine
 10
21.36
 20
22.14249999999999
 30
0.0
 11
22.32
 21
22.14249999999999
 31
0.0
  0
LINE
  5
DA
330
1E
100
AcDbEntity
  8
0
100
AcDbLine
 10
21.0
 20
22.14249999999999
 30
0.0
 11
21.36
 21
22.14249999999999
 31
0.0
  0
LINE
  5
DB
330
1E
100
AcDbEntity
  8
0
100
AcDbLine
 10
21.0
 20
22.14249999999999
 30
0.0
 11
21.24
 21
22.0
 31
0.0
  0
LINE
  5
DC
330
1E
100
AcDbEntity
  8
0
100
AcDbLine
 10
21.0
 20
22.14249999999999
 30
0.0
 11
21.0
 21
36.0
 31
0.0
  0
LINE
  5
DD
330
1E
100
AcDbEntity
  8
0
100
AcDbLine
 10
31.0
 20
22.14249999999999
 30
0.0
 11
33.56
 21
22.14249999999999
 31
0.0
  0
LINE
  5
DE
330
1E
100
AcDbEntity
  8
0
100
AcDbLine
 10
33.56
 20
22.14249999999999
 30
0.0
 11
35.96
 21
22.14249999999999
 31
0.0
  0
LINE
  5
DF
330
1E
100
AcDbEntity
  8
0
100
AcDbLine
 10
35.96
 20
22.14249999999999
 30
0.0
 11
38.07999999999999
 21
22.14249999999999
 31
0.0
  0
LINE
  5
E0
330
1E
100
AcDbEntity
  8
0
100
AcDbLine
 10
38.07999999999999
 20
22.14249999999999
 30
0.0
 11
39.67999999999999
 21
22.14249999999999
 31
0.0
  0
LINE
  5
E1
330
1E
100
AcDbEntity
  8
0
100
AcDbLine
 10
39.67999999999999
 20
22.14249999999999
 30
0.0
 11
40.64
 21
22.14249999999999
 31
0.0
  0
LINE
  5
E2
330
1E
100
AcDbEntity
  8
0
100
AcDbLine
 10
40.64
 20
22.14249999999999
 30
0.0
 11
41.0
 21
22.14249999999999
 31
0.0
  0
LINE
  5
E4
330
1E
100
AcDbEntity
  8
0
100
AcDbLine
 10
40.4
 20
22.0
 30
0.0
 11
40.75999999999999
 21
22.0
 31
0.0
  0
LINE
  5
E5
330
1E
100
AcDbEntity
  8
0
100
AcDbLine
 10
41.0
 20
22.14249999999999
 30
0.0
 11
41.0
 21
36.0
 31
0.0
  0
LINE
  5
E6
330
1E
100
AcDbEntity
  8
0
100
AcDbLine
 10
40.75999999999999
 20
22.0
 30
0.0
 11
41.0
 21
21.8575
 31
0.0
  0
LINE
  5
E7
330
1E
100
AcDbEntity
  8
0
100
AcDbLine
 10
40.75999999999999
 20
22.0
 30
0.0
 11
41.0
 21
22.14249999999999
 31
0.0
  0
LINE
  5
E8
330
1E
100
AcDbEntity
  8
0
100
AcDbLine
 10
41.0
 20
21.8575
 30
0.0
 11
41.0
 21
1.62393000000001
 31
0.0
  0
LINE
  5
E9
330
1E
100
AcDbEntity
  8
0
100
AcDbLine
 10
4.4
 20
20.69999999999999
 30
0.0
 11
9.4
 21
14.4
 31
0.0
  0
LINE
  5
EA
330
1E
100
AcDbEntity
  8
0
100
AcDbLine
 10
1.399999999999999
 20
43.89999999999999
 30
0.0
 11
4.4
 21
51.29999999999999
 31
0.0
  0
LINE
  5
EB
330
1E
100
AcDbEntity
  8
0
100
AcDbLine
 10
1.399999999999999
 20
43.89999999999999
 30
0.0
 11
4.4
 21
51.29999999999999
 31
0.0
  0
LINE
  5
EC
330
1E
100
AcDbEntity
  8
0
100
AcDbLine
 10
1.1
 20
44.0
 30
0.0
 11
4.2
 21
51.4
 31
0.0
  0
LINE
  5
ED
330
1E
100
AcDbEntity
  8
0
100
AcDbLine
 10
1.399999999999999
 20
28.1
 30
0.0
 11
4.4
 21
20.69999999999999
 31
0.0
  0
LINE
  5
EE
330
1E
100
AcDbEntity
  8
0
100
AcDbLine
 10
21.0
 20
36.0
 30
0.0
 11
21.0
 21
22.14249999999999
 31
0.0
  0
LINE
  5
EF
330
1E
100
AcDbEntity
  8
0
100
AcDbLine
 10
21.0
 20
36.0
 30
0.0
 11
21.0
 21
49.8575
 31
0.0
  0
LINE
  5
F0
330
1E
100
AcDbEntity
  8
0
100
AcDbLine
 10
21.0
 20
49.8575
 30
0.0
 11
21.0
 21
36.0
 31
0.0
  0
LINE
  5
F1
330
1E
100
AcDbEntity
  8
0
100
AcDbLine
 10
21.0
 20
49.8575
 30
0.0
 11
21.36
 21
49.8575
 31
0.0
  0
LINE
  5
F2
330
1E
100
AcDbEntity
  8
0
100
AcDbLine
 10
21.0
 20
49.8575
 30
0.0
 11
21.24
 21
50.0
 31
0.0
  0
LINE
  5
F3
330
1E
100
AcDbEntity
  8
0
100
AcDbLine
 10
22.32
 20
49.8575
 30
0.0
 11
23.92
 21
49.8575
 31
0.0
  0
LINE
  5
F4
330
1E
100
AcDbEntity
  8
0
100
AcDbLine
 10
21.36
 20
49.8575
 30
0.0
 11
22.32
 21
49.8575
 31
0.0
  0
LINE
  5
F5
330
1E
100
AcDbEntity
  8
0
100
AcDbLine
 10
26.04
 20
49.8575
 30
0.0
 11
28.44
 21
49.8575
 31
0.0
  0
LINE
  5
F6
330
1E
100
AcDbEntity
  8
0
100
AcDbLine
 10
23.92
 20
49.8575
 30
0.0
 11
26.04
 21
49.8575
 31
0.0
  0
LINE
  5
F7
330
1E
100
AcDbEntity
  8
0
100
AcDbLine
 10
28.44
 20
49.8575
 30
0.0
 11
31.0
 21
49.8575
 31
0.0
  0
LINE
  5
F8
330
1E
100
AcDbEntity
  8
0
100
AcDbLine
 10
31.0
 20
49.8575
 30
0.0
 11
33.56
 21
49.8575
 31
0.0
  0
LINE
  5
F9
330
1E
100
AcDbEntity
  8
0
100
AcDbLine
 10
28.48
 20
50.0
 30
0.0
 11
31.0
 21
50.0
 31
0.0
  0
LINE
  5
FA
330
1E
100
AcDbEntity
  8
0
100
AcDbLine
 10
26.16
 20
50.0
 30
0.0
 11
28.48
 21
50.0
 31
0.0
  0
LINE
  5
FB
330
1E
100
AcDbEntity
  8
0
100
AcDbLine
 10
24.12
 20
50.0
 30
0.0
 11
26.16
 21
50.0
 31
0.0
  0
LINE
  5
FC
330
1E
100
AcDbEntity
  8
0
100
AcDbLine
 10
22.55999999999999
 20
50.0
 30
0.0
 11
24.12
 21
50.0
 31
0.0
  0
LINE
  5
FD
330
1E
100
AcDbEntity
  8
0
100
AcDbLine
 10
21.6
 20
50.0
 30
0.0
 11
22.55999999999999
 21
50.0
 31
0.0
  0
LINE
  5
FE
330
1E
100
AcDbEntity
  8
0
100
AcDbLine
 10
21.24
 20
50.0
 30
0.0
 11
21.6
 21
50.0
 31
0.0
  0
LINE
  5
FF
330
1E
100
AcDbEntity
  8
0
100
AcDbLine
 10
28.44
 20
50.1425
 30
0.0
 11
31.0
 21
50.1425
 31
0.0
  0
LINE
  5
100
330
1E
100
AcDbEntity
  8
0
100
AcDbLine
 10
26.04
 20
50.1425
 30
0.0
 11
28.44
 21
50.1425
 31
0.0
  0
LINE
  5
101
330
1E
100
AcDbEntity
  8
0
100
AcDbLine
 10
23.92
 20
50.1425
 30
0.0
 11
26.04
 21
50.1425
 31
0.0
  0
LINE
  5
102
330
1E
100
AcDbEntity
  8
0
100
AcDbLine
 10
22.32
 20
50.1425
 30
0.0
 11
23.92
 21
50.1425
 31
0.0
  0
LINE
  5
103
330
1E
100
AcDbEntity
  8
0
100
AcDbLine
 10
21.36
 20
50.1425
 30
0.0
 11
22.32
 21
50.1425
 31
0.0
  0
LINE
  5
104
330
1E
100
AcDbEntity
  8
0
100
AcDbLine
 10
21.0
 20
50.1425
 30
0.0
 11
21.0
 21
70.37609999999999
 31
0.0
  0
LINE
  5
105
330
1E
100
AcDbEntity
  8
0
100
AcDbLine
 10
21.0
 20
50.1425
 30
0.0
 11
21.24
 21
50.0
 31
0.0
  0
LINE
  5
106
330
1E
100
AcDbEntity
  8
0
100
AcDbLine
 10
21.0
 20
50.1425
 30
0.0
 11
21.36
 21
50.1425
 31
0.0
  0
LINE
  5
107
330
1E
100
AcDbEntity
  8
0
100
AcDbLine
 10
31.0
 20
50.0
 30
0.0
 11
33.52
 21
50.0
 31
0.0
  0
LINE
  5
108
330
1E
100
AcDbEntity
  8
0
100
AcDbLine
 10
33.56
 20
49.8575
 30
0.0
 11
35.96
 21
49.8575
 31
0.0
  0
LINE
  5
109
330
1E
100
AcDbEntity
  8
0
100
AcDbLine
 10
35.96
 20
49.8575
 30
0.0
 11
38.07999999999999
 21
49.8575
 31
0.0
  0
LINE
  5
10A
330
1E
100
AcDbEntity
  8
0
100
AcDbLine
 10
33.52
 20
50.0
 30
0.0
 11
35.84
 21
50.0
 31
0.0
  0
LINE
  5
10B
330
1E
100
AcDbEntity
  8
0
100
AcDbLine
 10
35.84
 20
50.0
 30
0.0
 11
37.88
 21
50.0
 31
0.0
  0
LINE
  5
10C
330
1E
100
AcDbEntity
  8
0
100
AcDbLine
 10
31.0
 20
50.1425
 30
0.0
 11
33.56
 21
50.1425
 31
0.0
  0
LINE
  5
10D
330
1E
100
AcDbEntity
  8
0
100
AcDbLine
 10
33.56
 20
50.1425
 30
0.0
 11
35.96
 21
50.1425
 31
0.0
  0
LINE
  5
10E
330
1E
100
AcDbEntity
  8
0
100
AcDbLine
 10
38.07999999999999
 20
49.8575
 30
0.0
 11
39.67999999999999
 21
49.8575
 31
0.0
  0
LINE
  5
10F
330
1E
100
AcDbEntity
  8
0
100
AcDbLine
 10
39.67999999999999
 20
49.8575
 30
0.0
 11
40.64
 21
49.8575
 31
0.0
  0
LINE
  5
110
330
1E
100
AcDbEntity
  8
0
100
AcDbLine
 10
37.88
 20
50.0
 30
0.0
 11
39.43999999999999
 21
50.0
 31
0.0
  0
LINE
  5
111
330
1E
100
AcDbEntity
  8
0
100
AcDbLine
 10
39.43999999999999
 20
50.0
 30
0.0
 11
40.4
 21
50.0
 31
0.0
  0
LINE
  5
112
330
1E
100
AcDbEntity
  8
0
100
AcDbLine
 10
35.96
 20
50.1425
 30
0.0
 11
38.07999999999999
 21
50.1425
 31
0.0
  0
LINE
  5
113
330
1E
100
AcDbEntity
  8
0
100
AcDbLine
 10
38.07999999999999
 20
50.1425
 30
0.0
 11
39.67999999999999
 21
50.1425
 31
0.0
  0
LINE
  5
114
330
1E
100
AcDbEntity
  8
0
100
AcDbLine
 10
40.64
 20
49.8575
 30
0.0
 11
41.0
 21
49.8575
 31
0.0
  0
LINE
  5
115
330
1E
100
AcDbEntity
  8
0
100
AcDbLine
 10
40.4
 20
50.0
 30
0.0
 11
40.75999999999999
 21
50.0
 31
0.0
  0
LINE
  5
116
330
1E
100
AcDbEntity
  8
0
100
AcDbLine
 10
39.67999999999999
 20
50.1425
 30
0.0
 11
40.64
 21
50.1425
 31
0.0
  0
LINE
  5
117
330
1E
100
AcDbEntity
  8
0
100
AcDbLine
 10
40.64
 20
50.1425
 30
0.0
 11
41.0
 21
50.1425
 31
0.0
  0
LINE
  5
118
330
1E
100
AcDbEntity
  8
0
100
AcDbLine
 10
41.0
 20
49.8575
 30
0.0
 11
41.0
 21
36.0
 31
0.0
  0
LINE
  5
119
330
1E
100
AcDbEntity
  8
0
100
AcDbLine
 10
41.0
 20
50.1425
 30
0.0
 11
41.0
 21
70.37609999999999
 31
0.0
  0
LINE
  5
11A
330
1E
100
AcDbEntity
  8
0
100
AcDbLine
 10
40.75999999999999
 20
50.0
 30
0.0
 11
41.0
 21
50.1425
 31
0.0
  0
LINE
  5
11B
330
1E
100
AcDbEntity
  8
0
100
AcDbLine
 10
40.75999999999999
 20
50.0
 30
0.0
 11
41.0
 21
49.8575
 31
0.0
  0
LINE
  5
11C
330
1E
100
AcDbEntity
  8
0
100
AcDbLine
 10
41.0
 20
36.0
 30
0.0
 11
41.0
 21
22.14249999999999
 31
0.0
  0
LINE
  5
11D
330
1E
100
AcDbEntity
  8
0
100
AcDbLine
 10
41.0
 20
36.0
 30
0.0
 11
41.0
 21
49.8575
 31
0.0
  0
LINE
  5
11E
330
1E
100
AcDbEntity
  8
0
100
AcDbLine
 10
4.4
 20
51.29999999999999
 30
0.0
 11
9.4
 21
57.6
 31
0.0
  0
LINE
  5
11F
330
1E
100
AcDbEntity
  8
0
100
AcDbLine
 10
31.0
 20
55.0
 30
0.0
 11
32.792
 21
55.25199999999999
 31
0.0
  0
LINE
  5
120
330
1E
100
AcDbEntity
  8
0
100
AcDbLine
 10
29.236
 20
55.42
 30
0.0
 11
31.0
 21
55.16799999999999
 31
0.0
  0
LINE
  5
121
330
1E
100
AcDbEntity
  8
0
100
AcDbLine
 10
29.208
 20
55.25199999999999
 30
0.0
 11
31.0
 21
55.0
 31
0.0
  0
LINE
  5
122
330
1E
100
AcDbEntity
  8
0
100
AcDbLine
 10
31.0
 20
55.16799999999999
 30
0.0
 11
32.764
 21
55.42
 31
0.0
  0
LINE
  5
123
330
1E
100
AcDbEntity
  8
0
100
AcDbLine
 10
32.792
 20
55.25199999999999
 30
0.0
 11
34.472
 21
55.924
 31
0.0
  0
LINE
  5
124
330
1E
100
AcDbEntity
  8
0
100
AcDbLine
 10
27.612
 20
56.092
 30
0.0
 11
29.236
 21
55.42
 31
0.0
  0
LINE
  5
125
330
1E
100
AcDbEntity
  8
0
100
AcDbLine
 10
27.528
 20
55.924
 30
0.0
 11
29.208
 21
55.25199999999999
 31
0.0
  0
LINE
  5
126
330
1E
100
AcDbEntity
  8
0
100
AcDbLine
 10
32.764
 20
55.42
 30
0.0
 11
34.388
 21
56.092
 31
0.0
  0
LINE
  5
127
330
1E
100
AcDbEntity
  8
0
100
AcDbLine
 10
34.472
 20
55.924
 30
0.0
 11
35.95599999999999
 21
57.04399999999999
 31
0.0
  0
LINE
  5
128
330
1E
100
AcDbEntity
  8
0
100
AcDbLine
 10
26.184
 20
57.18399999999999
 30
0.0
 11
27.612
 21
56.092
 31
0.0
  0
LINE
  5
129
330
1E
100
AcDbEntity
  8
0
100
AcDbLine
 10
26.044
 20
57.04399999999999
 30
0.0
 11
27.528
 21
55.924
 31
0.0
  0
LINE
  5
12A
330
1E
100
AcDbEntity
  8
0
100
AcDbLine
 10
34.388
 20
56.092
 30
0.0
 11
35.816
 21
57.18399999999999
 31
0.0
  0
LINE
  5
12B
330
1E
100
AcDbEntity
  8
0
100
AcDbLine
 10
35.95599999999999
 20
57.04399999999999
 30
0.0
 11
37.076
 21
58.528
 31
0.0
  0
LINE
  5
12C
330
1E
100
AcDbEntity
  8
0
100
AcDbLine
 10
25.09199999999999
 20
58.612
 30
0.0
 11
26.184
 21
57.18399999999999
 31
0.0
  0
LINE
  5
12D
330
1E
100
AcDbEntity
  8
0
100
AcDbLine
 10
24.92399999999999
 20
58.528
 30
0.0
 11
26.044
 21
57.04399999999999
 31
0.0
  0
LINE
  5
12E
330
1E
100
AcDbEntity
  8
0
100
AcDbLine
 10
35.816
 20
57.18399999999999
 30
0.0
 11
36.908
 21
58.612
 31
0.0
  0
LINE
  5
12F
330
1E
100
AcDbEntity
  8
0
100
AcDbLine
 10
37.076
 20
58.528
 30
0.0
 11
37.748
 21
60.208
 31
0.0
  0
LINE
  5
130
330
1E
100
AcDbEntity
  8
0
100
AcDbLine
 10
24.42
 20
60.236
 30
0.0
 11
25.09199999999999
 21
58.612
 31
0.0
  0
LINE
  5
131
330
1E
100
AcDbEntity
  8
0
100
AcDbLine
 10
24.252
 20
60.208
 30
0.0
 11
24.92399999999999
 21
58.528
 31
0.0
  0
LINE
  5
132
330
1E
100
AcDbEntity
  8
0
100
AcDbLine
 10
36.908
 20
58.612
 30
0.0
 11
37.58
 21
60.236
 31
0.0
  0
LINE
  5
133
330
1E
100
AcDbEntity
  8
0
100
AcDbLine
 10
37.748
 20
60.208
 30
0.0
 11
38.0
 21
62.0
 31
0.0
  0
LINE
  5
134
330
1E
100
AcDbEntity
  8
0
100
AcDbLine
 10
24.168
 20
62.0
 30
0.0
 11
24.42
 21
63.764
 31
0.0
  0
LINE
  5
135
330
1E
100
AcDbEntity
  8
0
100
AcDbLine
 10
24.168
 20
62.0
 30
0.0
 11
24.42
 21
60.236
 31
0.0
  0
LINE
  5
136
330
1E
100
AcDbEntity
  8
0
100
AcDbLine
 10
24.0
 20
62.0
 30
0.0
 11
24.252
 21
63.792
 31
0.0
  0
LINE
  5
137
330
1E
100
AcDbEntity
  8
0
100
AcDbLine
 10
24.0
 20
62.0
 30
0.0
 11
24.252
 21
60.208
 31
0.0
  0
LINE
  5
138
330
1E
100
AcDbEntity
  8
0
100
AcDbLine
 10
37.58
 20
60.236
 30
0.0
 11
37.832
 21
62.0
 31
0.0
  0
LINE
  5
139
330
1E
100
AcDbEntity
  8
0
100
AcDbLine
 10
9.4
 20
57.6
 30
0.0
 11
15.7
 21
62.6
 31
0.0
  0
LINE
  5
13A
330
1E
100
AcDbEntity
  8
0
100
AcDbLine
 10
15.7
 20
62.6
 30
0.0
 11
21.0
 21
64.74864864864861
 31
0.0
  0
LINE
  5
13B
330
1E
100
AcDbEntity
  8
0
100
AcDbLine
 10
9.099999999999999
 20
57.9
 30
0.0
 11
15.6
 21
62.8
 31
0.0
  0
LINE
  5
13C
330
1E
100
AcDbEntity
  8
0
100
AcDbLine
 10
21.36
 20
70.37609999999999
 30
0.0
 11
22.32
 21
70.37609999999999
 31
0.0
  0
LINE
  5
13D
330
1E
100
AcDbEntity
  8
0
100
AcDbLine
 10
21.0
 20
70.37609999999999
 30
0.0
 11
21.0
 21
50.1425
 31
0.0
  0
LINE
  5
13E
330
1E
100
AcDbEntity
  8
0
100
AcDbLine
 10
21.0
 20
70.37609999999999
 30
0.0
 11
21.36
 21
70.37609999999999
 31
0.0
  0
LINE
  5
13F
330
1E
100
AcDbEntity
  8
0
100
AcDbLine
 10
21.0
 20
70.37609999999999
 30
0.0
 11
21.24
 21
70.5185
 31
0.0
  0
LINE
  5
140
330
1E
100
AcDbEntity
  8
0
100
AcDbLine
 10
21.24
 20
70.5185
 30
0.0
 11
21.6
 21
70.5185
 31
0.0
  0
LINE
  5
141
330
1E
100
AcDbEntity
  8
0
100
AcDbLine
 10
22.32
 20
70.37609999999999
 30
0.0
 11
23.92
 21
70.37609999999999
 31
0.0
  0
LINE
  5
142
330
1E
100
AcDbEntity
  8
0
100
AcDbLine
 10
23.92
 20
70.37609999999999
 30
0.0
 11
26.04
 21
70.37609999999999
 31
0.0
  0
LINE
  5
143
330
1E
100
AcDbEntity
  8
0
100
AcDbLine
 10
22.55999999999999
 20
70.5185
 30
0.0
 11
24.12
 21
70.5185
 31
0.0
  0
LINE
  5
144
330
1E
100
AcDbEntity
  8
0
100
AcDbLine
 10
21.6
 20
70.5185
 30
0.0
 11
22.55999999999999
 21
70.5185
 31
0.0
  0
LINE
  5
145
330
1E
100
AcDbEntity
  8
0
100
AcDbLine
 10
25.09199999999999
 20
65.38800000000001
 30
0.0
 11
26.184
 21
66.816
 31
0.0
  0
LINE
  5
146
330
1E
100
AcDbEntity
  8
0
100
AcDbLine
 10
24.42
 20
63.764
 30
0.0
 11
25.09199999999999
 21
65.38800000000001
 31
0.0
  0
LINE
  5
147
330
1E
100
AcDbEntity
  8
0
100
AcDbLine
 10
26.044
 20
66.956
 30
0.0
 11
27.528
 21
68.076
 31
0.0
  0
LINE
  5
148
330
1E
100
AcDbEntity
  8
0
100
AcDbLine
 10
24.92399999999999
 20
65.472
 30
0.0
 11
26.044
 21
66.956
 31
0.0
  0
LINE
  5
149
330
1E
100
AcDbEntity
  8
0
100
AcDbLine
 10
24.252
 20
63.792
 30
0.0
 11
24.92399999999999
 21
65.472
 31
0.0
  0
LINE
  5
14A
330
1E
100
AcDbEntity
  8
0
100
AcDbLine
 10
26.04
 20
70.37609999999999
 30
0.0
 11
28.44
 21
70.37609999999999
 31
0.0
  0
LINE
  5
14B
330
1E
100
AcDbEntity
  8
0
100
AcDbLine
 10
26.184
 20
66.816
 30
0.0
 11
27.612
 21
67.908
 31
0.0
  0
LINE
  5
14C
330
1E
100
AcDbEntity
  8
0
100
AcDbLine
 10
27.612
 20
67.908
 30
0.0
 11
29.236
 21
68.58
 31
0.0
  0
LINE
  5
14D
330
1E
100
AcDbEntity
  8
0
100
AcDbLine
 10
27.528
 20
68.076
 30
0.0
 11
29.208
 21
68.748
 31
0.0
  0
LINE
  5
14E
330
1E
100
AcDbEntity
  8
0
100
AcDbLine
 10
28.44
 20
70.37609999999999
 30
0.0
 11
31.0
 21
70.37609999999999
 31
0.0
  0
LINE
  5
14F
330
1E
100
AcDbEntity
  8
0
100
AcDbLine
 10
26.16
 20
70.5185
 30
0.0
 11
28.48
 21
70.5185
 31
0.0
  0
LINE
  5
150
330
1E
100
AcDbEntity
  8
0
100
AcDbLine
 10
24.12
 20
70.5185
 30
0.0
 11
26.16
 21
70.5185
 31
0.0
  0
LINE
  5
151
330
1E
100
AcDbEntity
  8
0
100
AcDbLine
 10
29.236
 20
68.58
 30
0.0
 11
31.0
 21
68.83199999999999
 31
0.0
  0
LINE
  5
152
330
1E
100
AcDbEntity
  8
0
100
AcDbLine
 10
29.208
 20
68.748
 30
0.0
 11
31.0
 21
69.0
 31
0.0
  0
LINE
  5
153
330
1E
100
AcDbEntity
  8
0
100
AcDbLine
 10
31.0
 20
68.83199999999999
 30
0.0
 11
32.764
 21
68.58
 31
0.0
  0
LINE
  5
154
330
1E
100
AcDbEntity
  8
0
100
AcDbLine
 10
31.0
 20
69.0
 30
0.0
 11
32.792
 21
68.748
 31
0.0
  0
LINE
  5
155
330
1E
100
AcDbEntity
  8
0
100
AcDbLine
 10
31.0
 20
70.37609999999999
 30
0.0
 11
33.56
 21
70.37609999999999
 31
0.0
  0
LINE
  5
156
330
1E
100
AcDbEntity
  8
0
100
AcDbLine
 10
28.48
 20
70.5185
 30
0.0
 11
31.0
 21
70.5185
 31
0.0
  0
LINE
  5
157
330
1E
100
AcDbEntity
  8
0
100
AcDbLine
 10
28.44
 20
70.75749999999999
 30
0.0
 11
31.0
 21
70.75749999999999
 31
0.0
  0
LINE
  5
158
330
1E
100
AcDbEntity
  8
0
100
AcDbLine
 10
26.04
 20
70.75749999999999
 30
0.0
 11
28.44
 21
70.75749999999999
 31
0.0
  0
LINE
  5
159
330
1E
100
AcDbEntity
  8
0
100
AcDbLine
 10
23.92
 20
70.75749999999999
 30
0.0
 11
26.04
 21
70.75749999999999
 31
0.0
  0
LINE
  5
15A
330
1E
100
AcDbEntity
  8
0
100
AcDbLine
 10
22.32
 20
70.75749999999999
 30
0.0
 11
23.92
 21
70.75749999999999
 31
0.0
  0
LINE
  5
15B
330
1E
100
AcDbEntity
  8
0
100
AcDbLine
 10
21.36
 20
70.75749999999999
 30
0.0
 11
22.32
 21
70.75749999999999
 31
0.0
  0
LINE
  5
15C
330
1E
100
AcDbEntity
  8
0
100
AcDbLine
 10
21.0
 20
70.75749999999999
 30
0.0
 11
21.0
 21
71.76100000000001
 31
0.0
  0
LINE
  5
15D
330
1E
100
AcDbEntity
  8
0
100
AcDbLine
 10
21.0
 20
70.75749999999999
 30
0.0
 11
21.24
 21
70.5185
 31
0.0
  0
LINE
  5
15E
330
1E
100
AcDbEntity
  8
0
100
AcDbLine
 10
21.0
 20
70.75749999999999
 30
0.0
 11
21.36
 21
70.75749999999999
 31
0.0
  0
LINE
  5
15F
330
1E
100
AcDbEntity
  8
0
100
AcDbLine
 10
31.0
 20
70.5185
 30
0.0
 11
33.52
 21
70.5185
 31
0.0
  0
LINE
  5
160
330
1E
100
AcDbEntity
  8
0
100
AcDbLine
 10
28.44
 20
71.76100000000001
 30
0.0
 11
31.0
 21
71.76100000000001
 31
0.0
  0
LINE
  5
161
330
1E
100
AcDbEntity
  8
0
100
AcDbLine
 10
26.04
 20
71.76100000000001
 30
0.0
 11
28.44
 21
71.76100000000001
 31
0.0
  0
LINE
  5
162
330
1E
100
AcDbEntity
  8
0
100
AcDbLine
 10
23.92
 20
71.76100000000001
 30
0.0
 11
26.04
 21
71.76100000000001
 31
0.0
  0
LINE
  5
163
330
1E
100
AcDbEntity
  8
0
100
AcDbLine
 10
22.32
 20
71.76100000000001
 30
0.0
 11
23.92
 21
71.76100000000001
 31
0.0
  0
LINE
  5
164
330
1E
100
AcDbEntity
  8
0
100
AcDbLine
 10
21.36
 20
71.76100000000001
 30
0.0
 11
22.32
 21
71.76100000000001
 31
0.0
  0
LINE
  5
165
330
1E
100
AcDbEntity
  8
0
100
AcDbLine
 10
21.0
 20
71.76100000000001
 30
0.0
 11
21.0
 21
70.75749999999999
 31
0.0
  0
LINE
  5
166
330
1E
100
AcDbEntity
  8
0
100
AcDbLine
 10
21.0
 20
71.76100000000001
 30
0.0
 11
21.36
 21
71.76100000000001
 31
0.0
  0
LINE
  5
167
330
1E
100
AcDbEntity
  8
0
100
AcDbLine
 10
21.0
 20
71.76100000000001
 30
0.0
 11
21.24
 21
72.0
 31
0.0
  0
LINE
  5
168
330
1E
100
AcDbEntity
  8
0
100
AcDbLine
 10
31.0
 20
70.75749999999999
 30
0.0
 11
33.56
 21
70.75749999999999
 31
0.0
  0
LINE
  5
169
330
1E
100
AcDbEntity
  8
0
100
AcDbLine
 10
32.792
 20
68.748
 30
0.0
 11
34.472
 21
68.076
 31
0.0
  0
LINE
  5
16A
330
1E
100
AcDbEntity
  8
0
100
AcDbLine
 10
32.764
 20
68.58
 30
0.0
 11
34.388
 21
67.908
 31
0.0
  0
LINE
  5
16B
330
1E
100
AcDbEntity
  8
0
100
AcDbLine
 10
33.56
 20
70.37609999999999
 30
0.0
 11
35.96
 21
70.37609999999999
 31
0.0
  0
LINE
  5
16C
330
1E
100
AcDbEntity
  8
0
100
AcDbLine
 10
33.52
 20
70.5185
 30
0.0
 11
35.84
 21
70.5185
 31
0.0
  0
LINE
  5
16D
330
1E
100
AcDbEntity
  8
0
100
AcDbLine
 10
34.472
 20
68.076
 30
0.0
 11
35.95599999999999
 21
66.956
 31
0.0
  0
LINE
  5
16E
330
1E
100
AcDbEntity
  8
0
100
AcDbLine
 10
34.388
 20
67.908
 30
0.0
 11
35.816
 21
66.816
 31
0.0
  0
LINE
  5
16F
330
1E
100
AcDbEntity
  8
0
100
AcDbLine
 10
35.95599999999999
 20
66.956
 30
0.0
 11
37.076
 21
65.472
 31
0.0
  0
LINE
  5
170
330
1E
100
AcDbEntity
  8
0
100
AcDbLine
 10
35.816
 20
66.816
 30
0.0
 11
36.908
 21
65.38800000000001
 31
0.0
  0
LINE
  5
171
330
1E
100
AcDbEntity
  8
0
100
AcDbLine
 10
35.96
 20
70.37609999999999
 30
0.0
 11
38.07999999999999
 21
70.37609999999999
 31
0.0
  0
LINE
  5
172
330
1E
100
AcDbEntity
  8
0
100
AcDbLine
 10
35.84
 20
70.5185
 30
0.0
 11
37.88
 21
70.5185
 31
0.0
  0
LINE
  5
173
330
1E
100
AcDbEntity
  8
0
100
AcDbLine
 10
33.56
 20
70.75749999999999
 30
0.0
 11
35.96
 21
70.75749999999999
 31
0.0
  0
LINE
  5
174
330
1E
100
AcDbEntity
  8
0
100
AcDbLine
 10
35.96
 20
70.75749999999999
 30
0.0
 11
38.07999999999999
 21
70.75749999999999
 31
0.0
  0
LINE
  5
175
330
1E
100
AcDbEntity
  8
0
100
AcDbLine
 10
31.0
 20
71.76100000000001
 30
0.0
 11
33.56
 21
71.76100000000001
 31
0.0
  0
LINE
  5
176
330
1E
100
AcDbEntity
  8
0
100
AcDbLine
 10
33.56
 20
71.76100000000001
 30
0.0
 11
35.96
 21
71.76100000000001
 31
0.0
  0
LINE
  5
177
330
1E
100
AcDbEntity
  8
0
100
AcDbLine
 10
37.076
 20
65.472
 30
0.0
 11
37.748
 21
63.792
 31
0.0
  0
LINE
  5
178
330
1E
100
AcDbEntity
  8
0
100
AcDbLine
 10
36.908
 20
65.38800000000001
 30
0.0
 11
37.58
 21
63.764
 31
0.0
  0
LINE
  5
179
330
1E
100
AcDbEntity
  8
0
100
AcDbLine
 10
37.748
 20
63.792
 30
0.0
 11
38.0
 21
62.0
 31
0.0
  0
LINE
  5
17A
330
1E
100
AcDbEntity
  8
0
100
AcDbLine
 10
37.58
 20
63.764
 30
0.0
 11
37.832
 21
62.0
 31
0.0
  0
LINE
  5
17B
330
1E
100
AcDbEntity
  8
0
100
AcDbLine
 10
38.07999999999999
 20
70.37609999999999
 30
0.0
 11
39.67999999999999
 21
70.37609999999999
 31
0.0
  0
LINE
  5
17C
330
1E
100
AcDbEntity
  8
0
100
AcDbLine
 10
37.88
 20
70.5185
 30
0.0
 11
39.43999999999999
 21
70.5185
 31
0.0
  0
LINE
  5
17D
330
1E
100
AcDbEntity
  8
0
100
AcDbLine
 10
39.67999999999999
 20
70.37609999999999
 30
0.0
 11
40.64
 21
70.37609999999999
 31
0.0
  0
LINE
  5
17E
330
1E
100
AcDbEntity
  8
0
100
AcDbLine
 10
39.43999999999999
 20
70.5185
 30
0.0
 11
40.4
 21
70.5185
 31
0.0
  0
LINE
  5
17F
330
1E
100
AcDbEntity
  8
0
100
AcDbLine
 10
38.07999999999999
 20
70.75749999999999
 30
0.0
 11
39.67999999999999
 21
70.75749999999999
 31
0.0
  0
LINE
  5
180
330
1E
100
AcDbEntity
  8
0
100
AcDbLine
 10
39.67999999999999
 20
70.75749999999999
 30
0.0
 11
40.64
 21
70.75749999999999
 31
0.0
  0
LINE
  5
181
330
1E
100
AcDbEntity
  8
0
100
AcDbLine
 10
35.96
 20
71.76100000000001
 30
0.0
 11
38.07999999999999
 21
71.76100000000001
 31
0.0
  0
LINE
  5
182
330
1E
100
AcDbEntity
  8
0
100
AcDbLine
 10
38.07999999999999
 20
71.76100000000001
 30
0.0
 11
39.67999999999999
 21
71.76100000000001
 31
0.0
  0
LINE
  5
183
330
1E
100
AcDbEntity
  8
0
100
AcDbLine
 10
40.64
 20
70.37609999999999
 30
0.0
 11
41.0
 21
70.37609999999999
 31
0.0
  0
LINE
  5
184
330
1E
100
AcDbEntity
  8
0
100
AcDbLine
 10
40.4
 20
70.5185
 30
0.0
 11
40.75999999999999
 21
70.5185
 31
0.0
  0
LINE
  5
185
330
1E
100
AcDbEntity
  8
0
100
AcDbLine
 10
40.64
 20
70.75749999999999
 30
0.0
 11
41.0
 21
70.75749999999999
 31
0.0
  0
LINE
  5
186
330
1E
100
AcDbEntity
  8
0
100
AcDbLine
 10
40.75999999999999
 20
70.5185
 30
0.0
 11
41.0
 21
70.75749999999999
 31
0.0
  0
LINE
  5
187
330
1E
100
AcDbEntity
  8
0
100
AcDbLine
 10
40.75999999999999
 20
70.5185
 30
0.0
 11
41.0
 21
70.37609999999999
 31
0.0
  0
LINE
  5
188
330
1E
100
AcDbEntity
  8
0
100
AcDbLine
 10
39.67999999999999
 20
71.76100000000001
 30
0.0
 11
40.64
 21
71.76100000000001
 31
0.0
  0
LINE
  5
189
330
1E
100
AcDbEntity
  8
0
100
AcDbLine
 10
28.48
 20
72.0
 30
0.0
 11
31.0
 21
72.0
 31
0.0
  0
LINE
  5
18A
330
1E
100
AcDbEntity
  8
0
100
AcDbLine
 10
26.16
 20
72.0
 30
0.0
 11
28.48
 21
72.0
 31
0.0
  0
LINE
  5
18B
330
1E
100
AcDbEntity
  8
0
100
AcDbLine
 10
24.12
 20
72.0
 30
0.0
 11
26.16
 21
72.0
 31
0.0
  0
LINE
  5
18C
330
1E
100
AcDbEntity
  8
0
100
AcDbLine
 10
22.55999999999999
 20
72.0
 30
0.0
 11
24.12
 21
72.0
 31
0.0
  0
LINE
  5
18D
330
1E
100
AcDbEntity
  8
0
100
AcDbLine
 10
21.6
 20
72.0
 30
0.0
 11
22.55999999999999
 21
72.0
 31
0.0
  0
LINE
  5
18E
330
1E
100
AcDbEntity
  8
0
100
AcDbLine
 10
21.24
 20
72.0
 30
0.0
 11
21.6
 21
72.0
 31
0.0
  0
LINE
  5
18F
330
1E
100
AcDbEntity
  8
0
100
AcDbLine
 10
31.0
 20
72.0
 30
0.0
 11
33.52
 21
72.0
 31
0.0
  0
LINE
  5
190
330
1E
100
AcDbEntity
  8
0
100
AcDbLine
 10
33.52
 20
72.0
 30
0.0
 11
35.84
 21
72.0
 31
0.0
  0
LINE
  5
191
330
1E
100
AcDbEntity
  8
0
100
AcDbLine
 10
35.84
 20
72.0
 30
0.0
 11
37.88
 21
72.0
 31
0.0
  0
LINE
  5
192
330
1E
100
AcDbEntity
  8
0
100
AcDbLine
 10
37.88
 20
72.0
 30
0.0
 11
39.43999999999999
 21
72.0
 31
0.0
  0
LINE
  5
193
330
1E
100
AcDbEntity
  8
0
100
AcDbLine
 10
39.43999999999999
 20
72.0
 30
0.0
 11
40.4
 21
72.0
 31
0.0
  0
LINE
  5
194
330
1E
100
AcDbEntity
  8
0
100
AcDbLine
 10
40.4
 20
72.0
 30
0.0
 11
40.75999999999999
 21
72.0
 31
0.0
  0
LINE
  5
195
330
1E
100
AcDbEntity
  8
0
100
AcDbLine
 10
40.64
 20
71.76100000000001
 30
0.0
 11
41.0
 21
71.76100000000001
 31
0.0
  0
LINE
  5
196
330
1E
100
AcDbEntity
  8
0
100
AcDbLine
 10
41.0
 20
70.37609999999999
 30
0.0
 11
41.0
 21
50.1425
 31
0.0
  0
LINE
  5
197
330
1E
100
AcDbEntity
  8
0
100
AcDbLine
 10
41.0
 20
70.75749999999999
 30
0.0
 11
41.0
 21
71.76100000000001
 31
0.0
  0
LINE
  5
198
330
1E
100
AcDbEntity
  8
0
100
AcDbLine
 10
41.0
 20
71.76100000000001
 30
0.0
 11
41.0
 21
70.75749999999999
 31
0.0
  0
LINE
  5
199
330
1E
100
AcDbEntity
  8
0
100
AcDbLine
 10
40.75999999999999
 20
72.0
 30
0.0
 11
41.0
 21
71.76100000000001
 31
0.0
  0
LINE
  5
19A
330
1E
100
AcDbEntity
  8
0
100
AcDbLine
 10
15.6
 20
62.8
 30
0.0
 11
21.0
 21
65.0621621621622
 31
0.0
  0
LINE
  5
19B
330
1E
100
AcDbEntity
  8
0
100
AcDbLine
 10
41.0
 20
64.74864864864861
 30
0.0
 11
46.29999999999999
 21
62.6
 31
0.0
  0
LINE
  5
19C
330
1E
100
AcDbEntity
  8
0
100
AcDbLine
 10
4.2
 20
51.4
 30
0.0
 11
9.099999999999999
 21
57.9
 31
0.0
  0
LINE
  5
19D
330
1E
100
AcDbEntity
  8
0
100
AcDbLine
 10
1.399999999999999
 20
28.1
 30
0.0
 11
4.4
 21
20.69999999999999
 31
0.0
  0
LINE
  5
19E
330
1E
100
AcDbEntity
  8
0
100
AcDbLine
 10
1.1
 20
28.0
 30
0.0
 11
4.2
 21
20.6
 31
0.0
  0
LINE
  5
19F
330
1E
100
AcDbEntity
  8
0
100
AcDbLine
 10
1.1
 20
28.0
 30
0.0
 11
4.2
 21
20.6
 31
0.0
  0
LINE
  5
1A0
330
1E
100
AcDbEntity
  8
0
100
AcDbLine
 10
4.2
 20
20.6
 30
0.0
 11
9.099999999999999
 21
14.1
 31
0.0
  0
LINE
  5
1A1
330
1E
100
AcDbEntity
  8
0
100
AcDbLine
 10
0.0000000000000009
 20
36.0
 30
0.0
 11
1.1
 21
28.0
 31
0.0
  0
LINE
  5
1A2
330
1E
100
AcDbEntity
  8
0
100
AcDbLine
 10
0.0000000000000009
 20
36.0
 30
0.0
 11
1.1
 21
44.0
 31
0.0
  0
LINE
  5
1A3
330
1E
100
AcDbEntity
  8
0
100
AcDbLine
 10
41.0
 20
7.251351351351349
 30
0.0
 11
46.29999999999999
 21
9.4
 31
0.0
  0
LINE
  5
1A4
330
1E
100
AcDbEntity
  8
0
100
AcDbLine
 10
52.6
 20
14.4
 30
0.0
 11
57.6
 21
20.69999999999999
 31
0.0
  0
LINE
  5
1A5
330
1E
100
AcDbEntity
  8
0
100
AcDbLine
 10
52.6
 20
57.6
 30
0.0
 11
57.6
 21
51.29999999999999
 31
0.0
  0
LINE
  5
1A6
330
1E
100
AcDbEntity
  8
0
100
AcDbLine
 10
57.6
 20
51.29999999999999
 30
0.0
 11
60.6
 21
43.89999999999999
 31
0.0
  0
LINE
  5
1A7
330
1E
100
AcDbEntity
  8
0
100
AcDbLine
 10
46.29999999999999
 20
62.6
 30
0.0
 11
52.6
 21
57.6
 31
0.0
  0
LINE
  5
1A8
330
1E
100
AcDbEntity
  8
0
100
AcDbLine
 10
46.39999999999999
 20
62.8
 30
0.0
 11
52.9
 21
57.9
 31
0.0
  0
LINE
  5
1A9
330
1E
100
AcDbEntity
  8
0
100
AcDbLine
 10
52.9
 20
57.9
 30
0.0
 11
57.8
 21
51.4
 31
0.0
  0
LINE
  5
1AA
330
1E
100
AcDbEntity
  8
0
100
AcDbLine
 10
60.6
 20
43.89999999999999
 30
0.0
 11
61.7
 21
36.0
 31
0.0
  0
LINE
  5
1AB
330
1E
100
AcDbEntity
  8
0
100
AcDbLine
 10
57.8
 20
51.4
 30
0.0
 11
60.89999999999999
 21
44.0
 31
0.0
  0
LINE
  5
1AC
330
1E
100
AcDbEntity
  8
0
100
AcDbLine
 10
57.6
 20
20.69999999999999
 30
0.0
 11
60.6
 21
28.1
 31
0.0
  0
LINE
  5
1AD
330
1E
100
AcDbEntity
  8
0
100
AcDbLine
 10
60.89999999999999
 20
44.0
 30
0.0
 11
62.0
 21
36.0
 31
0.0
  0
LINE
  5
1AE
330
1E
100
AcDbEntity
  8
0
100
AcDbLine
 10
60.6
 20
28.1
 30
0.0
 11
61.7
 21
36.0
 31
0.0
  0
LINE
  5
1AF
330
1E
100
AcDbEntity
  8
0
100
AcDbLine
 10
57.8
 20
20.6
 30
0.0
 11
60.89999999999999
 21
28.0
 31
0.0
  0
LINE
  5
1B0
330
1E
100
AcDbEntity
  8
0
100
AcDbLine
 10
60.89999999999999
 20
28.0
 30
0.0
 11
62.0
 21
36.0
 31
0.0
  0
LINE
  5
1B1
330
1E
100
AcDbEntity
  8
0
100
AcDbLine
 10
46.29999999999999
 20
9.4
 30
0.0
 11
52.6
 21
14.4
 31
0.0
  0
LINE
  5
1B2
330
1E
100
AcDbEntity
  8
0
100
AcDbLine
 10
41.0
 20
6.93783783783784
 30
0.0
 11
46.39999999999999
 21
9.199999999999999
 31
0.0
  0
LINE
  5
1B7
330
1E
100
AcDbEntity
  8
0
100
AcDbLine
 10
46.39999999999999
 20
9.199999999999999
 30
0.0
 11
52.70680195402633
 21
14.26540051166696
 31
0.0
  0
LINE
  5
1B8
330
1E
100
AcDbEntity
  8
0
100
AcDbLine
 10
52.70680195402633
 20
14.26540051166696
 30
0.0
 11
57.8
 21
20.6
 31
0.0
  0
ENDSEC
  0
SECTION
  2
OBJECTS
  0
DICTIONARY
  5
C
330
0
100
AcDbDictionary
281
     1
  3
ACAD_GROUP
350
D
  3
ACAD_LAYOUT
350
19
  3
ACAD_MLINESTYLE
350
16
  3
ACAD_PLOTSETTINGS
350
18
  3
ACAD_PLOTSTYLENAME
350
E
  3
AcDbVariableDictionary
350
1B9
  0
DICTIONARY
  5
D
102
{ACAD_REACTORS
330
C
102
}
330
C
100
AcDbDictionary
281
     1
  0
DICTIONARY
  5
19
102
{ACAD_REACTORS
330
C
102
}
330
C
100
AcDbDictionary
281
     1
  3
Layout1
350
1D
  3
Model
350
21
  0
DICTIONARY
  5
16
102
{ACAD_REACTORS
330
C
102
}
330
C
100
AcDbDictionary
281
     1
  3
Standard
350
17
  0
DICTIONARY
  5
18
102
{ACAD_REACTORS
330
C
102
}
330
C
100
AcDbDictionary
281
     1
  0
ACDBDICTIONARYWDFLT
  5
E
102
{ACAD_REACTORS
330
C
102
}
330
C
100
AcDbDictionary
281
     1
  3
Normal
350
F
100
AcDbDictionaryWithDefault
340
F
  0
DICTIONARY
  5
1B9
102
{ACAD_REACTORS
330
C
102
}
330
C
100
AcDbDictionary
281
     1
  3
DIMASSOC
350
1BA
  0
LAYOUT
  5
1D
102
{ACAD_REACTORS
330
19
102
}
330
19
100
AcDbPlotSettings
  1

  2
hp deskjet 980c series
  4

  6

 40
0.0
 41
0.0
 42
0.0
 43
0.0
 44
0.0
 45
0.0
 46
0.0
 47
0.0
 48
0.0
 49
0.0
140
0.0
141
0.0
142
1.0
143
1.0
 70
   688
 72
     0
 73
     0
 74
     5
  7

 75
    16
147
1.0
148
0.0
149
0.0
100
AcDbLayout
  1
Layout1
 70
     1
 71
     1
 10
0.0
 20
0.0
 11
12.0
 21
9.0
 12
0.0
 22
0.0
 32
0.0
 14
1.000000000000000E+20
 24
1.000000000000000E+20
 34
1.000000000000000E+20
 15
-1.000000000000000E+20
 25
-1.000000000000000E+20
 35
-1.000000000000000E+20
146
0.0
 13
0.0
 23
0.0
 33
0.0
 16
1.0
 26
0.0
 36
0.0
 17
0.0
 27
1.0
 37
0.0
 76
     0
330
1A
  0
LAYOUT
  5
21
102
{ACAD_REACTORS
330
19
102
}
330
19
100
AcDbPlotSettings
  1

  2
hp deskjet 980c series
  4

  6

 40
0.0
 41
0.0
 42
0.0
 43
0.0
 44
0.0
 45
0.0
 46
0.0
 47
0.0
 48
0.0
 49
0.0
140
0.0
141
0.0
142
1.0
143
1.0
 70
  1712
 72
     0
 73
     0
 74
     0
  7

 75
     0
147
1.0
148
0.0
149
0.0
100
AcDbLayout
  1
Model
 70
     1
 71
     0
 10
0.0
 20
0.0
 11
12.0
 21
9.0
 12
0.0
 22
0.0
 32
0.0
 14
0.0
 24
0.0
 34
0.0
 15
0.0
 25
0.0
 35
0.0
146
0.0
 13
0.0
 23
0.0
 33
0.0
 16
1.0
 26
0.0
 36
0.0
 17
0.0
 27
1.0
 37
0.0
 76
     0
330
1E
  0
MLINESTYLE
  5
17
102
{ACAD_REACTORS
330
16
102
}
330
16
100
AcDbMlineStyle
  2
STANDARD
 70
     0
  3

 62
   256
 51
90.0
 52
90.0
 71
     2
 49
0.5
 62
   256
  6
BYLAYER
 49
-0.5
 62
   256
  6
BYLAYER
  0
ACDBPLACEHOLDER
  5
F
102
{ACAD_REACTORS
330
E
102
}
330
E
  0
DICTIONARYVAR
  5
1BA
102
{ACAD_REACTORS
330
1B9
102
}
330
1B9
100
DictionaryVariables
280
     0
  1
1
  0
ENDSEC
  0
EOF
