  0
SECTION
  2
HEADER
  9
$ACADVER
  1
AC1015
  9
$ACADMAINTVER
 70
    13
  9
$DWGCODEPAGE
  3
ANSI_1252
  9
$INSBASE
 10
0.0
 20
0.0
 30
0.0
  9
$EXTMIN
 10
-0.0000000000000072
 20
-0.0000000000000039
 30
0.0
  9
$EXTMAX
 10
260.0
 20
60.0
 30
0.0
  9
$LIMMIN
 10
0.0
 20
0.0
  9
$LIMMAX
 10
12.0
 20
9.0
  9
$ORTHOMODE
 70
     0
  9
$REGENMODE
 70
     1
  9
$FILLMODE
 70
     1
  9
$QTEXTMODE
 70
     0
  9
$MIRRTEXT
 70
     1
  9
$LTSCALE
 40
1.0
  9
$ATTMODE
 70
     1
  9
$TEXTSIZE
 40
0.2
  9
$TRACEWID
 40
0.05
  9
$TEXTSTYLE
  7
Standard
  9
$CLAYER
  8
0
  9
$CELTYPE
  6
Continuous
  9
$CECOLOR
 62
   256
  9
$CELTSCALE
 40
1.0
  9
$DISPSILH
 70
     0
  9
$DIMSCALE
 40
1.0
  9
$DIMASZ
 40
0.18
  9
$DIMEXO
 40
0.0625
  9
$DIMDLI
 40
0.38
  9
$DIMRND
 40
0.0
  9
$DIMDLE
 40
0.0
  9
$DIMEXE
 40
0.18
  9
$DIMTP
 40
0.0
  9
$DIMTM
 40
0.0
  9
$DIMTXT
 40
0.18
  9
$DIMCEN
 40
0.09
  9
$DIMTSZ
 40
0.0
  9
$DIMTOL
 70
     0
  9
$DIMLIM
 70
     0
  9
$DIMTIH
 70
     1
  9
$DIMTOH
 70
     1
  9
$DIMSE1
 70
     0
  9
$DIMSE2
 70
     0
  9
$DIMTAD
 70
     0
  9
$DIMZIN
 70
     0
  9
$DIMBLK
  1

  9
$DIMASO
 70
     1
  9
$DIMSHO
 70
     1
  9
$DIMPOST
  1

  9
$DIMAPOST
  1

  9
$DIMALT
 70
     0
  9
$DIMALTD
 70
     2
  9
$DIMALTF
 40
25.4
  9
$DIMLFAC
 40
1.0
  9
$DIMTOFL
 70
     0
  9
$DIMTVP
 40
0.0
  9
$DIMTIX
 70
     0
  9
$DIMSOXD
 70
     0
  9
$DIMSAH
 70
     0
  9
$DIMBLK1
  1

  9
$DIMBLK2
  1

  9
$DIMSTYLE
  2
Standard
  9
$DIMCLRD
 70
     0
  9
$DIMCLRE
 70
     0
  9
$DIMCLRT
 70
     0
  9
$DIMTFAC
 40
1.0
  9
$DIMGAP
 40
0.09
  9
$DIMJUST
 70
     0
  9
$DIMSD1
 70
     0
  9
$DIMSD2
 70
     0
  9
$DIMTOLJ
 70
     1
  9
$DIMTZIN
 70
     0
  9
$DIMALTZ
 70
     0
  9
$DIMALTTZ
 70
     0
  9
$DIMUPT
 70
     0
  9
$DIMDEC
 70
     4
  9
$DIMTDEC
 70
     4
  9
$DIMALTU
 70
     2
  9
$DIMALTTD
 70
     2
  9
$DIMTXSTY
  7
Standard
  9
$DIMAUNIT
 70
     0
  9
$DIMADEC
 70
     0
  9
$DIMALTRND
 40
0.0
  9
$DIMAZIN
 70
     0
  9
$DIMDSEP
 70
    46
  9
$DIMATFIT
 70
     3
  9
$DIMFRAC
 70
     0
  9
$DIMLDRBLK
  1

  9
$DIMLUNIT
 70
     2
  9
$DIMLWD
 70
    -2
  9
$DIMLWE
 70
    -2
  9
$DIMTMOVE
 70
     0
  9
$LUNITS
 70
     2
  9
$LUPREC
 70
     4
  9
$SKETCHINC
 40
0.1
  9
$FILLETRAD
 40
0.0
  9
$AUNITS
 70
     0
  9
$AUPREC
 70
     0
  9
$MENU
  1
.
  9
$ELEVATION
 40
0.0
  9
$PELEVATION
 40
0.0
  9
$THICKNESS
 40
0.0
  9
$LIMCHECK
 70
     0
  9
$CHAMFERA
 40
0.0
  9
$CHAMFERB
 40
0.0
  9
$CHAMFERC
 40
0.0
  9
$CHAMFERD
 40
0.0
  9
$SKPOLY
 70
     0
  9
$TDCREATE
 40
2454738.473873506
  9
$TDUCREATE
 40
2454738.390540173
  9
$TDUPDATE
 40
2454738.474460891
  9
$TDUUPDATE
 40
2454738.391127558
  9
$TDINDWG
 40
0.0005873843
  9
$TDUSRTIMER
 40
0.0005873843
  9
$USRTIMER
 70
     1
  9
$ANGBASE
 50
0.0
  9
$ANGDIR
 70
     0
  9
$PDMODE
 70
     0
  9
$PDSIZE
 40
0.0
  9
$PLINEWID
 40
0.0
  9
$SPLFRAME
 70
     0
  9
$SPLINETYPE
 70
     6
  9
$SPLINESEGS
 70
     8
  9
$HANDSEED
  5
E2
  9
$SURFTAB1
 70
     6
  9
$SURFTAB2
 70
     6
  9
$SURFTYPE
 70
     6
  9
$SURFU
 70
     6
  9
$SURFV
 70
     6
  9
$UCSBASE
  2

  9
$UCSNAME
  2

  9
$UCSORG
 10
0.0
 20
0.0
 30
0.0
  9
$UCSXDIR
 10
1.0
 20
0.0
 30
0.0
  9
$UCSYDIR
 10
0.0
 20
1.0
 30
0.0
  9
$UCSORTHOREF
  2

  9
$UCSORTHOVIEW
 70
     1
  9
$UCSORGTOP
 10
0.0
 20
0.0
 30
0.0
  9
$UCSORGBOTTOM
 10
0.0
 20
0.0
 30
0.0
  9
$UCSORGLEFT
 10
0.0
 20
0.0
 30
0.0
  9
$UCSORGRIGHT
 10
0.0
 20
0.0
 30
0.0
  9
$UCSORGFRONT
 10
0.0
 20
0.0
 30
0.0
  9
$UCSORGBACK
 10
0.0
 20
0.0
 30
0.0
  9
$PUCSBASE
  2

  9
$PUCSNAME
  2

  9
$PUCSORG
 10
0.0
 20
0.0
 30
0.0
  9
$PUCSXDIR
 10
1.0
 20
0.0
 30
0.0
  9
$PUCSYDIR
 10
0.0
 20
1.0
 30
0.0
  9
$PUCSORTHOREF
  2

  9
$PUCSORTHOVIEW
 70
     0
  9
$PUCSORGTOP
 10
0.0
 20
0.0
 30
0.0
  9
$PUCSORGBOTTOM
 10
0.0
 20
0.0
 30
0.0
  9
$PUCSORGLEFT
 10
0.0
 20
0.0
 30
0.0
  9
$PUCSORGRIGHT
 10
0.0
 20
0.0
 30
0.0
  9
$PUCSORGFRONT
 10
0.0
 20
0.0
 30
0.0
  9
$PUCSORGBACK
 10
0.0
 20
0.0
 30
0.0
  9
$USERI1
 70
     0
  9
$USERI2
 70
     0
  9
$USERI3
 70
     0
  9
$USERI4
 70
     0
  9
$USERI5
 70
     0
  9
$USERR1
 40
0.0
  9
$USERR2
 40
0.0
  9
$USERR3
 40
0.0
  9
$USERR4
 40
0.0
  9
$USERR5
 40
0.0
  9
$WORLDVIEW
 70
     1
  9
$SHADEDGE
 70
     3
  9
$SHADEDIF
 70
    70
  9
$TILEMODE
 70
     1
  9
$MAXACTVP
 70
    64
  9
$PINSBASE
 10
0.0
 20
0.0
 30
0.0
  9
$PLIMCHECK
 70
     0
  9
$PEXTMIN
 10
1.000000000000000E+20
 20
1.000000000000000E+20
 30
1.000000000000000E+20
  9
$PEXTMAX
 10
-1.000000000000000E+20
 20
-1.000000000000000E+20
 30
-1.000000000000000E+20
  9
$PLIMMIN
 10
0.0
 20
0.0
  9
$PLIMMAX
 10
12.0
 20
9.0
  9
$UNITMODE
 70
     0
  9
$VISRETAIN
 70
     1
  9
$PLINEGEN
 70
     0
  9
$PSLTSCALE
 70
     1
  9
$TREEDEPTH
 70
  3020
  9
$CMLSTYLE
  2
Standard
  9
$CMLJUST
 70
     0
  9
$CMLSCALE
 40
1.0
  9
$PROXYGRAPHICS
 70
     1
  9
$MEASUREMENT
 70
     0
  9
$CELWEIGHT
370
    -1
  9
$ENDCAPS
280
     0
  9
$JOINSTYLE
280
     0
  9
$LWDISPLAY
290
     0
  9
$INSUNITS
 70
     0
  9
$HYPERLINKBASE
  1

  9
$STYLESHEET
  1

  9
$XEDIT
290
     1
  9
$CEPSNTYPE
380
     0
  9
$PSTYLEMODE
290
     1
  9
$FINGERPRINTGUID
  2
{453702CD-15ED-4347-9859-DECA1A7C02F3}
  9
$VERSIONGUID
  2
{A2CC7C37-4170-41F8-BBA2-A759F717E2E1}
  9
$EXTNAMES
290
     1
  9
$PSVPSCALE
 40
0.0
  9
$OLESTARTUP
290
     0
  0
ENDSEC
  0
SECTION
  2
CLASSES
  0
CLASS
  1
ACDBDICTIONARYWDFLT
  2
AcDbDictionaryWithDefault
  3
AutoCAD 2000
 90
        0
280
     0
281
     0
  0
CLASS
  1
ACDBPLACEHOLDER
  2
AcDbPlaceHolder
  3
AutoCAD 2000
 90
        0
280
     0
281
     0
  0
CLASS
  1
LAYOUT
  2
AcDbLayout
  3
AutoCAD 2000
 90
        0
280
     0
281
     0
  0
CLASS
  1
DICTIONARYVAR
  2
AcDbDictionaryVar
  3
AutoCAD 2000
 90
        0
280
     0
281
     0
  0
ENDSEC
  0
SECTION
  2
TABLES
  0
TABLE
  2
VPORT
  5
8
330
0
100
AcDbSymbolTable
 70
     2
  0
VPORT
  5
E1
330
8
100
AcDbSymbolTableRecord
100
AcDbViewportTableRecord
  2
*Active
 70
     0
 10
0.0
 20
0.0
 11
1.0
 21
1.0
 12
130.0
 22
30.0
 13
0.0
 23
0.0
 14
1.0
 24
1.0
 15
0.0
 25
0.0
 16
0.0
 26
0.0
 36
1.0
 17
0.0
 27
0.0
 37
0.0
 40
125.5762302371391
 41
2.078104993597951
 42
50.0
 43
0.0
 44
0.0
 50
0.0
 51
0.0
 71
     0
 72
   100
 73
     1
 74
     3
 75
     0
 76
     0
 77
     0
 78
     0
281
     0
 65
     1
110
0.0
120
0.0
130
0.0
111
1.0
121
0.0
131
0.0
112
0.0
122
1.0
132
0.0
 79
     1
146
0.0
  0
ENDTAB
  0
TABLE
  2
LTYPE
  5
5
330
0
100
AcDbSymbolTable
 70
     1
  0
LTYPE
  5
13
330
5
100
AcDbSymbolTableRecord
100
AcDbLinetypeTableRecord
  2
ByBlock
 70
     0
  3

 72
    65
 73
     0
 40
0.0
  0
LTYPE
  5
14
330
5
100
AcDbSymbolTableRecord
100
AcDbLinetypeTableRecord
  2
ByLayer
 70
     0
  3

 72
    65
 73
     0
 40
0.0
  0
LTYPE
  5
15
330
5
100
AcDbSymbolTableRecord
100
AcDbLinetypeTableRecord
  2
Continuous
 70
     0
  3
Solid line
 72
    65
 73
     0
 40
0.0
  0
ENDTAB
  0
TABLE
  2
LAYER
  5
2
330
0
100
AcDbSymbolTable
 70
     1
  0
LAYER
  5
10
330
2
100
AcDbSymbolTableRecord
100
AcDbLayerTableRecord
  2
0
 70
     0
 62
     7
  6
Continuous
370
    -3
390
F
  0
ENDTAB
  0
TABLE
  2
STYLE
  5
3
330
0
100
AcDbSymbolTable
 70
     1
  0
STYLE
  5
11
330
3
100
AcDbSymbolTableRecord
100
AcDbTextStyleTableRecord
  2
Standard
 70
     0
 40
0.0
 41
1.0
 50
0.0
 71
     0
 42
0.2
  3
txt
  4

  0
ENDTAB
  0
TABLE
  2
VIEW
  5
6
330
0
100
AcDbSymbolTable
 70
     0
  0
ENDTAB
  0
TABLE
  2
UCS
  5
7
330
0
100
AcDbSymbolTable
 70
     0
  0
ENDTAB
  0
TABLE
  2
APPID
  5
9
330
0
100
AcDbSymbolTable
 70
     1
  0
APPID
  5
12
330
9
100
AcDbSymbolTableRecord
100
AcDbRegAppTableRecord
  2
ACAD
 70
     0
  0
ENDTAB
  0
TABLE
  2
DIMSTYLE
  5
A
330
0
100
AcDbSymbolTable
 70
     1
100
AcDbDimStyleTable
 71
     0
  0
DIMSTYLE
105
DB
330
A
100
AcDbSymbolTableRecord
100
AcDbDimStyleTableRecord
  2
Standard
 70
     0
340
11
  0
ENDTAB
  0
TABLE
  2
BLOCK_RECORD
  5
1
330
0
100
AcDbSymbolTable
 70
     0
  0
BLOCK_RECORD
  5
1E
330
1
100
AcDbSymbolTableRecord
100
AcDbBlockTableRecord
  2
*Model_Space
340
21
  0
BLOCK_RECORD
  5
1A
330
1
100
AcDbSymbolTableRecord
100
AcDbBlockTableRecord
  2
*Paper_Space
340
1D
  0
ENDTAB
  0
ENDSEC
  0
SECTION
  2
BLOCKS
  0
BLOCK
  5
1F
330
1E
100
AcDbEntity
  8
0
100
AcDbBlockBegin
  2
*Model_Space
 70
     0
 10
0.0
 20
0.0
 30
0.0
  3
*Model_Space
  1

  0
ENDBLK
  5
20
330
1E
100
AcDbEntity
  8
0
100
AcDbBlockEnd
  0
BLOCK
  5
1B
330
1A
100
AcDbEntity
 67
     1
  8
0
100
AcDbBlockBegin
  2
*Paper_Space
 70
     0
 10
0.0
 20
0.0
 30
0.0
  3
*Paper_Space
  1

  0
ENDBLK
  5
1C
330
1A
100
AcDbEntity
 67
     1
  8
0
100
AcDbBlockEnd
  0
ENDSEC
  0
SECTION
  2
ENTITIES
  0
LINE
  5
22
330
1E
100
AcDbEntity
  8
0
100
AcDbLine
 10
-0.0000000000000072
 20
60.0
 30
0.0
 11
-0.0000000000000072
 21
0.0
 31
0.0
  0
LINE
  5
23
330
1E
100
AcDbEntity
  8
0
100
AcDbLine
 10
-0.0000000000000072
 20
60.0
 30
0.0
 11
0.7999999999999928
 21
60.0
 31
0.0
  0
LINE
  5
24
330
1E
100
AcDbEntity
  8
0
100
AcDbLine
 10
0.7999999999999928
 20
-0.0000000000000011
 30
0.0
 11
2.69999999999999
 21
-0.0000000000000015
 31
0.0
  0
LINE
  5
25
330
1E
100
AcDbEntity
  8
0
100
AcDbLine
 10
65.2
 20
-0.0000000000000037
 30
0.0
 11
75.0
 21
-0.0000000000000037
 31
0.0
  0
LINE
  5
26
330
1E
100
AcDbEntity
  8
0
100
AcDbLine
 10
75.0
 20
-0.0000000000000037
 30
0.0
 11
84.8
 21
-0.0000000000000037
 31
0.0
  0
LINE
  5
27
330
1E
100
AcDbEntity
  8
0
100
AcDbLine
 10
55.6
 20
-0.0000000000000036
 30
0.0
 11
65.2
 21
-0.0000000000000037
 31
0.0
  0
LINE
  5
28
330
1E
100
AcDbEntity
  8
0
100
AcDbLine
 10
46.39999999999999
 20
-0.0000000000000035
 30
0.0
 11
55.6
 21
-0.0000000000000036
 31
0.0
  0
LINE
  5
29
330
1E
100
AcDbEntity
  8
0
100
AcDbLine
 10
84.8
 20
-0.0000000000000037
 30
0.0
 11
94.40000000000001
 21
-0.0000000000000036
 31
0.0
  0
LINE
  5
2A
330
1E
100
AcDbEntity
  8
0
100
AcDbLine
 10
94.40000000000001
 20
-0.0000000000000036
 30
0.0
 11
103.6
 21
-0.0000000000000035
 31
0.0
  0
LINE
  5
2B
330
1E
100
AcDbEntity
  8
0
100
AcDbLine
 10
37.6
 20
-0.0000000000000033
 30
0.0
 11
46.39999999999999
 21
-0.0000000000000035
 31
0.0
  0
LINE
  5
2C
330
1E
100
AcDbEntity
  8
0
100
AcDbLine
 10
29.39999999999999
 20
-0.0000000000000031
 30
0.0
 11
37.6
 21
-0.0000000000000033
 31
0.0
  0
LINE
  5
2D
330
1E
100
AcDbEntity
  8
0
100
AcDbLine
 10
103.6
 20
-0.0000000000000035
 30
0.0
 11
112.4
 21
-0.0000000000000033
 31
0.0
  0
LINE
  5
2E
330
1E
100
AcDbEntity
  8
0
100
AcDbLine
 10
112.4
 20
-0.0000000000000033
 30
0.0
 11
120.5999999999999
 21
-0.0000000000000031
 31
0.0
  0
LINE
  5
2F
330
1E
100
AcDbEntity
  8
0
100
AcDbLine
 10
22.1
 20
-0.0000000000000028
 30
0.0
 11
29.39999999999999
 21
-0.0000000000000031
 31
0.0
  0
LINE
  5
30
330
1E
100
AcDbEntity
  8
0
100
AcDbLine
 10
15.6
 20
-0.0000000000000025
 30
0.0
 11
22.1
 21
-0.0000000000000028
 31
0.0
  0
LINE
  5
31
330
1E
100
AcDbEntity
  8
0
100
AcDbLine
 10
120.5999999999999
 20
-0.0000000000000031
 30
0.0
 11
127.9
 21
-0.0000000000000028
 31
0.0
  0
LINE
  5
32
330
1E
100
AcDbEntity
  8
0
100
AcDbLine
 10
127.9
 20
-0.0000000000000028
 30
0.0
 11
134.4
 21
-0.0000000000000025
 31
0.0
  0
LINE
  5
33
330
1E
100
AcDbEntity
  8
0
100
AcDbLine
 10
9.999999999999991
 20
-0.0000000000000022
 30
0.0
 11
15.6
 21
-0.0000000000000025
 31
0.0
  0
LINE
  5
34
330
1E
100
AcDbEntity
  8
0
100
AcDbLine
 10
5.89999999999999
 20
-0.0000000000000019
 30
0.0
 11
9.999999999999991
 21
-0.0000000000000022
 31
0.0
  0
LINE
  5
35
330
1E
100
AcDbEntity
  8
0
100
AcDbLine
 10
134.4
 20
-0.0000000000000025
 30
0.0
 11
140.0
 21
-0.0000000000000022
 31
0.0
  0
LINE
  5
36
330
1E
100
AcDbEntity
  8
0
100
AcDbLine
 10
146.3839999999999
 20
-0.0000000000000021
 30
0.0
 11
148.359
 21
-0.0000000000000024
 31
0.0
  0
LINE
  5
37
330
1E
100
AcDbEntity
  8
0
100
AcDbLine
 10
140.0
 20
-0.0000000000000022
 30
0.0
 11
144.1
 21
-0.0000000000000019
 31
0.0
  0
LINE
  5
38
330
1E
100
AcDbEntity
  8
0
100
AcDbLine
 10
0.7999999999999928
 20
-0.0000000000000011
 30
0.0
 11
2.69999999999999
 21
-0.0000000000000015
 31
0.0
  0
LINE
  5
39
330
1E
100
AcDbEntity
  8
0
100
AcDbLine
 10
143.2479999999999
 20
-0.0000000000000018
 30
0.0
 11
146.3839999999999
 21
-0.0000000000000021
 31
0.0
  0
LINE
  5
3A
330
1E
100
AcDbEntity
  8
0
100
AcDbLine
 10
140.3439999999999
 20
-0.0000000000000016
 30
0.0
 11
143.2479999999999
 21
-0.0000000000000018
 31
0.0
  0
LINE
  5
3B
330
1E
100
AcDbEntity
  8
0
100
AcDbLine
 10
140.3439999999999
 20
-0.0000000000000016
 30
0.0
 11
148.242
 21
-0.000000000000001
 31
0.0
  0
LINE
  5
3C
330
1E
100
AcDbEntity
  8
0
100
AcDbLine
 10
2.69999999999999
 20
-0.0000000000000015
 30
0.0
 11
5.89999999999999
 21
-0.0000000000000019
 31
0.0
  0
LINE
  5
3D
330
1E
100
AcDbEntity
  8
0
100
AcDbLine
 10
144.1
 20
-0.0000000000000019
 30
0.0
 11
147.3
 21
-0.0000000000000015
 31
0.0
  0
LINE
  5
3E
330
1E
100
AcDbEntity
  8
0
100
AcDbLine
 10
148.359
 20
-0.0000000000000024
 30
0.0
 11
150.025
 21
-0.000000000000003
 31
0.0
  0
LINE
  5
3F
330
1E
100
AcDbEntity
  8
0
100
AcDbLine
 10
147.3
 20
-0.0000000000000015
 30
0.0
 11
149.1999999999999
 21
-0.0000000000000011
 31
0.0
  0
LINE
  5
40
330
1E
100
AcDbEntity
  8
0
100
AcDbLine
 10
148.242
 20
-0.000000000000001
 30
0.0
 11
164.0
 21
-0.0000000000000026
 31
0.0
  0
LINE
  5
41
330
1E
100
AcDbEntity
  8
0
100
AcDbLine
 10
149.1999999999999
 20
-0.0000000000000011
 30
0.0
 11
150.0
 21
-0.0000000000000007
 31
0.0
  0
LINE
  5
42
330
1E
100
AcDbEntity
  8
0
100
AcDbLine
 10
157.0
 20
-0.0000000000000039
 30
0.0
 11
172.0
 21
-0.0000000000000039
 31
0.0
  0
LINE
  5
43
330
1E
100
AcDbEntity
  8
0
100
AcDbLine
 10
187.903
 20
-0.0000000000000031
 30
0.0
 11
189.689
 21
-0.000000000000003
 31
0.0
  0
LINE
  5
44
330
1E
100
AcDbEntity
  8
0
100
AcDbLine
 10
187.0
 20
-0.0000000000000033
 30
0.0
 11
187.903
 21
-0.0000000000000031
 31
0.0
  0
LINE
  5
45
330
1E
100
AcDbEntity
  8
0
100
AcDbLine
 10
172.0
 20
-0.0000000000000039
 30
0.0
 11
187.0
 21
-0.0000000000000039
 31
0.0
  0
LINE
  5
46
330
1E
100
AcDbEntity
  8
0
100
AcDbLine
 10
193.975
 20
-0.000000000000003
 30
0.0
 11
195.6409999999999
 21
-0.0000000000000024
 31
0.0
  0
LINE
  5
47
330
1E
100
AcDbEntity
  8
0
100
AcDbLine
 10
189.689
 20
-0.000000000000003
 30
0.0
 11
193.975
 21
-0.000000000000003
 31
0.0
  0
LINE
  5
48
330
1E
100
AcDbEntity
  8
0
100
AcDbLine
 10
156.097
 20
-0.0000000000000031
 30
0.0
 11
157.0
 21
-0.0000000000000033
 31
0.0
  0
LINE
  5
49
330
1E
100
AcDbEntity
  8
0
100
AcDbLine
 10
154.311
 20
-0.000000000000003
 30
0.0
 11
156.097
 21
-0.0000000000000031
 31
0.0
  0
LINE
  5
4A
330
1E
100
AcDbEntity
  8
0
100
AcDbLine
 10
172.0
 20
-0.0000000000000026
 30
0.0
 11
180.0
 21
-0.0000000000000026
 31
0.0
  0
LINE
  5
4B
330
1E
100
AcDbEntity
  8
0
100
AcDbLine
 10
180.0
 20
-0.0000000000000026
 30
0.0
 11
195.7579999999999
 21
-0.000000000000001
 31
0.0
  0
LINE
  5
4C
330
1E
100
AcDbEntity
  8
0
100
AcDbLine
 10
200.7519999999999
 20
-0.0000000000000018
 30
0.0
 11
203.6559999999999
 21
-0.0000000000000016
 31
0.0
  0
LINE
  5
4D
330
1E
100
AcDbEntity
  8
0
100
AcDbLine
 10
197.6159999999999
 20
-0.0000000000000021
 30
0.0
 11
200.7519999999999
 21
-0.0000000000000018
 31
0.0
  0
LINE
  5
4E
330
1E
100
AcDbEntity
  8
0
100
AcDbLine
 10
195.6409999999999
 20
-0.0000000000000024
 30
0.0
 11
197.6159999999999
 21
-0.0000000000000021
 31
0.0
  0
LINE
  5
4F
330
1E
100
AcDbEntity
  8
0
100
AcDbLine
 10
164.0
 20
-0.0000000000000026
 30
0.0
 11
172.0
 21
-0.0000000000000026
 31
0.0
  0
LINE
  5
50
330
1E
100
AcDbEntity
  8
0
100
AcDbLine
 10
150.025
 20
-0.000000000000003
 30
0.0
 11
154.311
 21
-0.000000000000003
 31
0.0
  0
LINE
  5
51
330
1E
100
AcDbEntity
  8
0
100
AcDbLine
 10
216.5
 20
-0.0000000000000016
 30
0.0
 11
222.9
 21
-0.0000000000000015
 31
0.0
  0
LINE
  5
52
330
1E
100
AcDbEntity
  8
0
100
AcDbLine
 10
210.0
 20
-0.0000000000000017
 30
0.0
 11
216.5
 21
-0.0000000000000016
 31
0.0
  0
LINE
  5
53
330
1E
100
AcDbEntity
  8
0
100
AcDbLine
 10
174.6999999999999
 20
-0.0000000000000003
 30
0.0
 11
179.6
 21
-0.0000000000000007
 31
0.0
  0
LINE
  5
54
330
1E
100
AcDbEntity
  8
0
100
AcDbLine
 10
179.6
 20
-0.0000000000000007
 30
0.0
 11
185.0999999999999
 21
-0.0000000000000011
 31
0.0
  0
LINE
  5
55
330
1E
100
AcDbEntity
  8
0
100
AcDbLine
 10
195.7579999999999
 20
-0.000000000000001
 30
0.0
 11
203.6559999999999
 21
-0.0000000000000016
 31
0.0
  0
LINE
  5
56
330
1E
100
AcDbEntity
  8
0
100
AcDbLine
 10
185.0999999999999
 20
-0.0000000000000011
 30
0.0
 11
190.8999999999999
 21
-0.0000000000000013
 31
0.0
  0
LINE
  5
57
330
1E
100
AcDbEntity
  8
0
100
AcDbLine
 10
190.8999999999999
 20
-0.0000000000000013
 30
0.0
 11
197.1
 21
-0.0000000000000015
 31
0.0
  0
LINE
  5
58
330
1E
100
AcDbEntity
  8
0
100
AcDbLine
 10
245.3
 20
-0.0000000000000003
 30
0.0
 11
249.5999999999999
 21
0.0000000000000001
 31
0.0
  0
LINE
  5
59
330
1E
100
AcDbEntity
  8
0
100
AcDbLine
 10
245.3
 20
-0.0000000000000003
 30
0.0
 11
249.5999999999999
 21
0.0000000000000001
 31
0.0
  0
LINE
  5
5A
330
1E
100
AcDbEntity
  8
0
100
AcDbLine
 10
240.3999999999999
 20
-0.0000000000000007
 30
0.0
 11
245.3
 21
-0.0000000000000003
 31
0.0
  0
LINE
  5
5B
330
1E
100
AcDbEntity
  8
0
100
AcDbLine
 10
234.9
 20
-0.0000000000000011
 30
0.0
 11
240.3999999999999
 21
-0.0000000000000007
 31
0.0
  0
LINE
  5
5C
330
1E
100
AcDbEntity
  8
0
100
AcDbLine
 10
229.0999999999999
 20
-0.0000000000000013
 30
0.0
 11
234.9
 21
-0.0000000000000011
 31
0.0
  0
LINE
  5
5D
330
1E
100
AcDbEntity
  8
0
100
AcDbLine
 10
222.9
 20
-0.0000000000000015
 30
0.0
 11
229.0999999999999
 21
-0.0000000000000013
 31
0.0
  0
LINE
  5
5E
330
1E
100
AcDbEntity
  8
0
100
AcDbLine
 10
197.1
 20
-0.0000000000000015
 30
0.0
 11
203.5
 21
-0.0000000000000016
 31
0.0
  0
LINE
  5
5F
330
1E
100
AcDbEntity
  8
0
100
AcDbLine
 10
203.5
 20
-0.0000000000000016
 30
0.0
 11
210.0
 21
-0.0000000000000017
 31
0.0
  0
LINE
  5
60
330
1E
100
AcDbEntity
  8
0
100
AcDbLine
 10
150.0
 20
-0.0000000000000007
 30
0.0
 11
150.0
 21
60.0
 31
0.0
  0
LINE
  5
61
330
1E
100
AcDbEntity
  8
0
100
AcDbLine
 10
149.1999999999999
 20
-0.0000000000000003
 30
0.0
 11
150.0
 21
-0.0000000000000007
 31
0.0
  0
LINE
  5
62
330
1E
100
AcDbEntity
  8
0
100
AcDbLine
 10
0.7999999999999928
 20
-0.0000000000000003
 30
0.0
 11
2.69999999999999
 21
0.0000000000000001
 31
0.0
  0
LINE
  5
63
330
1E
100
AcDbEntity
  8
0
100
AcDbLine
 10
0.7999999999999928
 20
60.0
 30
0.0
 11
2.69999999999999
 21
60.0
 31
0.0
  0
LINE
  5
64
330
1E
100
AcDbEntity
  8
0
100
AcDbLine
 10
2.69999999999999
 20
60.0
 30
0.0
 11
5.89999999999999
 21
60.0
 31
0.0
  0
LINE
  5
65
330
1E
100
AcDbEntity
  8
0
100
AcDbLine
 10
2.69999999999999
 20
0.0000000000000001
 30
0.0
 11
5.89999999999999
 21
0.0000000000000005
 31
0.0
  0
LINE
  5
66
330
1E
100
AcDbEntity
  8
0
100
AcDbLine
 10
0.7999999999999928
 20
60.0
 30
0.0
 11
2.69999999999999
 21
60.0
 31
0.0
  0
LINE
  5
67
330
1E
100
AcDbEntity
  8
0
100
AcDbLine
 10
147.3
 20
0.0000000000000001
 30
0.0
 11
149.1999999999999
 21
-0.0000000000000003
 31
0.0
  0
LINE
  5
68
330
1E
100
AcDbEntity
  8
0
100
AcDbLine
 10
144.1
 20
0.0000000000000005
 30
0.0
 11
147.3
 21
0.0000000000000001
 31
0.0
  0
LINE
  5
69
330
1E
100
AcDbEntity
  8
0
100
AcDbLine
 10
144.1
 20
0.0000000000000005
 30
0.0
 11
147.3
 21
0.0000000000000001
 31
0.0
  0
LINE
  5
6A
330
1E
100
AcDbEntity
  8
0
100
AcDbLine
 10
249.5999999999999
 20
0.0000000000000001
 30
0.0
 11
253.3
 21
0.0000000000000006
 31
0.0
  0
LINE
  5
6B
330
1E
100
AcDbEntity
  8
0
100
AcDbLine
 10
249.5999999999999
 20
0.0000000000000001
 30
0.0
 11
253.3
 21
0.0000000000000006
 31
0.0
  0
LINE
  5
6C
330
1E
100
AcDbEntity
  8
0
100
AcDbLine
 10
170.4
 20
0.0000000000000001
 30
0.0
 11
174.6999999999999
 21
-0.0000000000000003
 31
0.0
  0
LINE
  5
6D
330
1E
100
AcDbEntity
  8
0
100
AcDbLine
 10
170.4
 20
0.0000000000000001
 30
0.0
 11
174.6999999999999
 21
-0.0000000000000003
 31
0.0
  0
LINE
  5
6E
330
1E
100
AcDbEntity
  8
0
100
AcDbLine
 10
147.3
 20
0.0000000000000001
 30
0.0
 11
149.1999999999999
 21
-0.0000000000000003
 31
0.0
  0
LINE
  5
6F
330
1E
100
AcDbEntity
  8
0
100
AcDbLine
 10
9.999999999999991
 20
60.0
 30
0.0
 11
15.6
 21
60.0
 31
0.0
  0
LINE
  5
70
330
1E
100
AcDbEntity
  8
0
100
AcDbLine
 10
5.89999999999999
 20
60.0
 30
0.0
 11
9.999999999999991
 21
60.0
 31
0.0
  0
LINE
  5
71
330
1E
100
AcDbEntity
  8
0
100
AcDbLine
 10
134.4
 20
0.0000000000000012
 30
0.0
 11
140.0
 21
0.0000000000000008
 31
0.0
  0
LINE
  5
72
330
1E
100
AcDbEntity
  8
0
100
AcDbLine
 10
253.3
 20
0.0000000000000006
 30
0.0
 11
256.1
 21
0.0000000000000012
 31
0.0
  0
LINE
  5
73
330
1E
100
AcDbEntity
  8
0
100
AcDbLine
 10
256.1
 20
0.0000000000000012
 30
0.0
 11
258.1999999999999
 21
0.0000000000000017
 31
0.0
  0
LINE
  5
74
330
1E
100
AcDbEntity
  8
0
100
AcDbLine
 10
163.9
 20
0.0000000000000012
 30
0.0
 11
166.6999999999999
 21
0.0000000000000006
 31
0.0
  0
LINE
  5
75
330
1E
100
AcDbEntity
  8
0
100
AcDbLine
 10
166.6999999999999
 20
0.0000000000000006
 30
0.0
 11
170.4
 21
0.0000000000000001
 31
0.0
  0
LINE
  5
76
330
1E
100
AcDbEntity
  8
0
100
AcDbLine
 10
166.6999999999999
 20
0.0000000000000006
 30
0.0
 11
170.4
 21
0.0000000000000001
 31
0.0
  0
LINE
  5
77
330
1E
100
AcDbEntity
  8
0
100
AcDbLine
 10
140.0
 20
0.0000000000000008
 30
0.0
 11
144.1
 21
0.0000000000000005
 31
0.0
  0
LINE
  5
78
330
1E
100
AcDbEntity
  8
0
100
AcDbLine
 10
22.1
 20
60.0
 30
0.0
 11
29.39999999999999
 21
60.0
 31
0.0
  0
LINE
  5
79
330
1E
100
AcDbEntity
  8
0
100
AcDbLine
 10
15.6
 20
60.0
 30
0.0
 11
22.1
 21
60.0
 31
0.0
  0
LINE
  5
7A
330
1E
100
AcDbEntity
  8
0
100
AcDbLine
 10
120.5999999999999
 20
0.0000000000000017
 30
0.0
 11
127.9
 21
0.0000000000000015
 31
0.0
  0
LINE
  5
7B
330
1E
100
AcDbEntity
  8
0
100
AcDbLine
 10
258.1999999999999
 20
0.0000000000000017
 30
0.0
 11
259.5
 21
0.0000000000000023
 31
0.0
  0
LINE
  5
7C
330
1E
100
AcDbEntity
  8
0
100
AcDbLine
 10
161.8
 20
0.0000000000000017
 30
0.0
 11
163.9
 21
0.0000000000000012
 31
0.0
  0
LINE
  5
7D
330
1E
100
AcDbEntity
  8
0
100
AcDbLine
 10
127.9
 20
0.0000000000000015
 30
0.0
 11
134.4
 21
0.0000000000000012
 31
0.0
  0
LINE
  5
7E
330
1E
100
AcDbEntity
  8
0
100
AcDbLine
 10
37.6
 20
60.0
 30
0.0
 11
46.39999999999999
 21
60.0
 31
0.0
  0
LINE
  5
7F
330
1E
100
AcDbEntity
  8
0
100
AcDbLine
 10
29.39999999999999
 20
60.0
 30
0.0
 11
37.6
 21
60.0
 31
0.0
  0
LINE
  5
80
330
1E
100
AcDbEntity
  8
0
100
AcDbLine
 10
103.6
 20
0.0000000000000021
 30
0.0
 11
112.4
 21
0.000000000000002
 31
0.0
  0
LINE
  5
81
330
1E
100
AcDbEntity
  8
0
100
AcDbLine
 10
112.4
 20
0.000000000000002
 30
0.0
 11
120.5999999999999
 21
0.0000000000000017
 31
0.0
  0
LINE
  5
82
330
1E
100
AcDbEntity
  8
0
100
AcDbLine
 10
55.6
 20
60.0
 30
0.0
 11
65.2
 21
60.0
 31
0.0
  0
LINE
  5
83
330
1E
100
AcDbEntity
  8
0
100
AcDbLine
 10
46.39999999999999
 20
60.0
 30
0.0
 11
55.6
 21
60.0
 31
0.0
  0
LINE
  5
84
330
1E
100
AcDbEntity
  8
0
100
AcDbLine
 10
84.8
 20
0.0000000000000023
 30
0.0
 11
94.40000000000001
 21
0.0000000000000023
 31
0.0
  0
LINE
  5
85
330
1E
100
AcDbEntity
  8
0
100
AcDbLine
 10
259.5
 20
0.0000000000000023
 30
0.0
 11
260.0
 21
0.0000000000000029
 31
0.0
  0
LINE
  5
86
330
1E
100
AcDbEntity
  8
0
100
AcDbLine
 10
160.4999999999999
 20
0.0000000000000023
 30
0.0
 11
161.8
 21
0.0000000000000017
 31
0.0
  0
LINE
  5
87
330
1E
100
AcDbEntity
  8
0
100
AcDbLine
 10
94.40000000000001
 20
0.0000000000000023
 30
0.0
 11
103.6
 21
0.0000000000000021
 31
0.0
  0
LINE
  5
88
330
1E
100
AcDbEntity
  8
0
100
AcDbLine
 10
75.0
 20
0.0000000000000024
 30
0.0
 11
84.8
 21
0.0000000000000023
 31
0.0
  0
LINE
  5
89
330
1E
100
AcDbEntity
  8
0
100
AcDbLine
 10
75.0
 20
60.0
 30
0.0
 11
84.8
 21
60.0
 31
0.0
  0
LINE
  5
8A
330
1E
100
AcDbEntity
  8
0
100
AcDbLine
 10
84.8
 20
60.0
 30
0.0
 11
94.40000000000001
 21
60.0
 31
0.0
  0
LINE
  5
8B
330
1E
100
AcDbEntity
  8
0
100
AcDbLine
 10
94.40000000000001
 20
60.0
 30
0.0
 11
103.6
 21
60.0
 31
0.0
  0
LINE
  5
8C
330
1E
100
AcDbEntity
  8
0
100
AcDbLine
 10
103.6
 20
60.0
 30
0.0
 11
112.4
 21
60.0
 31
0.0
  0
LINE
  5
8D
330
1E
100
AcDbEntity
  8
0
100
AcDbLine
 10
112.4
 20
60.0
 30
0.0
 11
120.5999999999999
 21
60.0
 31
0.0
  0
LINE
  5
8E
330
1E
100
AcDbEntity
  8
0
100
AcDbLine
 10
120.5999999999999
 20
60.0
 30
0.0
 11
127.9
 21
60.0
 31
0.0
  0
LINE
  5
8F
330
1E
100
AcDbEntity
  8
0
100
AcDbLine
 10
127.9
 20
60.0
 30
0.0
 11
134.4
 21
60.0
 31
0.0
  0
LINE
  5
90
330
1E
100
AcDbEntity
  8
0
100
AcDbLine
 10
134.4
 20
60.0
 30
0.0
 11
140.0
 21
60.0
 31
0.0
  0
LINE
  5
91
330
1E
100
AcDbEntity
  8
0
100
AcDbLine
 10
140.0
 20
60.0
 30
0.0
 11
144.1
 21
60.0
 31
0.0
  0
LINE
  5
92
330
1E
100
AcDbEntity
  8
0
100
AcDbLine
 10
144.1
 20
60.0
 30
0.0
 11
147.3
 21
60.0
 31
0.0
  0
LINE
  5
93
330
1E
100
AcDbEntity
  8
0
100
AcDbLine
 10
150.0
 20
20.0
 30
0.0
 11
160.0
 21
20.0
 31
0.0
  0
LINE
  5
94
330
1E
100
AcDbEntity
  8
0
100
AcDbLine
 10
160.0
 20
60.0
 30
0.0
 11
160.0
 21
0.0
 31
0.0
  0
LINE
  5
95
330
1E
100
AcDbEntity
  8
0
100
AcDbLine
 10
160.0
 20
60.0
 30
0.0
 11
160.4999999999999
 21
60.0
 31
0.0
  0
LINE
  5
96
330
1E
100
AcDbEntity
  8
0
100
AcDbLine
 10
160.4999999999999
 20
0.0000000000000035
 30
0.0
 11
161.8
 21
0.0000000000000041
 31
0.0
  0
LINE
  5
97
330
1E
100
AcDbEntity
  8
0
100
AcDbLine
 10
161.8
 20
0.0000000000000041
 30
0.0
 11
163.9
 21
0.0000000000000047
 31
0.0
  0
LINE
  5
98
330
1E
100
AcDbEntity
  8
0
100
AcDbLine
 10
163.9
 20
0.0000000000000047
 30
0.0
 11
166.6999999999999
 21
0.0000000000000052
 31
0.0
  0
LINE
  5
99
330
1E
100
AcDbEntity
  8
0
100
AcDbLine
 10
166.6999999999999
 20
0.0000000000000052
 30
0.0
 11
170.4
 21
0.0000000000000057
 31
0.0
  0
LINE
  5
9A
330
1E
100
AcDbEntity
  8
0
100
AcDbLine
 10
170.4
 20
0.0000000000000057
 30
0.0
 11
174.6999999999999
 21
0.0000000000000062
 31
0.0
  0
LINE
  5
9B
330
1E
100
AcDbEntity
  8
0
100
AcDbLine
 10
174.6999999999999
 20
0.0000000000000062
 30
0.0
 11
179.6
 21
0.0000000000000066
 31
0.0
  0
LINE
  5
9C
330
1E
100
AcDbEntity
  8
0
100
AcDbLine
 10
179.6
 20
0.0000000000000066
 30
0.0
 11
185.0999999999999
 21
0.0000000000000069
 31
0.0
  0
LINE
  5
9D
330
1E
100
AcDbEntity
  8
0
100
AcDbLine
 10
185.0999999999999
 20
0.0000000000000069
 30
0.0
 11
190.8999999999999
 21
0.0000000000000072
 31
0.0
  0
LINE
  5
9E
330
1E
100
AcDbEntity
  8
0
100
AcDbLine
 10
190.8999999999999
 20
0.0000000000000072
 30
0.0
 11
197.1
 21
0.0000000000000074
 31
0.0
  0
LINE
  5
9F
330
1E
100
AcDbEntity
  8
0
100
AcDbLine
 10
160.4999999999999
 20
60.0
 30
0.0
 11
161.8
 21
60.0
 31
0.0
  0
LINE
  5
A0
330
1E
100
AcDbEntity
  8
0
100
AcDbLine
 10
161.8
 20
60.0
 30
0.0
 11
163.9
 21
60.0
 31
0.0
  0
LINE
  5
A1
330
1E
100
AcDbEntity
  8
0
100
AcDbLine
 10
163.9
 20
60.0
 30
0.0
 11
166.6999999999999
 21
60.0
 31
0.0
  0
LINE
  5
A2
330
1E
100
AcDbEntity
  8
0
100
AcDbLine
 10
166.6999999999999
 20
60.0
 30
0.0
 11
170.4
 21
60.0
 31
0.0
  0
LINE
  5
A3
330
1E
100
AcDbEntity
  8
0
100
AcDbLine
 10
170.4
 20
60.0
 30
0.0
 11
174.6999999999999
 21
60.0
 31
0.0
  0
LINE
  5
A4
330
1E
100
AcDbEntity
  8
0
100
AcDbLine
 10
174.6999999999999
 20
60.0
 30
0.0
 11
179.6
 21
60.0
 31
0.0
  0
LINE
  5
A5
330
1E
100
AcDbEntity
  8
0
100
AcDbLine
 10
179.6
 20
60.0
 30
0.0
 11
185.0999999999999
 21
60.0
 31
0.0
  0
LINE
  5
A6
330
1E
100
AcDbEntity
  8
0
100
AcDbLine
 10
185.0999999999999
 20
60.0
 30
0.0
 11
190.8999999999999
 21
60.0
 31
0.0
  0
LINE
  5
A7
330
1E
100
AcDbEntity
  8
0
100
AcDbLine
 10
190.8999999999999
 20
60.0
 30
0.0
 11
197.1
 21
60.0
 31
0.0
  0
LINE
  5
A8
330
1E
100
AcDbEntity
  8
0
100
AcDbLine
 10
197.1
 20
60.0
 30
0.0
 11
203.5
 21
60.0
 31
0.0
  0
LINE
  5
A9
330
1E
100
AcDbEntity
  8
0
100
AcDbLine
 10
203.5
 20
60.0
 30
0.0
 11
210.0
 21
60.0
 31
0.0
  0
LINE
  5
AA
330
1E
100
AcDbEntity
  8
0
100
AcDbLine
 10
197.1
 20
0.0000000000000074
 30
0.0
 11
203.5
 21
0.0000000000000075
 31
0.0
  0
LINE
  5
AB
330
1E
100
AcDbEntity
  8
0
100
AcDbLine
 10
259.5
 20
0.0000000000000035
 30
0.0
 11
260.0
 21
0.0000000000000029
 31
0.0
  0
LINE
  5
AC
330
1E
100
AcDbEntity
  8
0
100
AcDbLine
 10
258.1999999999999
 20
0.0000000000000041
 30
0.0
 11
259.5
 21
0.0000000000000035
 31
0.0
  0
LINE
  5
AD
330
1E
100
AcDbEntity
  8
0
100
AcDbLine
 10
256.1
 20
0.0000000000000047
 30
0.0
 11
258.1999999999999
 21
0.0000000000000041
 31
0.0
  0
LINE
  5
AE
330
1E
100
AcDbEntity
  8
0
100
AcDbLine
 10
253.3
 20
0.0000000000000052
 30
0.0
 11
256.1
 21
0.0000000000000047
 31
0.0
  0
LINE
  5
AF
330
1E
100
AcDbEntity
  8
0
100
AcDbLine
 10
249.5999999999999
 20
0.0000000000000057
 30
0.0
 11
253.3
 21
0.0000000000000052
 31
0.0
  0
LINE
  5
B0
330
1E
100
AcDbEntity
  8
0
100
AcDbLine
 10
245.3
 20
0.0000000000000062
 30
0.0
 11
249.5999999999999
 21
0.0000000000000057
 31
0.0
  0
LINE
  5
B1
330
1E
100
AcDbEntity
  8
0
100
AcDbLine
 10
240.3999999999999
 20
0.0000000000000066
 30
0.0
 11
245.3
 21
0.0000000000000062
 31
0.0
  0
LINE
  5
B2
330
1E
100
AcDbEntity
  8
0
100
AcDbLine
 10
234.9
 20
0.0000000000000069
 30
0.0
 11
240.3999999999999
 21
0.0000000000000066
 31
0.0
  0
LINE
  5
B3
330
1E
100
AcDbEntity
  8
0
100
AcDbLine
 10
229.0999999999999
 20
0.0000000000000072
 30
0.0
 11
234.9
 21
0.0000000000000069
 31
0.0
  0
LINE
  5
B4
330
1E
100
AcDbEntity
  8
0
100
AcDbLine
 10
222.9
 20
0.0000000000000074
 30
0.0
 11
229.0999999999999
 21
0.0000000000000072
 31
0.0
  0
LINE
  5
B5
330
1E
100
AcDbEntity
  8
0
100
AcDbLine
 10
216.5
 20
0.0000000000000075
 30
0.0
 11
222.9
 21
0.0000000000000074
 31
0.0
  0
LINE
  5
B6
330
1E
100
AcDbEntity
  8
0
100
AcDbLine
 10
259.5
 20
60.0
 30
0.0
 11
260.0
 21
60.0
 31
0.0
  0
LINE
  5
B7
330
1E
100
AcDbEntity
  8
0
100
AcDbLine
 10
260.0
 20
60.0
 30
0.0
 11
260.0
 21
0.0
 31
0.0
  0
LINE
  5
B8
330
1E
100
AcDbEntity
  8
0
100
AcDbLine
 10
258.1999999999999
 20
60.0
 30
0.0
 11
259.5
 21
60.0
 31
0.0
  0
LINE
  5
B9
330
1E
100
AcDbEntity
  8
0
100
AcDbLine
 10
256.1
 20
60.0
 30
0.0
 11
258.1999999999999
 21
60.0
 31
0.0
  0
LINE
  5
BA
330
1E
100
AcDbEntity
  8
0
100
AcDbLine
 10
253.3
 20
60.0
 30
0.0
 11
256.1
 21
60.0
 31
0.0
  0
LINE
  5
BB
330
1E
100
AcDbEntity
  8
0
100
AcDbLine
 10
249.5999999999999
 20
60.0
 30
0.0
 11
253.3
 21
60.0
 31
0.0
  0
LINE
  5
BC
330
1E
100
AcDbEntity
  8
0
100
AcDbLine
 10
245.3
 20
60.0
 30
0.0
 11
249.5999999999999
 21
60.0
 31
0.0
  0
LINE
  5
BD
330
1E
100
AcDbEntity
  8
0
100
AcDbLine
 10
240.3999999999999
 20
60.0
 30
0.0
 11
245.3
 21
60.0
 31
0.0
  0
LINE
  5
BE
330
1E
100
AcDbEntity
  8
0
100
AcDbLine
 10
234.9
 20
60.0
 30
0.0
 11
240.3999999999999
 21
60.0
 31
0.0
  0
LINE
  5
BF
330
1E
100
AcDbEntity
  8
0
100
AcDbLine
 10
229.0999999999999
 20
60.0
 30
0.0
 11
234.9
 21
60.0
 31
0.0
  0
LINE
  5
C0
330
1E
100
AcDbEntity
  8
0
100
AcDbLine
 10
222.9
 20
60.0
 30
0.0
 11
229.0999999999999
 21
60.0
 31
0.0
  0
LINE
  5
C1
330
1E
100
AcDbEntity
  8
0
100
AcDbLine
 10
216.5
 20
60.0
 30
0.0
 11
222.9
 21
60.0
 31
0.0
  0
LINE
  5
C2
330
1E
100
AcDbEntity
  8
0
100
AcDbLine
 10
210.0
 20
60.0
 30
0.0
 11
216.5
 21
60.0
 31
0.0
  0
LINE
  5
C3
330
1E
100
AcDbEntity
  8
0
100
AcDbLine
 10
210.0
 20
0.0000000000000075
 30
0.0
 11
216.5
 21
0.0000000000000075
 31
0.0
  0
LINE
  5
C4
330
1E
100
AcDbEntity
  8
0
100
AcDbLine
 10
203.5
 20
0.0000000000000075
 30
0.0
 11
210.0
 21
0.0000000000000075
 31
0.0
  0
LINE
  5
C5
330
1E
100
AcDbEntity
  8
0
100
AcDbLine
 10
260.0
 20
0.0000000000000029
 30
0.0
 11
260.0
 21
60.0
 31
0.0
  0
LINE
  5
C6
330
1E
100
AcDbEntity
  8
0
100
AcDbLine
 10
160.0
 20
0.0000000000000029
 30
0.0
 11
160.4999999999999
 21
0.0000000000000023
 31
0.0
  0
LINE
  5
C7
330
1E
100
AcDbEntity
  8
0
100
AcDbLine
 10
160.0
 20
0.0000000000000029
 30
0.0
 11
160.4999999999999
 21
0.0000000000000035
 31
0.0
  0
LINE
  5
C8
330
1E
100
AcDbEntity
  8
0
100
AcDbLine
 10
160.0
 20
0.0000000000000029
 30
0.0
 11
160.0
 21
60.0
 31
0.0
  0
LINE
  5
C9
330
1E
100
AcDbEntity
  8
0
100
AcDbLine
 10
150.0
 20
60.0
 30
0.0
 11
150.0
 21
0.0
 31
0.0
  0
LINE
  5
CA
330
1E
100
AcDbEntity
  8
0
100
AcDbLine
 10
147.3
 20
60.0
 30
0.0
 11
149.1999999999999
 21
60.0
 31
0.0
  0
LINE
  5
CB
330
1E
100
AcDbEntity
  8
0
100
AcDbLine
 10
149.1999999999999
 20
60.0
 30
0.0
 11
150.0
 21
60.0
 31
0.0
  0
LINE
  5
CC
330
1E
100
AcDbEntity
  8
0
100
AcDbLine
 10
65.2
 20
60.0
 30
0.0
 11
75.0
 21
60.0
 31
0.0
  0
LINE
  5
CD
330
1E
100
AcDbEntity
  8
0
100
AcDbLine
 10
65.2
 20
0.0000000000000023
 30
0.0
 11
75.0
 21
0.0000000000000024
 31
0.0
  0
LINE
  5
CE
330
1E
100
AcDbEntity
  8
0
100
AcDbLine
 10
55.6
 20
0.0000000000000023
 30
0.0
 11
65.2
 21
0.0000000000000023
 31
0.0
  0
LINE
  5
CF
330
1E
100
AcDbEntity
  8
0
100
AcDbLine
 10
46.39999999999999
 20
0.0000000000000021
 30
0.0
 11
55.6
 21
0.0000000000000023
 31
0.0
  0
LINE
  5
D0
330
1E
100
AcDbEntity
  8
0
100
AcDbLine
 10
37.6
 20
0.000000000000002
 30
0.0
 11
46.39999999999999
 21
0.0000000000000021
 31
0.0
  0
LINE
  5
D1
330
1E
100
AcDbEntity
  8
0
100
AcDbLine
 10
29.39999999999999
 20
0.0000000000000017
 30
0.0
 11
37.6
 21
0.000000000000002
 31
0.0
  0
LINE
  5
D2
330
1E
100
AcDbEntity
  8
0
100
AcDbLine
 10
22.1
 20
0.0000000000000015
 30
0.0
 11
29.39999999999999
 21
0.0000000000000017
 31
0.0
  0
LINE
  5
D3
330
1E
100
AcDbEntity
  8
0
100
AcDbLine
 10
15.6
 20
0.0000000000000012
 30
0.0
 11
22.1
 21
0.0000000000000015
 31
0.0
  0
LINE
  5
D4
330
1E
100
AcDbEntity
  8
0
100
AcDbLine
 10
9.999999999999991
 20
0.0000000000000008
 30
0.0
 11
15.6
 21
0.0000000000000012
 31
0.0
  0
LINE
  5
D5
330
1E
100
AcDbEntity
  8
0
100
AcDbLine
 10
5.89999999999999
 20
0.0000000000000005
 30
0.0
 11
9.999999999999991
 21
0.0000000000000008
 31
0.0
  0
LINE
  5
D6
330
1E
100
AcDbEntity
  8
0
100
AcDbLine
 10
2.69999999999999
 20
0.0000000000000001
 30
0.0
 11
5.89999999999999
 21
0.0000000000000005
 31
0.0
  0
LINE
  5
D7
330
1E
100
AcDbEntity
  8
0
100
AcDbLine
 10
0.7999999999999928
 20
-0.0000000000000003
 30
0.0
 11
2.69999999999999
 21
0.0000000000000001
 31
0.0
  0
LINE
  5
D8
330
1E
100
AcDbEntity
  8
0
100
AcDbLine
 10
-0.0000000000000072
 20
-0.0000000000000007
 30
0.0
 11
0.7999999999999928
 21
-0.0000000000000003
 31
0.0
  0
LINE
  5
D9
330
1E
100
AcDbEntity
  8
0
100
AcDbLine
 10
-0.0000000000000072
 20
-0.0000000000000007
 30
0.0
 11
0.7999999999999928
 21
-0.0000000000000011
 31
0.0
  0
LINE
  5
DA
330
1E
100
AcDbEntity
  8
0
100
AcDbLine
 10
-0.0000000000000072
 20
-0.0000000000000007
 30
0.0
 11
-0.0000000000000072
 21
60.0
 31
0.0
  0
ENDSEC
  0
SECTION
  2
OBJECTS
  0
DICTIONARY
  5
C
330
0
100
AcDbDictionary
281
     1
  3
ACAD_GROUP
350
D
  3
ACAD_LAYOUT
350
19
  3
ACAD_MLINESTYLE
350
16
  3
ACAD_PLOTSETTINGS
350
18
  3
ACAD_PLOTSTYLENAME
350
E
  3
AcDbVariableDictionary
350
DF
  0
DICTIONARY
  5
D
102
{ACAD_REACTORS
330
C
102
}
330
C
100
AcDbDictionary
281
     1
  0
DICTIONARY
  5
19
102
{ACAD_REACTORS
330
C
102
}
330
C
100
AcDbDictionary
281
     1
  3
Layout1
350
1D
  3
Model
350
21
  0
DICTIONARY
  5
16
102
{ACAD_REACTORS
330
C
102
}
330
C
100
AcDbDictionary
281
     1
  3
Standard
350
17
  0
DICTIONARY
  5
18
102
{ACAD_REACTORS
330
C
102
}
330
C
100
AcDbDictionary
281
     1
  0
ACDBDICTIONARYWDFLT
  5
E
102
{ACAD_REACTORS
330
C
102
}
330
C
100
AcDbDictionary
281
     1
  3
Normal
350
F
100
AcDbDictionaryWithDefault
340
F
  0
DICTIONARY
  5
DF
102
{ACAD_REACTORS
330
C
102
}
330
C
100
AcDbDictionary
281
     1
  3
DIMASSOC
350
E0
  0
LAYOUT
  5
1D
102
{ACAD_REACTORS
330
19
102
}
330
19
100
AcDbPlotSettings
  1

  2
hp deskjet 980c series
  4

  6

 40
0.0
 41
0.0
 42
0.0
 43
0.0
 44
0.0
 45
0.0
 46
0.0
 47
0.0
 48
0.0
 49
0.0
140
0.0
141
0.0
142
1.0
143
1.0
 70
   688
 72
     0
 73
     0
 74
     5
  7

 75
    16
147
1.0
148
0.0
149
0.0
100
AcDbLayout
  1
Layout1
 70
     1
 71
     1
 10
0.0
 20
0.0
 11
12.0
 21
9.0
 12
0.0
 22
0.0
 32
0.0
 14
1.000000000000000E+20
 24
1.000000000000000E+20
 34
1.000000000000000E+20
 15
-1.000000000000000E+20
 25
-1.000000000000000E+20
 35
-1.000000000000000E+20
146
0.0
 13
0.0
 23
0.0
 33
0.0
 16
1.0
 26
0.0
 36
0.0
 17
0.0
 27
1.0
 37
0.0
 76
     0
330
1A
  0
LAYOUT
  5
21
102
{ACAD_REACTORS
330
19
102
}
330
19
100
AcDbPlotSettings
  1

  2
hp deskjet 980c series
  4

  6

 40
0.0
 41
0.0
 42
0.0
 43
0.0
 44
0.0
 45
0.0
 46
0.0
 47
0.0
 48
0.0
 49
0.0
140
0.0
141
0.0
142
1.0
143
1.0
 70
  1712
 72
     0
 73
     0
 74
     0
  7

 75
     0
147
1.0
148
0.0
149
0.0
100
AcDbLayout
  1
Model
 70
     1
 71
     0
 10
0.0
 20
0.0
 11
12.0
 21
9.0
 12
0.0
 22
0.0
 32
0.0
 14
0.0
 24
0.0
 34
0.0
 15
0.0
 25
0.0
 35
0.0
146
0.0
 13
0.0
 23
0.0
 33
0.0
 16
1.0
 26
0.0
 36
0.0
 17
0.0
 27
1.0
 37
0.0
 76
     0
330
1E
  0
MLINESTYLE
  5
17
102
{ACAD_REACTORS
330
16
102
}
330
16
100
AcDbMlineStyle
  2
STANDARD
 70
     0
  3

 62
   256
 51
90.0
 52
90.0
 71
     2
 49
0.5
 62
   256
  6
BYLAYER
 49
-0.5
 62
   256
  6
BYLAYER
  0
ACDBPLACEHOLDER
  5
F
102
{ACAD_REACTORS
330
E
102
}
330
E
  0
DICTIONARYVAR
  5
E0
102
{ACAD_REACTORS
330
DF
102
}
330
DF
100
DictionaryVariables
280
     0
  1
1
  0
ENDSEC
  0
EOF
