999
Erzeugt mit innoplus bad 
0
SECTION
2
HEADER
9
$ACADVER
1
AC1009
9
$DWGCODEPAGE
3
ISO8859-1
0
ENDSEC
0
SECTION
2
TABLES
0
TABLE
2
LAYER
70
1
0
LAYER
2
0
70
0
62
7
6
CONTINUOUS
0
ENDTAB
0
ENDSEC
0
SECTION
2
ENTITIES
0
LINE
8
0
6
CONTINUOUS
10
0.050352
20
0.001650
30
0.0
11
0.046906
21
-0.008876
31
0.0
0
LINE
8
0
6
CONTINUOUS
10
0.090553
20
0.089710
30
0.0
11
0.088148
21
0.087421
31
0.0
0
LINE
8
0
6
CONTINUOUS
10
0.087818
20
0.086969
30
0.0
11
0.087103
21
0.079981
31
0.0
0
LINE
8
0
6
CONTINUOUS
10
0.100564
20
0.092843
30
0.0
11
0.096969
21
0.092480
31
0.0
0
LINE
8
0
6
CONTINUOUS
10
0.096969
20
0.092480
30
0.0
11
0.093529
21
0.091412
31
0.0
0
LINE
8
0
6
CONTINUOUS
10
0.046774
20
-0.020175
30
0.0
11
0.046807
21
-0.020608
31
0.0
0
LINE
8
0
6
CONTINUOUS
10
0.057435
20
0.010977
30
0.0
11
0.050325
21
0.001567
31
0.0
0
LINE
8
0
6
CONTINUOUS
10
0.046807
20
-0.020608
30
0.0
11
0.047169
21
-0.025318
31
0.0
0
LINE
8
0
6
CONTINUOUS
10
0.082352
20
0.036941
30
0.0
11
0.080158
21
0.031827
31
0.0
0
LINE
8
0
6
CONTINUOUS
10
0.074607
20
-0.060152
30
0.0
11
0.087356
21
-0.064127
31
0.0
0
LINE
8
0
6
CONTINUOUS
10
0.068350
20
0.019860
30
0.0
11
0.066641
21
0.018506
31
0.0
0
LINE
8
0
6
CONTINUOUS
10
0.061551
20
0.014711
30
0.0
11
0.057451
21
0.010950
31
0.0
0
LINE
8
0
6
CONTINUOUS
10
0.083325
20
0.043354
30
0.0
11
0.084324
21
0.053005
31
0.0
0
LINE
8
0
6
CONTINUOUS
10
0.084161
20
0.052249
30
0.0
11
0.083149
21
0.042451
31
0.0
0
LINE
8
0
6
CONTINUOUS
10
0.050338
20
0.001608
30
0.0
11
0.046691
21
-0.009046
31
0.0
0
LINE
8
0
6
CONTINUOUS
10
0.057451
20
0.010950
30
0.0
11
0.050338
21
0.001608
31
0.0
0
LINE
8
0
6
CONTINUOUS
10
0.070059
20
0.021214
30
0.0
11
0.068350
21
0.019860
31
0.0
0
LINE
8
0
6
CONTINUOUS
10
0.076218
20
0.026537
30
0.0
11
0.071767
21
0.022568
31
0.0
0
LINE
8
0
6
CONTINUOUS
10
0.076218
20
0.026537
30
0.0
11
0.073320
21
0.023521
31
0.0
0
LINE
8
0
6
CONTINUOUS
10
0.047662
20
-0.019498
30
0.0
11
0.047121
21
-0.008706
31
0.0
0
LINE
8
0
6
CONTINUOUS
10
0.055556
20
-0.037897
30
0.0
11
0.062412
21
-0.044333
31
0.0
0
LINE
8
0
6
CONTINUOUS
10
0.083149
20
0.042451
30
0.0
11
0.082160
21
0.035985
31
0.0
0
LINE
8
0
6
CONTINUOUS
10
0.082352
20
0.036941
30
0.0
11
0.083325
21
0.043354
31
0.0
0
LINE
8
0
6
CONTINUOUS
10
0.085559
20
0.064828
30
0.0
11
0.087103
21
0.079981
31
0.0
0
LINE
8
0
6
CONTINUOUS
10
0.087027
20
0.079407
30
0.0
11
0.085415
21
0.064215
31
0.0
0
LINE
8
0
6
CONTINUOUS
10
0.057467
20
0.010922
30
0.0
11
0.050352
21
0.001650
31
0.0
0
LINE
8
0
6
CONTINUOUS
10
0.085415
20
0.064215
30
0.0
11
0.084161
21
0.052249
31
0.0
0
LINE
8
0
6
CONTINUOUS
10
0.086672
20
-0.055138
30
0.0
11
0.100564
21
-0.056533
31
0.0
0
LINE
8
0
6
CONTINUOUS
10
0.062412
20
-0.044333
30
0.0
11
0.073939
21
-0.051084
31
0.0
0
LINE
8
0
6
CONTINUOUS
10
0.087824
20
0.087032
30
0.0
11
0.087818
21
0.086969
31
0.0
0
LINE
8
0
6
CONTINUOUS
10
0.088148
20
0.087421
30
0.0
11
0.087824
21
0.087032
31
0.0
0
LINE
8
0
6
CONTINUOUS
10
0.093529
20
0.091412
30
0.0
11
0.090553
21
0.089710
31
0.0
0
LINE
8
0
6
CONTINUOUS
10
0.046774
20
-0.020175
30
0.0
11
0.050549
21
-0.030681
31
0.0
0
LINE
8
0
6
CONTINUOUS
10
0.061551
20
0.014711
30
0.0
11
0.057467
21
0.010922
31
0.0
0
LINE
8
0
6
CONTINUOUS
10
0.051466
20
-0.029737
30
0.0
11
0.056629
21
-0.036948
31
0.0
0
LINE
8
0
6
CONTINUOUS
10
0.075132
20
-0.050110
30
0.0
11
0.087501
21
-0.053770
31
0.0
0
LINE
8
0
6
CONTINUOUS
10
0.087501
20
-0.053770
30
0.0
11
0.100564
21
-0.054902
31
0.0
0
LINE
8
0
6
CONTINUOUS
10
0.056629
20
-0.036948
30
0.0
11
0.063900
21
-0.043696
31
0.0
0
LINE
8
0
6
CONTINUOUS
10
0.066641
20
0.018506
30
0.0
11
0.061551
21
0.014711
31
0.0
0
LINE
8
0
6
CONTINUOUS
10
0.051976
20
-0.040548
30
0.0
11
0.056877
21
-0.047484
31
0.0
0
LINE
8
0
6
CONTINUOUS
10
0.051638
20
-0.039795
30
0.0
11
0.051976
21
-0.040548
31
0.0
0
LINE
8
0
6
CONTINUOUS
10
0.047891
20
-0.029373
30
0.0
11
0.051638
21
-0.039795
31
0.0
0
LINE
8
0
6
CONTINUOUS
10
0.047865
20
-0.029228
30
0.0
11
0.047891
21
-0.029373
31
0.0
0
LINE
8
0
6
CONTINUOUS
10
0.087356
20
-0.064127
30
0.0
11
0.100564
21
-0.065463
31
0.0
0
LINE
8
0
6
CONTINUOUS
10
0.077195
20
0.027498
30
0.0
11
0.073320
21
0.023521
31
0.0
0
LINE
8
0
6
CONTINUOUS
10
0.056877
20
-0.047484
30
0.0
11
0.063388
21
-0.053563
31
0.0
0
LINE
8
0
6
CONTINUOUS
10
0.047169
20
-0.025318
30
0.0
11
0.047865
21
-0.029228
31
0.0
0
LINE
8
0
6
CONTINUOUS
10
0.071767
20
0.022568
30
0.0
11
0.070059
21
0.021214
31
0.0
0
LINE
8
0
6
CONTINUOUS
10
0.075132
20
-0.050110
30
0.0
11
0.063900
21
-0.043696
31
0.0
0
LINE
8
0
6
CONTINUOUS
10
0.050549
20
-0.030681
30
0.0
11
0.055556
21
-0.037897
31
0.0
0
LINE
8
0
6
CONTINUOUS
10
0.085559
20
0.064828
30
0.0
11
0.084324
21
0.053005
31
0.0
0
LINE
8
0
6
CONTINUOUS
10
0.080158
20
0.031827
30
0.0
11
0.076218
21
0.026537
31
0.0
0
LINE
8
0
6
CONTINUOUS
10
0.050352
20
0.001650
30
0.0
11
0.047121
21
-0.008706
31
0.0
0
LINE
8
0
6
CONTINUOUS
10
0.051466
20
-0.029737
30
0.0
11
0.047662
21
-0.019498
31
0.0
0
LINE
8
0
6
CONTINUOUS
10
0.046691
20
-0.009046
30
0.0
11
0.046774
21
-0.020175
31
0.0
0
LINE
8
0
6
CONTINUOUS
10
0.063388
20
-0.053563
30
0.0
11
0.074607
21
-0.060152
31
0.0
0
LINE
8
0
6
CONTINUOUS
10
0.073939
20
-0.051084
30
0.0
11
0.086672
21
-0.055138
31
0.0
0
LINE
8
0
6
CONTINUOUS
10
0.154221
20
-0.008876
30
0.0
11
0.150775
21
0.001650
31
0.0
0
LINE
8
0
6
CONTINUOUS
10
0.112979
20
0.087421
30
0.0
11
0.110574
21
0.089710
31
0.0
0
LINE
8
0
6
CONTINUOUS
10
0.114024
20
0.079981
30
0.0
11
0.113309
21
0.086969
31
0.0
0
LINE
8
0
6
CONTINUOUS
10
0.104159
20
0.092480
30
0.0
11
0.100564
21
0.092843
31
0.0
0
LINE
8
0
6
CONTINUOUS
10
0.107598
20
0.091412
30
0.0
11
0.104159
21
0.092480
31
0.0
0
LINE
8
0
6
CONTINUOUS
10
0.154320
20
-0.020608
30
0.0
11
0.154353
21
-0.020175
31
0.0
0
LINE
8
0
6
CONTINUOUS
10
0.150802
20
0.001567
30
0.0
11
0.143692
21
0.010977
31
0.0
0
LINE
8
0
6
CONTINUOUS
10
0.153958
20
-0.025318
30
0.0
11
0.154320
21
-0.020608
31
0.0
0
LINE
8
0
6
CONTINUOUS
10
0.120969
20
0.031827
30
0.0
11
0.118775
21
0.036941
31
0.0
0
LINE
8
0
6
CONTINUOUS
10
0.113771
20
-0.064127
30
0.0
11
0.126520
21
-0.060152
31
0.0
0
LINE
8
0
6
CONTINUOUS
10
0.134486
20
0.018506
30
0.0
11
0.132777
21
0.019860
31
0.0
0
LINE
8
0
6
CONTINUOUS
10
0.143676
20
0.010950
30
0.0
11
0.139576
21
0.014711
31
0.0
0
LINE
8
0
6
CONTINUOUS
10
0.117978
20
0.042451
30
0.0
11
0.116966
21
0.052249
31
0.0
0
LINE
8
0
6
CONTINUOUS
10
0.116803
20
0.053005
30
0.0
11
0.117802
21
0.043354
31
0.0
0
LINE
8
0
6
CONTINUOUS
10
0.154436
20
-0.009046
30
0.0
11
0.150789
21
0.001608
31
0.0
0
LINE
8
0
6
CONTINUOUS
10
0.150789
20
0.001608
30
0.0
11
0.143676
21
0.010950
31
0.0
0
LINE
8
0
6
CONTINUOUS
10
0.132777
20
0.019860
30
0.0
11
0.131069
21
0.021214
31
0.0
0
LINE
8
0
6
CONTINUOUS
10
0.124909
20
0.026537
30
0.0
11
0.127807
21
0.023521
31
0.0
0
LINE
8
0
6
CONTINUOUS
10
0.129360
20
0.022568
30
0.0
11
0.124909
21
0.026537
31
0.0
0
LINE
8
0
6
CONTINUOUS
10
0.154007
20
-0.008706
30
0.0
11
0.153466
21
-0.019498
31
0.0
0
LINE
8
0
6
CONTINUOUS
10
0.138715
20
-0.044333
30
0.0
11
0.145571
21
-0.037897
31
0.0
0
LINE
8
0
6
CONTINUOUS
10
0.117802
20
0.043354
30
0.0
11
0.118775
21
0.036941
31
0.0
0
LINE
8
0
6
CONTINUOUS
10
0.118967
20
0.035985
30
0.0
11
0.117978
21
0.042451
31
0.0
0
LINE
8
0
6
CONTINUOUS
10
0.115712
20
0.064215
30
0.0
11
0.114100
21
0.079407
31
0.0
0
LINE
8
0
6
CONTINUOUS
10
0.114024
20
0.079981
30
0.0
11
0.115568
21
0.064828
31
0.0
0
LINE
8
0
6
CONTINUOUS
10
0.150775
20
0.001650
30
0.0
11
0.143660
21
0.010922
31
0.0
0
LINE
8
0
6
CONTINUOUS
10
0.116966
20
0.052249
30
0.0
11
0.115712
21
0.064215
31
0.0
0
LINE
8
0
6
CONTINUOUS
10
0.100564
20
-0.056533
30
0.0
11
0.114455
21
-0.055138
31
0.0
0
LINE
8
0
6
CONTINUOUS
10
0.127188
20
-0.051084
30
0.0
11
0.138715
21
-0.044333
31
0.0
0
LINE
8
0
6
CONTINUOUS
10
0.113303
20
0.087032
30
0.0
11
0.112979
21
0.087421
31
0.0
0
LINE
8
0
6
CONTINUOUS
10
0.113309
20
0.086969
30
0.0
11
0.113303
21
0.087032
31
0.0
0
LINE
8
0
6
CONTINUOUS
10
0.110574
20
0.089710
30
0.0
11
0.107598
21
0.091412
31
0.0
0
LINE
8
0
6
CONTINUOUS
10
0.150578
20
-0.030681
30
0.0
11
0.154353
21
-0.020175
31
0.0
0
LINE
8
0
6
CONTINUOUS
10
0.143660
20
0.010922
30
0.0
11
0.139576
21
0.014711
31
0.0
0
LINE
8
0
6
CONTINUOUS
10
0.144498
20
-0.036948
30
0.0
11
0.149661
21
-0.029737
31
0.0
0
LINE
8
0
6
CONTINUOUS
10
0.113626
20
-0.053770
30
0.0
11
0.125995
21
-0.050110
31
0.0
0
LINE
8
0
6
CONTINUOUS
10
0.100564
20
-0.054902
30
0.0
11
0.113626
21
-0.053770
31
0.0
0
LINE
8
0
6
CONTINUOUS
10
0.137227
20
-0.043696
30
0.0
11
0.144498
21
-0.036948
31
0.0
0
LINE
8
0
6
CONTINUOUS
10
0.139576
20
0.014711
30
0.0
11
0.134486
21
0.018506
31
0.0
0
LINE
8
0
6
CONTINUOUS
10
0.149151
20
-0.040548
30
0.0
11
0.149490
21
-0.039795
31
0.0
0
LINE
8
0
6
CONTINUOUS
10
0.144250
20
-0.047484
30
0.0
11
0.149151
21
-0.040548
31
0.0
0
LINE
8
0
6
CONTINUOUS
10
0.153236
20
-0.029373
30
0.0
11
0.153262
21
-0.029228
31
0.0
0
LINE
8
0
6
CONTINUOUS
10
0.149490
20
-0.039795
30
0.0
11
0.153236
21
-0.029373
31
0.0
0
LINE
8
0
6
CONTINUOUS
10
0.100564
20
-0.065463
30
0.0
11
0.113771
21
-0.064127
31
0.0
0
LINE
8
0
6
CONTINUOUS
10
0.127807
20
0.023521
30
0.0
11
0.123932
21
0.027498
31
0.0
0
LINE
8
0
6
CONTINUOUS
10
0.137739
20
-0.053563
30
0.0
11
0.144250
21
-0.047484
31
0.0
0
LINE
8
0
6
CONTINUOUS
10
0.153262
20
-0.029228
30
0.0
11
0.153958
21
-0.025318
31
0.0
0
LINE
8
0
6
CONTINUOUS
10
0.131069
20
0.021214
30
0.0
11
0.129360
21
0.022568
31
0.0
0
LINE
8
0
6
CONTINUOUS
10
0.137227
20
-0.043696
30
0.0
11
0.125995
21
-0.050110
31
0.0
0
LINE
8
0
6
CONTINUOUS
10
0.145571
20
-0.037897
30
0.0
11
0.150578
21
-0.030681
31
0.0
0
LINE
8
0
6
CONTINUOUS
10
0.116803
20
0.053005
30
0.0
11
0.115568
21
0.064828
31
0.0
0
LINE
8
0
6
CONTINUOUS
10
0.124909
20
0.026537
30
0.0
11
0.120969
21
0.031827
31
0.0
0
LINE
8
0
6
CONTINUOUS
10
0.154007
20
-0.008706
30
0.0
11
0.150775
21
0.001650
31
0.0
0
LINE
8
0
6
CONTINUOUS
10
0.153466
20
-0.019498
30
0.0
11
0.149661
21
-0.029737
31
0.0
0
LINE
8
0
6
CONTINUOUS
10
0.154353
20
-0.020175
30
0.0
11
0.154436
21
-0.009046
31
0.0
0
LINE
8
0
6
CONTINUOUS
10
0.126520
20
-0.060152
30
0.0
11
0.137739
21
-0.053563
31
0.0
0
LINE
8
0
6
CONTINUOUS
10
0.114455
20
-0.055138
30
0.0
11
0.127188
21
-0.051084
31
0.0
0
LINE
8
0
6
CONTINUOUS
10
0.093911
20
0.116582
30
0.0
11
0.087641
21
0.113982
31
0.0
0
LINE
8
0
6
CONTINUOUS
10
0.074564
20
0.091500
30
0.0
11
0.075482
21
0.084847
31
0.0
0
LINE
8
0
6
CONTINUOUS
10
0.107217
20
0.116582
30
0.0
11
0.100564
21
0.117500
31
0.0
0
LINE
8
0
6
CONTINUOUS
10
0.125646
20
0.098153
30
0.0
11
0.123046
21
0.104423
31
0.0
0
LINE
8
0
6
CONTINUOUS
10
0.118917
20
0.073147
30
0.0
11
0.123046
21
0.078576
31
0.0
0
LINE
8
0
6
CONTINUOUS
10
0.123046
20
0.104423
30
0.0
11
0.118917
21
0.109853
31
0.0
0
LINE
8
0
6
CONTINUOUS
10
0.078082
20
0.078576
30
0.0
11
0.082211
21
0.073147
31
0.0
0
LINE
8
0
6
CONTINUOUS
10
0.087641
20
0.113982
30
0.0
11
0.082211
21
0.109853
31
0.0
0
LINE
8
0
6
CONTINUOUS
10
0.125646
20
0.084847
30
0.0
11
0.126564
21
0.091500
31
0.0
0
LINE
8
0
6
CONTINUOUS
10
0.075482
20
0.098153
30
0.0
11
0.074564
21
0.091500
31
0.0
0
LINE
8
0
6
CONTINUOUS
10
0.118917
20
0.109853
30
0.0
11
0.113487
21
0.113982
31
0.0
0
LINE
8
0
6
CONTINUOUS
10
0.082211
20
0.109853
30
0.0
11
0.078082
21
0.104423
31
0.0
0
LINE
8
0
6
CONTINUOUS
10
0.123046
20
0.078576
30
0.0
11
0.125646
21
0.084847
31
0.0
0
LINE
8
0
6
CONTINUOUS
10
0.126564
20
0.091500
30
0.0
11
0.125646
21
0.098153
31
0.0
0
LINE
8
0
6
CONTINUOUS
10
0.115074
20
0.070225
30
0.0
11
0.118917
21
0.073147
31
0.0
0
LINE
8
0
6
CONTINUOUS
10
0.100564
20
0.117500
30
0.0
11
0.093911
21
0.116582
31
0.0
0
LINE
8
0
6
CONTINUOUS
10
0.113487
20
0.113982
30
0.0
11
0.107217
21
0.116582
31
0.0
0
LINE
8
0
6
CONTINUOUS
10
0.075482
20
0.084847
30
0.0
11
0.078082
21
0.078576
31
0.0
0
LINE
8
0
6
CONTINUOUS
10
0.094116
20
0.102784
30
0.0
11
0.091360
21
0.100704
31
0.0
0
LINE
8
0
6
CONTINUOUS
10
0.082211
20
0.073147
30
0.0
11
0.086053
21
0.070225
31
0.0
0
LINE
8
0
6
CONTINUOUS
10
0.078082
20
0.104423
30
0.0
11
0.075482
21
0.098153
31
0.0
0
LINE
8
0
6
CONTINUOUS
10
0.091360
20
0.100704
30
0.0
11
0.089280
21
0.097948
31
0.0
0
LINE
8
0
6
CONTINUOUS
10
0.087564
20
0.090575
30
0.0
11
0.087564
21
0.083328
31
0.0
0
LINE
8
0
6
CONTINUOUS
10
0.113564
20
0.083328
30
0.0
11
0.113564
21
0.090575
31
0.0
0
LINE
8
0
6
CONTINUOUS
10
0.103892
20
0.094088
30
0.0
11
0.100564
21
0.094504
31
0.0
0
LINE
8
0
6
CONTINUOUS
10
0.111848
20
0.088659
30
0.0
11
0.109768
21
0.091116
31
0.0
0
LINE
8
0
6
CONTINUOUS
10
0.109768
20
0.091116
30
0.0
11
0.107012
21
0.092973
31
0.0
0
LINE
8
0
6
CONTINUOUS
10
0.107012
20
0.092973
30
0.0
11
0.103892
21
0.094088
31
0.0
0
LINE
8
0
6
CONTINUOUS
10
0.100564
20
0.094504
30
0.0
11
0.097236
21
0.094088
31
0.0
0
LINE
8
0
6
CONTINUOUS
10
0.091360
20
0.091116
30
0.0
11
0.089280
21
0.088659
31
0.0
0
LINE
8
0
6
CONTINUOUS
10
0.097236
20
0.094088
30
0.0
11
0.094116
21
0.092973
31
0.0
0
LINE
8
0
6
CONTINUOUS
10
0.094116
20
0.092973
30
0.0
11
0.091360
21
0.091116
31
0.0
0
LINE
8
0
6
CONTINUOUS
10
0.097236
20
0.104032
30
0.0
11
0.094116
21
0.102792
31
0.0
0
LINE
8
0
6
CONTINUOUS
10
0.107012
20
0.102792
30
0.0
11
0.103892
21
0.104032
31
0.0
0
LINE
8
0
6
CONTINUOUS
10
0.103892
20
0.104032
30
0.0
11
0.100564
21
0.104500
31
0.0
0
LINE
8
0
6
CONTINUOUS
10
0.113564
20
0.091486
30
0.0
11
0.113096
21
0.094882
31
0.0
0
LINE
8
0
6
CONTINUOUS
10
0.113564
20
0.090575
30
0.0
11
0.113564
21
0.091486
31
0.0
0
LINE
8
0
6
CONTINUOUS
10
0.100564
20
0.104500
30
0.0
11
0.097236
21
0.104032
31
0.0
0
LINE
8
0
6
CONTINUOUS
10
0.087564
20
0.091486
30
0.0
11
0.087564
21
0.090575
31
0.0
0
LINE
8
0
6
CONTINUOUS
10
0.088032
20
0.094882
30
0.0
11
0.087564
21
0.091486
31
0.0
0
LINE
8
0
6
CONTINUOUS
10
0.109768
20
0.100702
30
0.0
11
0.107012
21
0.102791
31
0.0
0
LINE
8
0
6
CONTINUOUS
10
0.089280
20
0.097944
30
0.0
11
0.088032
21
0.094875
31
0.0
0
LINE
8
0
6
CONTINUOUS
10
-0.110378
20
0.125307
30
0.0
11
-0.119436
21
0.126500
31
0.0
0
LINE
8
0
6
CONTINUOUS
10
-0.101936
20
0.121811
30
0.0
11
-0.110378
21
0.125307
31
0.0
0
LINE
8
0
6
CONTINUOUS
10
-0.094688
20
0.116249
30
0.0
11
-0.101936
21
0.121811
31
0.0
0
LINE
8
0
6
CONTINUOUS
10
-0.089125
20
0.109000
30
0.0
11
-0.094688
21
0.116249
31
0.0
0
LINE
8
0
6
CONTINUOUS
10
-0.085629
20
0.100559
30
0.0
11
-0.089125
21
0.109000
31
0.0
0
LINE
8
0
6
CONTINUOUS
10
-0.084436
20
0.091500
30
0.0
11
-0.085629
21
0.100559
31
0.0
0
LINE
8
0
6
CONTINUOUS
10
-0.085629
20
0.082441
30
0.0
11
-0.084436
21
0.091500
31
0.0
0
LINE
8
0
6
CONTINUOUS
10
-0.089125
20
0.074000
30
0.0
11
-0.085629
21
0.082441
31
0.0
0
LINE
8
0
6
CONTINUOUS
10
-0.094688
20
0.066751
30
0.0
11
-0.089125
21
0.074000
31
0.0
0
LINE
8
0
6
CONTINUOUS
10
-0.104936
20
0.059946
30
0.0
11
-0.101936
21
0.061189
31
0.0
0
LINE
8
0
6
CONTINUOUS
10
-0.136936
20
0.061189
30
0.0
11
-0.133936
21
0.059946
31
0.0
0
LINE
8
0
6
CONTINUOUS
10
-0.144185
20
0.066751
30
0.0
11
-0.136936
21
0.061189
31
0.0
0
LINE
8
0
6
CONTINUOUS
10
-0.149747
20
0.074000
30
0.0
11
-0.144185
21
0.066751
31
0.0
0
LINE
8
0
6
CONTINUOUS
10
-0.153244
20
0.082441
30
0.0
11
-0.149747
21
0.074000
31
0.0
0
LINE
8
0
6
CONTINUOUS
10
-0.154436
20
0.091500
30
0.0
11
-0.153244
21
0.082441
31
0.0
0
LINE
8
0
6
CONTINUOUS
10
-0.153244
20
0.100559
30
0.0
11
-0.154436
21
0.091500
31
0.0
0
LINE
8
0
6
CONTINUOUS
10
-0.149747
20
0.109000
30
0.0
11
-0.153244
21
0.100559
31
0.0
0
LINE
8
0
6
CONTINUOUS
10
-0.144185
20
0.116249
30
0.0
11
-0.149747
21
0.109000
31
0.0
0
LINE
8
0
6
CONTINUOUS
10
-0.136936
20
0.121811
30
0.0
11
-0.144185
21
0.116249
31
0.0
0
LINE
8
0
6
CONTINUOUS
10
-0.128495
20
0.125307
30
0.0
11
-0.136936
21
0.121811
31
0.0
0
LINE
8
0
6
CONTINUOUS
10
-0.119436
20
0.126500
30
0.0
11
-0.128495
21
0.125307
31
0.0
0
LINE
8
0
6
CONTINUOUS
10
-0.101936
20
0.061189
30
0.0
11
-0.094688
21
0.066751
31
0.0
0
LINE
8
0
6
CONTINUOUS
10
-0.133933
20
0.091104
30
0.0
11
-0.133936
21
0.090708
31
0.0
0
LINE
8
0
6
CONTINUOUS
10
-0.104940
20
0.091104
30
0.0
11
-0.105573
21
0.095508
31
0.0
0
LINE
8
0
6
CONTINUOUS
10
-0.104936
20
0.090708
30
0.0
11
-0.104940
21
0.091104
31
0.0
0
LINE
8
0
6
CONTINUOUS
10
-0.133943
20
0.088771
30
0.0
11
-0.133936
21
0.086835
31
0.0
0
LINE
8
0
6
CONTINUOUS
10
-0.104936
20
0.086835
30
0.0
11
-0.104929
21
0.088771
31
0.0
0
LINE
8
0
6
CONTINUOUS
10
-0.133937
20
0.083532
30
0.0
11
-0.133936
21
0.080229
31
0.0
0
LINE
8
0
6
CONTINUOUS
10
-0.104936
20
0.080229
30
0.0
11
-0.104936
21
0.083532
31
0.0
0
LINE
8
0
6
CONTINUOUS
10
-0.133938
20
0.075856
30
0.0
11
-0.133936
21
0.071484
31
0.0
0
LINE
8
0
6
CONTINUOUS
10
-0.104936
20
0.071484
30
0.0
11
-0.104934
21
0.075856
31
0.0
0
LINE
8
0
6
CONTINUOUS
10
-0.133936
20
0.066434
30
0.0
11
-0.133936
21
0.061384
31
0.0
0
LINE
8
0
6
CONTINUOUS
10
-0.104936
20
0.061384
30
0.0
11
-0.104937
21
0.066434
31
0.0
0
LINE
8
0
6
CONTINUOUS
10
-0.104936
20
0.053410
30
0.0
11
-0.104936
21
0.061384
31
0.0
0
LINE
8
0
6
CONTINUOUS
10
-0.133936
20
0.061384
30
0.0
11
-0.133936
21
0.053410
31
0.0
0
LINE
8
0
6
CONTINUOUS
10
-0.104936
20
-0.124625
30
0.0
11
-0.104936
21
0.053410
31
0.0
0
LINE
8
0
6
CONTINUOUS
10
-0.133936
20
0.053410
30
0.0
11
-0.133936
21
-0.124625
31
0.0
0
LINE
8
0
6
CONTINUOUS
10
-0.127959
20
-0.124981
30
0.0
11
-0.123917
21
-0.124862
31
0.0
0
LINE
8
0
6
CONTINUOUS
10
-0.131167
20
-0.125167
30
0.0
11
-0.127959
21
-0.124981
31
0.0
0
LINE
8
0
6
CONTINUOUS
10
-0.133227
20
-0.125401
30
0.0
11
-0.131167
21
-0.125167
31
0.0
0
LINE
8
0
6
CONTINUOUS
10
-0.133936
20
-0.124625
30
0.0
11
-0.133936
21
-0.125661
31
0.0
0
LINE
8
0
6
CONTINUOUS
10
-0.133936
20
-0.125661
30
0.0
11
-0.133227
21
-0.125401
31
0.0
0
LINE
8
0
6
CONTINUOUS
10
-0.133936
20
-0.125661
30
0.0
11
-0.133227
21
-0.125920
31
0.0
0
LINE
8
0
6
CONTINUOUS
10
-0.133227
20
-0.125920
30
0.0
11
-0.131167
21
-0.126154
31
0.0
0
LINE
8
0
6
CONTINUOUS
10
-0.131167
20
-0.126154
30
0.0
11
-0.127959
21
-0.126340
31
0.0
0
LINE
8
0
6
CONTINUOUS
10
-0.127959
20
-0.126340
30
0.0
11
-0.123917
21
-0.126459
31
0.0
0
LINE
8
0
6
CONTINUOUS
10
-0.123917
20
-0.126459
30
0.0
11
-0.119436
21
-0.126500
31
0.0
0
LINE
8
0
6
CONTINUOUS
10
-0.119436
20
-0.126500
30
0.0
11
-0.114956
21
-0.126459
31
0.0
0
LINE
8
0
6
CONTINUOUS
10
-0.114956
20
-0.126459
30
0.0
11
-0.110913
21
-0.126340
31
0.0
0
LINE
8
0
6
CONTINUOUS
10
-0.110913
20
-0.126340
30
0.0
11
-0.107706
21
-0.126154
31
0.0
0
LINE
8
0
6
CONTINUOUS
10
-0.107706
20
-0.126154
30
0.0
11
-0.105646
21
-0.125920
31
0.0
0
LINE
8
0
6
CONTINUOUS
10
-0.105646
20
-0.125920
30
0.0
11
-0.104936
21
-0.125661
31
0.0
0
LINE
8
0
6
CONTINUOUS
10
-0.104936
20
-0.125661
30
0.0
11
-0.104936
21
-0.124625
31
0.0
0
LINE
8
0
6
CONTINUOUS
10
-0.105646
20
-0.125401
30
0.0
11
-0.104936
21
-0.125661
31
0.0
0
LINE
8
0
6
CONTINUOUS
10
-0.107706
20
-0.125167
30
0.0
11
-0.105646
21
-0.125401
31
0.0
0
LINE
8
0
6
CONTINUOUS
10
-0.110913
20
-0.124981
30
0.0
11
-0.107706
21
-0.125167
31
0.0
0
LINE
8
0
6
CONTINUOUS
10
-0.114956
20
-0.124862
30
0.0
11
-0.110913
21
-0.124981
31
0.0
0
LINE
8
0
6
CONTINUOUS
10
-0.119436
20
-0.124821
30
0.0
11
-0.114956
21
-0.124862
31
0.0
0
LINE
8
0
6
CONTINUOUS
10
-0.123917
20
-0.124862
30
0.0
11
-0.119436
21
-0.124821
31
0.0
0
LINE
8
0
6
CONTINUOUS
10
-0.119436
20
0.115500
30
0.0
11
-0.125648
21
0.114682
31
0.0
0
LINE
8
0
6
CONTINUOUS
10
-0.125648
20
0.114682
30
0.0
11
-0.131436
21
0.112285
31
0.0
0
LINE
8
0
6
CONTINUOUS
10
-0.131436
20
0.112285
30
0.0
11
-0.136407
21
0.108471
31
0.0
0
LINE
8
0
6
CONTINUOUS
10
-0.136407
20
0.108471
30
0.0
11
-0.140221
21
0.103500
31
0.0
0
LINE
8
0
6
CONTINUOUS
10
-0.140221
20
0.103500
30
0.0
11
-0.142619
21
0.097712
31
0.0
0
LINE
8
0
6
CONTINUOUS
10
-0.142619
20
0.097712
30
0.0
11
-0.143436
21
0.091500
31
0.0
0
LINE
8
0
6
CONTINUOUS
10
-0.143436
20
0.091500
30
0.0
11
-0.142619
21
0.085288
31
0.0
0
LINE
8
0
6
CONTINUOUS
10
-0.142619
20
0.085288
30
0.0
11
-0.140221
21
0.079500
31
0.0
0
LINE
8
0
6
CONTINUOUS
10
-0.140221
20
0.079500
30
0.0
11
-0.136407
21
0.074529
31
0.0
0
LINE
8
0
6
CONTINUOUS
10
-0.136407
20
0.074529
30
0.0
11
-0.133937
21
0.072634
31
0.0
0
LINE
8
0
6
CONTINUOUS
10
-0.104936
20
0.072634
30
0.0
11
-0.102466
21
0.074529
31
0.0
0
LINE
8
0
6
CONTINUOUS
10
-0.102466
20
0.074529
30
0.0
11
-0.098652
21
0.079500
31
0.0
0
LINE
8
0
6
CONTINUOUS
10
-0.098652
20
0.079500
30
0.0
11
-0.096254
21
0.085288
31
0.0
0
LINE
8
0
6
CONTINUOUS
10
-0.096254
20
0.085288
30
0.0
11
-0.095436
21
0.091500
31
0.0
0
LINE
8
0
6
CONTINUOUS
10
-0.095436
20
0.091500
30
0.0
11
-0.096254
21
0.097712
31
0.0
0
LINE
8
0
6
CONTINUOUS
10
-0.096254
20
0.097712
30
0.0
11
-0.098652
21
0.103500
31
0.0
0
LINE
8
0
6
CONTINUOUS
10
-0.098652
20
0.103500
30
0.0
11
-0.102466
21
0.108471
31
0.0
0
LINE
8
0
6
CONTINUOUS
10
-0.102466
20
0.108471
30
0.0
11
-0.107436
21
0.112285
31
0.0
0
LINE
8
0
6
CONTINUOUS
10
-0.107436
20
0.112285
30
0.0
11
-0.113225
21
0.114682
31
0.0
0
LINE
8
0
6
CONTINUOUS
10
-0.113225
20
0.114682
30
0.0
11
-0.119436
21
0.115500
31
0.0
0
LINE
8
0
6
CONTINUOUS
10
-0.104929
20
0.088771
30
0.0
11
-0.104936
21
0.090708
31
0.0
0
LINE
8
0
6
CONTINUOUS
10
-0.133936
20
0.090708
30
0.0
11
-0.133943
21
0.088771
31
0.0
0
LINE
8
0
6
CONTINUOUS
10
-0.104936
20
0.083532
30
0.0
11
-0.104936
21
0.086835
31
0.0
0
LINE
8
0
6
CONTINUOUS
10
-0.133936
20
0.086835
30
0.0
11
-0.133937
21
0.083532
31
0.0
0
LINE
8
0
6
CONTINUOUS
10
-0.123917
20
0.105290
30
0.0
11
-0.127959
21
0.103231
31
0.0
0
LINE
8
0
6
CONTINUOUS
10
-0.119436
20
0.106000
30
0.0
11
-0.123917
21
0.105290
31
0.0
0
LINE
8
0
6
CONTINUOUS
10
-0.114956
20
0.105290
30
0.0
11
-0.119436
21
0.106000
31
0.0
0
LINE
8
0
6
CONTINUOUS
10
-0.110913
20
0.103231
30
0.0
11
-0.114956
21
0.105290
31
0.0
0
LINE
8
0
6
CONTINUOUS
10
-0.107706
20
0.100023
30
0.0
11
-0.110913
21
0.103231
31
0.0
0
LINE
8
0
6
CONTINUOUS
10
-0.105646
20
0.095981
30
0.0
11
-0.107706
21
0.100023
31
0.0
0
LINE
8
0
6
CONTINUOUS
10
-0.105573
20
0.095508
30
0.0
11
-0.105646
21
0.095981
31
0.0
0
LINE
8
0
6
CONTINUOUS
10
-0.104936
20
0.091500
30
0.0
11
-0.105646
21
0.095981
31
0.0
0
LINE
8
0
6
CONTINUOUS
10
-0.104940
20
0.091104
30
0.0
11
-0.104936
21
0.091500
31
0.0
0
LINE
8
0
6
CONTINUOUS
10
-0.133227
20
0.095981
30
0.0
11
-0.133936
21
0.091500
31
0.0
0
LINE
8
0
6
CONTINUOUS
10
-0.133936
20
0.091500
30
0.0
11
-0.133933
21
0.091104
31
0.0
0
LINE
8
0
6
CONTINUOUS
10
-0.131167
20
0.100023
30
0.0
11
-0.133227
21
0.095981
31
0.0
0
LINE
8
0
6
CONTINUOUS
10
-0.127959
20
0.103231
30
0.0
11
-0.131167
21
0.100023
31
0.0
0
LINE
8
0
6
CONTINUOUS
10
-0.104934
20
0.075856
30
0.0
11
-0.104936
21
0.080229
31
0.0
0
LINE
8
0
6
CONTINUOUS
10
-0.133936
20
0.080229
30
0.0
11
-0.133938
21
0.075856
31
0.0
0
LINE
8
0
6
CONTINUOUS
10
-0.104937
20
0.066434
30
0.0
11
-0.104936
21
0.071484
31
0.0
0
LINE
8
0
6
CONTINUOUS
10
-0.133936
20
0.071484
30
0.0
11
-0.133936
21
0.066434
31
0.0
0
LINE
8
0
6
CONTINUOUS
10
-0.015109
20
0.059114
30
0.0
11
-0.015109
21
0.025481
31
0.0
0
LINE
8
0
6
CONTINUOUS
10
-0.017218
20
0.069875
30
0.0
11
-0.016348
21
0.068369
31
0.0
0
LINE
8
0
6
CONTINUOUS
10
-0.020596
20
0.071970
30
0.0
11
-0.018043
21
0.070539
31
0.0
0
LINE
8
0
6
CONTINUOUS
10
-0.015430
20
0.065855
30
0.0
11
-0.015026
21
0.062840
31
0.0
0
LINE
8
0
6
CONTINUOUS
10
-0.014617
20
0.063162
30
0.0
11
-0.015128
21
0.065959
31
0.0
0
LINE
8
0
6
CONTINUOUS
10
-0.011607
20
0.065256
30
0.0
11
-0.011607
21
0.062091
31
0.0
0
LINE
8
0
6
CONTINUOUS
10
-0.015026
20
0.062840
30
0.0
11
-0.015109
21
0.059114
31
0.0
0
LINE
8
0
6
CONTINUOUS
10
-0.014677
20
0.059405
30
0.0
11
-0.014617
21
0.063162
31
0.0
0
LINE
8
0
6
CONTINUOUS
10
-0.018043
20
0.070539
30
0.0
11
-0.017218
21
0.069875
31
0.0
0
LINE
8
0
6
CONTINUOUS
10
-0.015649
20
0.066634
30
0.0
11
-0.015430
21
0.065855
31
0.0
0
LINE
8
0
6
CONTINUOUS
10
-0.016348
20
0.068369
30
0.0
11
-0.015649
21
0.066634
31
0.0
0
LINE
8
0
6
CONTINUOUS
10
-0.011607
20
0.026859
30
0.0
11
-0.011607
21
0.026368
31
0.0
0
LINE
8
0
6
CONTINUOUS
10
-0.009436
20
0.026481
30
0.0
11
-0.011607
21
0.026368
31
0.0
0
LINE
8
0
6
CONTINUOUS
10
-0.014019
20
0.025820
30
0.0
11
-0.014677
21
0.025561
31
0.0
0
LINE
8
0
6
CONTINUOUS
10
-0.011607
20
0.026368
30
0.0
11
-0.012527
21
0.026206
31
0.0
0
LINE
8
0
6
CONTINUOUS
10
-0.015109
20
0.025481
30
0.0
11
-0.015109
21
0.024991
31
0.0
0
LINE
8
0
6
CONTINUOUS
10
-0.014677
20
0.025561
30
0.0
11
-0.015109
21
0.024991
31
0.0
0
LINE
8
0
6
CONTINUOUS
10
-0.015109
20
0.024991
30
0.0
11
-0.014677
21
0.024420
31
0.0
0
LINE
8
0
6
CONTINUOUS
10
-0.014677
20
0.024420
30
0.0
11
-0.013447
21
0.023937
31
0.0
0
LINE
8
0
6
CONTINUOUS
10
-0.013447
20
0.023937
30
0.0
11
-0.011607
21
0.023613
31
0.0
0
LINE
8
0
6
CONTINUOUS
10
-0.011607
20
0.023613
30
0.0
11
-0.009436
21
0.023500
31
0.0
0
LINE
8
0
6
CONTINUOUS
10
-0.011607
20
0.062091
30
0.0
11
-0.011607
21
0.026859
31
0.0
0
LINE
8
0
6
CONTINUOUS
10
-0.031126
20
0.097260
30
0.0
11
-0.031936
21
0.091500
31
0.0
0
LINE
8
0
6
CONTINUOUS
10
-0.031936
20
0.091500
30
0.0
11
-0.031126
21
0.085740
31
0.0
0
LINE
8
0
6
CONTINUOUS
10
-0.020596
20
0.111030
30
0.0
11
-0.025366
21
0.107430
31
0.0
0
LINE
8
0
6
CONTINUOUS
10
-0.015196
20
0.113190
30
0.0
11
-0.020596
21
0.111030
31
0.0
0
LINE
8
0
6
CONTINUOUS
10
-0.009436
20
0.114000
30
0.0
11
-0.015196
21
0.113190
31
0.0
0
LINE
8
0
6
CONTINUOUS
10
-0.025366
20
0.107430
30
0.0
11
-0.028966
21
0.102660
31
0.0
0
LINE
8
0
6
CONTINUOUS
10
-0.028966
20
0.080340
30
0.0
11
-0.025366
21
0.075570
31
0.0
0
LINE
8
0
6
CONTINUOUS
10
-0.031126
20
0.085740
30
0.0
11
-0.028966
21
0.080340
31
0.0
0
LINE
8
0
6
CONTINUOUS
10
-0.025366
20
0.075570
30
0.0
11
-0.020596
21
0.071970
31
0.0
0
LINE
8
0
6
CONTINUOUS
10
-0.028966
20
0.102660
30
0.0
11
-0.031126
21
0.097260
31
0.0
0
LINE
8
0
6
CONTINUOUS
10
-0.013471
20
0.063544
30
0.0
11
-0.013489
21
0.059604
31
0.0
0
LINE
8
0
6
CONTINUOUS
10
-0.014079
20
0.066019
30
0.0
11
-0.013471
21
0.063544
31
0.0
0
LINE
8
0
6
CONTINUOUS
10
-0.016553
20
0.069768
30
0.0
11
-0.017562
21
0.070481
31
0.0
0
LINE
8
0
6
CONTINUOUS
10
-0.020596
20
0.071970
30
0.0
11
-0.017562
21
0.070481
31
0.0
0
LINE
8
0
6
CONTINUOUS
10
-0.020596
20
0.071970
30
0.0
11
-0.017707
21
0.070499
31
0.0
0
LINE
8
0
6
CONTINUOUS
10
-0.015324
20
0.068272
30
0.0
11
-0.016553
21
0.069768
31
0.0
0
LINE
8
0
6
CONTINUOUS
10
-0.014404
20
0.066755
30
0.0
11
-0.015324
21
0.068272
31
0.0
0
LINE
8
0
6
CONTINUOUS
10
-0.016769
20
0.069803
30
0.0
11
-0.017218
21
0.069875
31
0.0
0
LINE
8
0
6
CONTINUOUS
10
-0.014404
20
0.066755
30
0.0
11
-0.014079
21
0.066019
31
0.0
0
LINE
8
0
6
CONTINUOUS
10
-0.013489
20
0.059604
30
0.0
11
-0.013447
21
0.026535
31
0.0
0
LINE
8
0
6
CONTINUOUS
10
-0.013447
20
0.026045
30
0.0
11
-0.014019
21
0.025820
31
0.0
0
LINE
8
0
6
CONTINUOUS
10
-0.012527
20
0.026206
30
0.0
11
-0.013447
21
0.026045
31
0.0
0
LINE
8
0
6
CONTINUOUS
10
-0.003764
20
0.025481
30
0.0
11
-0.003764
21
0.059114
31
0.0
0
LINE
8
0
6
CONTINUOUS
10
-0.002525
20
0.068369
30
0.0
11
-0.001655
21
0.069875
31
0.0
0
LINE
8
0
6
CONTINUOUS
10
-0.009436
20
0.074945
30
0.0
11
-0.009436
21
0.070487
31
0.0
0
LINE
8
0
6
CONTINUOUS
10
-0.000830
20
0.070539
30
0.0
11
0.001724
21
0.071970
31
0.0
0
LINE
8
0
6
CONTINUOUS
10
-0.003745
20
0.065959
30
0.0
11
-0.004255
21
0.063162
31
0.0
0
LINE
8
0
6
CONTINUOUS
10
-0.003847
20
0.062840
30
0.0
11
-0.003443
21
0.065855
31
0.0
0
LINE
8
0
6
CONTINUOUS
10
-0.009436
20
0.070487
30
0.0
11
-0.009436
21
0.066107
31
0.0
0
LINE
8
0
6
CONTINUOUS
10
-0.009436
20
0.066107
30
0.0
11
-0.009436
21
0.062882
31
0.0
0
LINE
8
0
6
CONTINUOUS
10
-0.007266
20
0.062091
30
0.0
11
-0.007266
21
0.065256
31
0.0
0
LINE
8
0
6
CONTINUOUS
10
-0.004255
20
0.063162
30
0.0
11
-0.004196
21
0.059405
31
0.0
0
LINE
8
0
6
CONTINUOUS
10
-0.003764
20
0.059114
30
0.0
11
-0.003847
21
0.062840
31
0.0
0
LINE
8
0
6
CONTINUOUS
10
-0.001655
20
0.069875
30
0.0
11
-0.000830
21
0.070539
31
0.0
0
LINE
8
0
6
CONTINUOUS
10
-0.003443
20
0.065855
30
0.0
11
-0.003224
21
0.066634
31
0.0
0
LINE
8
0
6
CONTINUOUS
10
-0.009436
20
0.080069
30
0.0
11
-0.009436
21
0.074945
31
0.0
0
LINE
8
0
6
CONTINUOUS
10
-0.003224
20
0.066634
30
0.0
11
-0.002525
21
0.068369
31
0.0
0
LINE
8
0
6
CONTINUOUS
10
-0.007266
20
0.026368
30
0.0
11
-0.007266
21
0.026859
31
0.0
0
LINE
8
0
6
CONTINUOUS
10
-0.009436
20
0.026972
30
0.0
11
-0.009436
21
0.026481
31
0.0
0
LINE
8
0
6
CONTINUOUS
10
-0.007266
20
0.026368
30
0.0
11
-0.009436
21
0.026481
31
0.0
0
LINE
8
0
6
CONTINUOUS
10
-0.004196
20
0.025561
30
0.0
11
-0.004854
21
0.025820
31
0.0
0
LINE
8
0
6
CONTINUOUS
10
-0.006345
20
0.026206
30
0.0
11
-0.007266
21
0.026368
31
0.0
0
LINE
8
0
6
CONTINUOUS
10
-0.003764
20
0.024991
30
0.0
11
-0.003764
21
0.025481
31
0.0
0
LINE
8
0
6
CONTINUOUS
10
-0.003764
20
0.024991
30
0.0
11
-0.004196
21
0.025561
31
0.0
0
LINE
8
0
6
CONTINUOUS
10
-0.004196
20
0.024420
30
0.0
11
-0.003764
21
0.024991
31
0.0
0
LINE
8
0
6
CONTINUOUS
10
-0.005425
20
0.023937
30
0.0
11
-0.004196
21
0.024420
31
0.0
0
LINE
8
0
6
CONTINUOUS
10
-0.007266
20
0.023613
30
0.0
11
-0.005425
21
0.023937
31
0.0
0
LINE
8
0
6
CONTINUOUS
10
-0.009436
20
0.023500
30
0.0
11
-0.007266
21
0.023613
31
0.0
0
LINE
8
0
6
CONTINUOUS
10
-0.009436
20
0.062882
30
0.0
11
-0.009436
21
0.026972
31
0.0
0
LINE
8
0
6
CONTINUOUS
10
-0.007266
20
0.026859
30
0.0
11
-0.007266
21
0.062091
31
0.0
0
LINE
8
0
6
CONTINUOUS
10
0.013064
20
0.091500
30
0.0
11
0.012254
21
0.097260
31
0.0
0
LINE
8
0
6
CONTINUOUS
10
0.012254
20
0.085740
30
0.0
11
0.013064
21
0.091500
31
0.0
0
LINE
8
0
6
CONTINUOUS
10
0.006494
20
0.107430
30
0.0
11
0.001724
21
0.111030
31
0.0
0
LINE
8
0
6
CONTINUOUS
10
0.001724
20
0.111030
30
0.0
11
-0.003676
21
0.113190
31
0.0
0
LINE
8
0
6
CONTINUOUS
10
-0.003676
20
0.113190
30
0.0
11
-0.009436
21
0.114000
31
0.0
0
LINE
8
0
6
CONTINUOUS
10
0.010094
20
0.102660
30
0.0
11
0.006494
21
0.107430
31
0.0
0
LINE
8
0
6
CONTINUOUS
10
0.006494
20
0.075570
30
0.0
11
0.010094
21
0.080340
31
0.0
0
LINE
8
0
6
CONTINUOUS
10
0.010094
20
0.080340
30
0.0
11
0.012254
21
0.085740
31
0.0
0
LINE
8
0
6
CONTINUOUS
10
0.001724
20
0.071970
30
0.0
11
0.006494
21
0.075570
31
0.0
0
LINE
8
0
6
CONTINUOUS
10
0.012254
20
0.097260
30
0.0
11
0.010094
21
0.102660
31
0.0
0
LINE
8
0
6
CONTINUOUS
10
-0.005384
20
0.059604
30
0.0
11
-0.005402
21
0.063544
31
0.0
0
LINE
8
0
6
CONTINUOUS
10
-0.005402
20
0.063544
30
0.0
11
-0.004793
21
0.066019
31
0.0
0
LINE
8
0
6
CONTINUOUS
10
-0.001311
20
0.070481
30
0.0
11
-0.002320
21
0.069768
31
0.0
0
LINE
8
0
6
CONTINUOUS
10
-0.001311
20
0.070481
30
0.0
11
0.001724
21
0.071970
31
0.0
0
LINE
8
0
6
CONTINUOUS
10
-0.001165
20
0.070499
30
0.0
11
0.001724
21
0.071970
31
0.0
0
LINE
8
0
6
CONTINUOUS
10
-0.002320
20
0.069768
30
0.0
11
-0.003549
21
0.068272
31
0.0
0
LINE
8
0
6
CONTINUOUS
10
-0.003549
20
0.068272
30
0.0
11
-0.004469
21
0.066755
31
0.0
0
LINE
8
0
6
CONTINUOUS
10
-0.001655
20
0.069875
30
0.0
11
-0.002103
21
0.069803
31
0.0
0
LINE
8
0
6
CONTINUOUS
10
-0.004793
20
0.066019
30
0.0
11
-0.004469
21
0.066755
31
0.0
0
LINE
8
0
6
CONTINUOUS
10
-0.005425
20
0.026535
30
0.0
11
-0.005384
21
0.059604
31
0.0
0
LINE
8
0
6
CONTINUOUS
10
-0.004854
20
0.025820
30
0.0
11
-0.005425
21
0.026045
31
0.0
0
LINE
8
0
6
CONTINUOUS
10
-0.005425
20
0.026045
30
0.0
11
-0.006345
21
0.026206
31
0.0
0
LINE
8
0
6
CONTINUOUS
10
-0.009436
20
0.086141
30
0.0
11
-0.009436
21
0.080069
31
0.0
0
LINE
8
0
6
CONTINUOUS
10
-0.000378
20
0.125307
30
0.0
11
-0.009436
21
0.126500
31
0.0
0
LINE
8
0
6
CONTINUOUS
10
0.008064
20
0.121811
30
0.0
11
-0.000378
21
0.125307
31
0.0
0
LINE
8
0
6
CONTINUOUS
10
0.015312
20
0.116249
30
0.0
11
0.008064
21
0.121811
31
0.0
0
LINE
8
0
6
CONTINUOUS
10
0.020875
20
0.109000
30
0.0
11
0.015312
21
0.116249
31
0.0
0
LINE
8
0
6
CONTINUOUS
10
0.024371
20
0.100559
30
0.0
11
0.020875
21
0.109000
31
0.0
0
LINE
8
0
6
CONTINUOUS
10
0.025564
20
0.091500
30
0.0
11
0.024371
21
0.100559
31
0.0
0
LINE
8
0
6
CONTINUOUS
10
0.024371
20
0.082441
30
0.0
11
0.025564
21
0.091500
31
0.0
0
LINE
8
0
6
CONTINUOUS
10
0.020875
20
0.074000
30
0.0
11
0.024371
21
0.082441
31
0.0
0
LINE
8
0
6
CONTINUOUS
10
0.015312
20
0.066751
30
0.0
11
0.020875
21
0.074000
31
0.0
0
LINE
8
0
6
CONTINUOUS
10
-0.000378
20
0.057693
30
0.0
11
0.008064
21
0.061189
31
0.0
0
LINE
8
0
6
CONTINUOUS
10
-0.003764
20
0.057247
30
0.0
11
-0.000378
21
0.057693
31
0.0
0
LINE
8
0
6
CONTINUOUS
10
-0.018495
20
0.057693
30
0.0
11
-0.015109
21
0.057247
31
0.0
0
LINE
8
0
6
CONTINUOUS
10
-0.026936
20
0.061189
30
0.0
11
-0.018495
21
0.057693
31
0.0
0
LINE
8
0
6
CONTINUOUS
10
-0.034185
20
0.066751
30
0.0
11
-0.026936
21
0.061189
31
0.0
0
LINE
8
0
6
CONTINUOUS
10
-0.039747
20
0.074000
30
0.0
11
-0.034185
21
0.066751
31
0.0
0
LINE
8
0
6
CONTINUOUS
10
-0.043244
20
0.082441
30
0.0
11
-0.039747
21
0.074000
31
0.0
0
LINE
8
0
6
CONTINUOUS
10
-0.044436
20
0.091500
30
0.0
11
-0.043244
21
0.082441
31
0.0
0
LINE
8
0
6
CONTINUOUS
10
-0.043244
20
0.100559
30
0.0
11
-0.044436
21
0.091500
31
0.0
0
LINE
8
0
6
CONTINUOUS
10
-0.039747
20
0.109000
30
0.0
11
-0.043244
21
0.100559
31
0.0
0
LINE
8
0
6
CONTINUOUS
10
-0.034185
20
0.116249
30
0.0
11
-0.039747
21
0.109000
31
0.0
0
LINE
8
0
6
CONTINUOUS
10
-0.026936
20
0.121811
30
0.0
11
-0.034185
21
0.116249
31
0.0
0
LINE
8
0
6
CONTINUOUS
10
-0.018495
20
0.125307
30
0.0
11
-0.026936
21
0.121811
31
0.0
0
LINE
8
0
6
CONTINUOUS
10
-0.009436
20
0.126500
30
0.0
11
-0.018495
21
0.125307
31
0.0
0
LINE
8
0
6
CONTINUOUS
10
0.008064
20
0.061189
30
0.0
11
0.015312
21
0.066751
31
0.0
0
ENDSEC
0
EOF
