  0
SECTION
  2
HEADER
  9
$ACADVER
  1
AC1015
  9
$ACADMAINTVER
 70
     6
  9
$DWGCODEPAGE
  3
ANSI_1252
  9
$INSBASE
 10
0.0
 20
0.0
 30
0.0
  9
$EXTMIN
 10
-0.15235
 20
0.1165
 30
0.0
  9
$EXTMAX
 10
176.15235
 20
117.8835
 30
0.0
  9
$LIMMIN
 10
0.0
 20
0.0
  9
$LIMMAX
 10
12.0
 20
9.0
  9
$ORTHOMODE
 70
     0
  9
$REGENMODE
 70
     1
  9
$FILLMODE
 70
     1
  9
$QTEXTMODE
 70
     0
  9
$MIRRTEXT
 70
     1
  9
$LTSCALE
 40
1.0
  9
$ATTMODE
 70
     1
  9
$TEXTSIZE
 40
0.2
  9
$TRACEWID
 40
0.05
  9
$TEXTSTYLE
  7
Standard
  9
$CLAYER
  8
0
  9
$CELTYPE
  6
ByBlock
  9
$CECOLOR
 62
   256
  9
$CELTSCALE
 40
1.0
  9
$DISPSILH
 70
     0
  9
$DIMSCALE
 40
1.0
  9
$DIMASZ
 40
0.18
  9
$DIMEXO
 40
0.0625
  9
$DIMDLI
 40
0.38
  9
$DIMRND
 40
0.0
  9
$DIMDLE
 40
0.0
  9
$DIMEXE
 40
0.18
  9
$DIMTP
 40
0.0
  9
$DIMTM
 40
0.0
  9
$DIMTXT
 40
0.18
  9
$DIMCEN
 40
0.09
  9
$DIMTSZ
 40
0.0
  9
$DIMTOL
 70
     0
  9
$DIMLIM
 70
     0
  9
$DIMTIH
 70
     1
  9
$DIMTOH
 70
     1
  9
$DIMSE1
 70
     0
  9
$DIMSE2
 70
     0
  9
$DIMTAD
 70
     0
  9
$DIMZIN
 70
     0
  9
$DIMBLK
  1

  9
$DIMASO
 70
     1
  9
$DIMSHO
 70
     1
  9
$DIMPOST
  1

  9
$DIMAPOST
  1

  9
$DIMALT
 70
     0
  9
$DIMALTD
 70
     2
  9
$DIMALTF
 40
25.4
  9
$DIMLFAC
 40
1.0
  9
$DIMTOFL
 70
     0
  9
$DIMTVP
 40
0.0
  9
$DIMTIX
 70
     0
  9
$DIMSOXD
 70
     0
  9
$DIMSAH
 70
     0
  9
$DIMBLK1
  1

  9
$DIMBLK2
  1

  9
$DIMSTYLE
  2
Standard
  9
$DIMCLRD
 70
     0
  9
$DIMCLRE
 70
     0
  9
$DIMCLRT
 70
     0
  9
$DIMTFAC
 40
1.0
  9
$DIMGAP
 40
0.09
  9
$DIMJUST
 70
     0
  9
$DIMSD1
 70
     0
  9
$DIMSD2
 70
     0
  9
$DIMTOLJ
 70
     1
  9
$DIMTZIN
 70
     0
  9
$DIMALTZ
 70
     0
  9
$DIMALTTZ
 70
     0
  9
$DIMUPT
 70
     0
  9
$DIMDEC
 70
     4
  9
$DIMTDEC
 70
     4
  9
$DIMALTU
 70
     2
  9
$DIMALTTD
 70
     2
  9
$DIMTXSTY
  7
Standard
  9
$DIMAUNIT
 70
     0
  9
$DIMADEC
 70
     0
  9
$DIMALTRND
 40
0.0
  9
$DIMAZIN
 70
     0
  9
$DIMDSEP
 70
    46
  9
$DIMATFIT
 70
     3
  9
$DIMFRAC
 70
     0
  9
$DIMLDRBLK
  1

  9
$DIMLUNIT
 70
     2
  9
$DIMLWD
 70
    -2
  9
$DIMLWE
 70
    -2
  9
$DIMTMOVE
 70
     2
  9
$LUNITS
 70
     2
  9
$LUPREC
 70
     4
  9
$SKETCHINC
 40
0.1
  9
$FILLETRAD
 40
0.5
  9
$AUNITS
 70
     0
  9
$AUPREC
 70
     0
  9
$MENU
  1
.
  9
$ELEVATION
 40
0.0
  9
$PELEVATION
 40
0.0
  9
$THICKNESS
 40
0.0
  9
$LIMCHECK
 70
     0
  9
$CHAMFERA
 40
0.5
  9
$CHAMFERB
 40
0.5
  9
$CHAMFERC
 40
1.0
  9
$CHAMFERD
 40
0.0
  9
$SKPOLY
 70
     0
  9
$TDCREATE
 40
2455873.37834544
  9
$TDUCREATE
 40
2455873.336678773
  9
$TDUPDATE
 40
2455873.38073603
  9
$TDUUPDATE
 40
2455873.339069363
  9
$TDINDWG
 40
0.0023904167
  9
$TDUSRTIMER
 40
0.0023904167
  9
$USRTIMER
 70
     1
  9
$ANGBASE
 50
0.0
  9
$ANGDIR
 70
     0
  9
$PDMODE
 70
     0
  9
$PDSIZE
 40
0.0
  9
$PLINEWID
 40
0.0
  9
$SPLFRAME
 70
     0
  9
$SPLINETYPE
 70
     6
  9
$SPLINESEGS
 70
     8
  9
$HANDSEED
  5
3D1
  9
$SURFTAB1
 70
     6
  9
$SURFTAB2
 70
     6
  9
$SURFTYPE
 70
     6
  9
$SURFU
 70
     6
  9
$SURFV
 70
     6
  9
$UCSBASE
  2

  9
$UCSNAME
  2

  9
$UCSORG
 10
0.0
 20
0.0
 30
0.0
  9
$UCSXDIR
 10
1.0
 20
0.0
 30
0.0
  9
$UCSYDIR
 10
0.0
 20
1.0
 30
0.0
  9
$UCSORTHOREF
  2

  9
$UCSORTHOVIEW
 70
     0
  9
$UCSORGTOP
 10
0.0
 20
0.0
 30
0.0
  9
$UCSORGBOTTOM
 10
0.0
 20
0.0
 30
0.0
  9
$UCSORGLEFT
 10
0.0
 20
0.0
 30
0.0
  9
$UCSORGRIGHT
 10
0.0
 20
0.0
 30
0.0
  9
$UCSORGFRONT
 10
0.0
 20
0.0
 30
0.0
  9
$UCSORGBACK
 10
0.0
 20
0.0
 30
0.0
  9
$PUCSBASE
  2

  9
$PUCSNAME
  2

  9
$PUCSORG
 10
0.0
 20
0.0
 30
0.0
  9
$PUCSXDIR
 10
1.0
 20
0.0
 30
0.0
  9
$PUCSYDIR
 10
0.0
 20
1.0
 30
0.0
  9
$PUCSORTHOREF
  2

  9
$PUCSORTHOVIEW
 70
     0
  9
$PUCSORGTOP
 10
0.0
 20
0.0
 30
0.0
  9
$PUCSORGBOTTOM
 10
0.0
 20
0.0
 30
0.0
  9
$PUCSORGLEFT
 10
0.0
 20
0.0
 30
0.0
  9
$PUCSORGRIGHT
 10
0.0
 20
0.0
 30
0.0
  9
$PUCSORGFRONT
 10
0.0
 20
0.0
 30
0.0
  9
$PUCSORGBACK
 10
0.0
 20
0.0
 30
0.0
  9
$USERI1
 70
     0
  9
$USERI2
 70
     0
  9
$USERI3
 70
     0
  9
$USERI4
 70
     0
  9
$USERI5
 70
     0
  9
$USERR1
 40
0.0
  9
$USERR2
 40
0.0
  9
$USERR3
 40
0.0
  9
$USERR4
 40
0.0
  9
$USERR5
 40
0.0
  9
$WORLDVIEW
 70
     1
  9
$SHADEDGE
 70
     3
  9
$SHADEDIF
 70
    70
  9
$TILEMODE
 70
     1
  9
$MAXACTVP
 70
    64
  9
$PINSBASE
 10
0.0
 20
0.0
 30
0.0
  9
$PLIMCHECK
 70
     0
  9
$PEXTMIN
 10
1.000000000000E+20
 20
1.000000000000E+20
 30
1.000000000000E+20
  9
$PEXTMAX
 10
-1.000000000000E+20
 20
-1.000000000000E+20
 30
-1.000000000000E+20
  9
$PLIMMIN
 10
0.0
 20
0.0
  9
$PLIMMAX
 10
12.0
 20
9.0
  9
$UNITMODE
 70
     0
  9
$VISRETAIN
 70
     1
  9
$PLINEGEN
 70
     0
  9
$PSLTSCALE
 70
     1
  9
$TREEDEPTH
 70
  3020
  9
$CMLSTYLE
  2
Standard
  9
$CMLJUST
 70
     0
  9
$CMLSCALE
 40
1.0
  9
$PROXYGRAPHICS
 70
     1
  9
$MEASUREMENT
 70
     0
  9
$CELWEIGHT
370
    -1
  9
$ENDCAPS
280
     0
  9
$JOINSTYLE
280
     0
  9
$LWDISPLAY
290
     0
  9
$INSUNITS
 70
     0
  9
$HYPERLINKBASE
  1

  9
$STYLESHEET
  1

  9
$XEDIT
290
     1
  9
$CEPSNTYPE
380
     0
  9
$PSTYLEMODE
290
     1
  9
$FINGERPRINTGUID
  2
{41C072E5-6BA8-4B1C-8E37-92E260AA17E0}
  9
$VERSIONGUID
  2
{FAEB1C32-E019-11D5-929B-00C0DF256EC4}
  9
$EXTNAMES
290
     1
  9
$PSVPSCALE
 40
0.0
  9
$OLESTARTUP
290
     0
  0
ENDSEC
  0
SECTION
  2
CLASSES
  0
CLASS
  1
ACDBDICTIONARYWDFLT
  2
AcDbDictionaryWithDefault
  3
ObjectDBX Classes
 90
        0
280
     0
281
     0
  0
CLASS
  1
SCALE
  2
AcDbScale
  3
ObjectDBX Classes
 90
     1153
280
     0
281
     0
  0
CLASS
  1
DICTIONARYVAR
  2
AcDbDictionaryVar
  3
ObjectDBX Classes
 90
        0
280
     0
281
     0
  0
CLASS
  1
ACDBPLACEHOLDER
  2
AcDbPlaceHolder
  3
ObjectDBX Classes
 90
        0
280
     0
281
     0
  0
CLASS
  1
LAYOUT
  2
AcDbLayout
  3
ObjectDBX Classes
 90
        0
280
     0
281
     0
  0
ENDSEC
  0
SECTION
  2
TABLES
  0
TABLE
  2
VPORT
  5
8
330
0
100
AcDbSymbolTable
 70
     1
  0
VPORT
  5
39B
330
8
100
AcDbSymbolTableRecord
100
AcDbViewportTableRecord
  2
*Active
 70
     0
 10
0.0
 20
0.0
 11
1.0
 21
1.0
 12
88.0
 22
58.94175
 13
0.0
 23
0.0
 14
0.5
 24
0.5
 15
0.5
 25
0.5
 16
0.0
 26
0.0
 36
1.0
 17
0.0
 27
0.0
 37
0.0
 40
120.24117
 41
2.271724137931
 42
50.0
 43
0.0
 44
0.0
 50
0.0
 51
0.0
 71
    16
 72
   100
 73
     1
 74
     3
 75
     0
 76
     0
 77
     0
 78
     0
281
     0
 65
     1
110
0.0
120
0.0
130
0.0
111
1.0
121
0.0
131
0.0
112
0.0
122
1.0
132
0.0
 79
     0
146
0.0
  0
ENDTAB
  0
TABLE
  2
LTYPE
  5
5
330
0
100
AcDbSymbolTable
 70
     1
  0
LTYPE
  5
14
330
5
100
AcDbSymbolTableRecord
100
AcDbLinetypeTableRecord
  2
ByBlock
 70
     0
  3

 72
    65
 73
     0
 40
0.0
  0
LTYPE
  5
15
330
5
100
AcDbSymbolTableRecord
100
AcDbLinetypeTableRecord
  2
ByLayer
 70
     0
  3

 72
    65
 73
     0
 40
0.0
  0
LTYPE
  5
16
330
5
100
AcDbSymbolTableRecord
100
AcDbLinetypeTableRecord
  2
Continuous
 70
     0
  3
Solid line
 72
    65
 73
     0
 40
0.0
  0
ENDTAB
  0
TABLE
  2
LAYER
  5
2
330
0
100
AcDbSymbolTable
 70
     1
  0
LAYER
  5
10
330
2
100
AcDbSymbolTableRecord
100
AcDbLayerTableRecord
  2
0
 70
     0
 62
     7
  6
Continuous
370
    -3
390
F
  0
ENDTAB
  0
TABLE
  2
STYLE
  5
3
330
0
100
AcDbSymbolTable
 70
     1
  0
STYLE
  5
11
330
3
100
AcDbSymbolTableRecord
100
AcDbTextStyleTableRecord
  2
Standard
 70
     0
 40
0.0
 41
1.0
 50
0.0
 71
     0
 42
0.2
  3
txt
  4

  0
ENDTAB
  0
TABLE
  2
VIEW
  5
6
330
0
100
AcDbSymbolTable
 70
     0
  0
ENDTAB
  0
TABLE
  2
UCS
  5
7
330
0
100
AcDbSymbolTable
 70
     0
  0
ENDTAB
  0
TABLE
  2
APPID
  5
9
330
0
100
AcDbSymbolTable
 70
     1
  0
APPID
  5
12
330
9
100
AcDbSymbolTableRecord
100
AcDbRegAppTableRecord
  2
ACAD
 70
     0
  0
ENDTAB
  0
TABLE
  2
DIMSTYLE
  5
A
330
0
100
AcDbSymbolTable
 70
     1
100
AcDbDimStyleTable
  0
DIMSTYLE
105
20
330
A
100
AcDbSymbolTableRecord
100
AcDbDimStyleTableRecord
  2
Standard
 70
     0
340
11
  0
ENDTAB
  0
TABLE
  2
BLOCK_RECORD
  5
1
330
0
100
AcDbSymbolTable
 70
     0
  0
BLOCK_RECORD
  5
1D
330
1
100
AcDbSymbolTableRecord
100
AcDbBlockTableRecord
  2
*Model_Space
340
1E
  0
BLOCK_RECORD
  5
1B
330
1
100
AcDbSymbolTableRecord
100
AcDbBlockTableRecord
  2
*Paper_Space
340
1C
  0
ENDTAB
  0
ENDSEC
  0
SECTION
  2
BLOCKS
  0
BLOCK
  5
39E
330
1D
100
AcDbEntity
  8
0
100
AcDbBlockBegin
  2
*Model_Space
 70
     0
 10
0.0
 20
0.0
 30
0.0
  3
*Model_Space
  1
*Model_Space
  0
ENDBLK
  5
39F
330
1D
100
AcDbEntity
  8
0
100
AcDbBlockEnd
  0
BLOCK
  5
39C
330
1B
100
AcDbEntity
 67
     1
  8
0
100
AcDbBlockBegin
  2
*Paper_Space
 70
     0
 10
0.0
 20
0.0
 30
0.0
  3
*Paper_Space
  1
*Paper_Space
  0
ENDBLK
  5
39D
330
1B
100
AcDbEntity
 67
     1
  8
0
100
AcDbBlockEnd
  0
ENDSEC
  0
SECTION
  2
ENTITIES
  0
LINE
  5
21
330
1D
100
AcDbEntity
  8
0
100
AcDbLine
 10
119.26645
 20
0.1165
 30
0.0
 11
121.37905
 21
0.1165
 31
0.0
  0
LINE
  5
22
330
1D
100
AcDbEntity
  8
0
100
AcDbLine
 10
119.26645
 20
0.1165
 30
0.0
 11
120.78435
 21
0.1165
 31
0.0
  0
LINE
  5
23
330
1D
100
AcDbEntity
  8
0
100
AcDbLine
 10
121.37905
 20
0.1165
 30
0.0
 11
123.60525
 21
0.1165
 31
0.0
  0
LINE
  5
24
330
1D
100
AcDbEntity
  8
0
100
AcDbLine
 10
120.78435
 20
0.1165
 30
0.0
 11
122.80255
 21
0.1165
 31
0.0
  0
LINE
  5
25
330
1D
100
AcDbEntity
  8
0
100
AcDbLine
 10
120.42285
 20
0.1165
 30
0.0
 11
122.41845
 21
0.1165
 31
0.0
  0
LINE
  5
26
330
1D
100
AcDbEntity
  8
0
100
AcDbLine
 10
120.31625
 20
0.1165
 30
0.0
 11
122.48865
 21
0.1165
 31
0.0
  0
LINE
  5
27
330
1D
100
AcDbEntity
  8
0
100
AcDbLine
 10
113.90645
 20
0.1165
 30
0.0
 11
115.28215
 21
0.1165
 31
0.0
  0
LINE
  5
28
330
1D
100
AcDbEntity
  8
0
100
AcDbLine
 10
113.79025
 20
0.1165
 30
0.0
 11
115.45375
 21
0.1165
 31
0.0
  0
LINE
  5
29
330
1D
100
AcDbEntity
  8
0
100
AcDbLine
 10
113.03085
 20
0.1165
 30
0.0
 11
114.60775
 21
0.1165
 31
0.0
  0
LINE
  5
2A
330
1D
100
AcDbEntity
  8
0
100
AcDbLine
 10
107.84765
 20
6.96265
 30
0.0
 11
107.84765
 21
0.1165
 31
0.0
  0
LINE
  5
2B
330
1D
100
AcDbEntity
  8
0
100
AcDbLine
 10
107.90745
 20
0.1165
 30
0.0
 11
108.20225
 21
0.1165
 31
0.0
  0
LINE
  5
2C
330
1D
100
AcDbEntity
  8
0
100
AcDbLine
 10
108.02455
 20
0.1165
 30
0.0
 11
108.43455
 21
0.1165
 31
0.0
  0
LINE
  5
2D
330
1D
100
AcDbEntity
  8
0
100
AcDbLine
 10
107.84765
 20
0.1165
 30
0.0
 11
107.84765
 21
7.10405
 31
0.0
  0
LINE
  5
2E
330
1D
100
AcDbEntity
  8
0
100
AcDbLine
 10
107.84765
 20
0.1165
 30
0.0
 11
107.90745
 21
0.1165
 31
0.0
  0
LINE
  5
2F
330
1D
100
AcDbEntity
  8
0
100
AcDbLine
 10
107.84765
 20
0.1165
 30
0.0
 11
107.84765
 21
6.96265
 31
0.0
  0
LINE
  5
30
330
1D
100
AcDbEntity
  8
0
100
AcDbLine
 10
107.84765
 20
0.1165
 30
0.0
 11
108.02455
 21
0.1165
 31
0.0
  0
LINE
  5
31
330
1D
100
AcDbEntity
  8
0
100
AcDbLine
 10
107.93345
 20
7.65768
 30
0.0
 11
108.17885
 21
8.15755
 31
0.0
  0
LINE
  5
32
330
1D
100
AcDbEntity
  8
0
100
AcDbLine
 10
107.84765
 20
7.10405
 30
0.0
 11
107.84765
 21
0.1165
 31
0.0
  0
LINE
  5
33
330
1D
100
AcDbEntity
  8
0
100
AcDbLine
 10
107.84765
 20
7.10405
 30
0.0
 11
107.93345
 21
7.65768
 31
0.0
  0
LINE
  5
34
330
1D
100
AcDbEntity
  8
0
100
AcDbLine
 10
109.93855
 20
0.1165
 30
0.0
 11
111.01965
 21
0.1165
 31
0.0
  0
LINE
  5
35
330
1D
100
AcDbEntity
  8
0
100
AcDbLine
 10
110.14495
 20
0.1165
 30
0.0
 11
110.50905
 21
0.1165
 31
0.0
  0
LINE
  5
36
330
1D
100
AcDbEntity
  8
0
100
AcDbLine
 10
109.07435
 20
0.1165
 30
0.0
 11
109.93855
 21
0.1165
 31
0.0
  0
LINE
  5
37
330
1D
100
AcDbEntity
  8
0
100
AcDbLine
 10
108.43455
 20
0.1165
 30
0.0
 11
109.07435
 21
0.1165
 31
0.0
  0
LINE
  5
38
330
1D
100
AcDbEntity
  8
0
100
AcDbLine
 10
109.48175
 20
0.1165
 30
0.0
 11
110.45705
 21
0.1165
 31
0.0
  0
LINE
  5
39
330
1D
100
AcDbEntity
  8
0
100
AcDbLine
 10
110.10245
 20
0.1165
 30
0.0
 11
110.42405
 21
0.1165
 31
0.0
  0
LINE
  5
3A
330
1D
100
AcDbEntity
  8
0
100
AcDbLine
 10
108.20225
 20
0.1165
 30
0.0
 11
108.72755
 21
0.1165
 31
0.0
  0
LINE
  5
3B
330
1D
100
AcDbEntity
  8
0
100
AcDbLine
 10
109.277704515491
 20
8.840514970336
 30
0.0
 11
109.57535
 21
8.89573
 31
0.0
  0
LINE
  5
3C
330
1D
100
AcDbEntity
  8
0
100
AcDbLine
 10
108.56195
 20
8.55352
 30
0.0
 11
109.04575
 21
8.80793
 31
0.0
  0
LINE
  5
3D
330
1D
100
AcDbEntity
  8
0
100
AcDbLine
 10
109.57535
 20
8.89573
 30
0.0
 11
109.67075
 21
8.89573
 31
0.0
  0
LINE
  5
3E
330
1D
100
AcDbEntity
  8
0
100
AcDbLine
 10
109.99845
 20
8.89573
 30
0.0
 11
110.55665
 21
8.89573
 31
0.0
  0
LINE
  5
3F
330
1D
100
AcDbEntity
  8
0
100
AcDbLine
 10
109.67075
 20
8.89573
 30
0.0
 11
109.99845
 21
8.89573
 31
0.0
  0
LINE
  5
40
330
1D
100
AcDbEntity
  8
0
100
AcDbLine
 10
108.17885
 20
8.15755
 30
0.0
 11
108.56195
 21
8.55352
 31
0.0
  0
LINE
  5
41
330
1D
100
AcDbEntity
  8
0
100
AcDbLine
 10
110.97195
 20
0.1165
 30
0.0
 11
111.74005
 21
0.1165
 31
0.0
  0
LINE
  5
42
330
1D
100
AcDbEntity
  8
0
100
AcDbLine
 10
111.01965
 20
0.1165
 30
0.0
 11
112.30705
 21
0.1165
 31
0.0
  0
LINE
  5
43
330
1D
100
AcDbEntity
  8
0
100
AcDbLine
 10
111.74005
 20
0.1165
 30
0.0
 11
112.72135
 21
0.1165
 31
0.0
  0
LINE
  5
44
330
1D
100
AcDbEntity
  8
0
100
AcDbLine
 10
111.90655
 20
0.1165
 30
0.0
 11
112.92595
 21
0.1165
 31
0.0
  0
LINE
  5
45
330
1D
100
AcDbEntity
  8
0
100
AcDbLine
 10
112.30705
 20
0.1165
 30
0.0
 11
113.79025
 21
0.1165
 31
0.0
  0
LINE
  5
46
330
1D
100
AcDbEntity
  8
0
100
AcDbLine
 10
111.64385
 20
0.1165
 30
0.0
 11
113.03085
 21
0.1165
 31
0.0
  0
LINE
  5
47
330
1D
100
AcDbEntity
  8
0
100
AcDbLine
 10
111.33865
 20
8.89573
 30
0.0
 11
112.33735
 21
8.89573
 31
0.0
  0
LINE
  5
48
330
1D
100
AcDbEntity
  8
0
100
AcDbLine
 10
110.55665
 20
8.89573
 30
0.0
 11
111.33865
 21
8.89573
 31
0.0
  0
LINE
  5
49
330
1D
100
AcDbEntity
  8
0
100
AcDbLine
 10
112.33735
 20
8.89573
 30
0.0
 11
113.54325
 21
8.89573
 31
0.0
  0
LINE
  5
4A
330
1D
100
AcDbEntity
  8
0
100
AcDbLine
 10
113.54325
 20
8.89573
 30
0.0
 11
114.94495
 21
8.89573
 31
0.0
  0
LINE
  5
4F
330
1D
100
AcDbEntity
  8
0
100
AcDbLine
 10
112.318066217054
 20
8.89573
 30
0.0
 11
112.40265
 21
36.174
 31
0.0
  0
LINE
  5
50
330
1D
100
AcDbEntity
  8
0
100
AcDbLine
 10
110.50905
 20
0.1165
 30
0.0
 11
111.09855
 21
0.1165
 31
0.0
  0
LINE
  5
51
330
1D
100
AcDbEntity
  8
0
100
AcDbLine
 10
110.45705
 20
0.1165
 30
0.0
 11
111.64385
 21
0.1165
 31
0.0
  0
LINE
  5
52
330
1D
100
AcDbEntity
  8
0
100
AcDbLine
 10
112.92595
 20
0.1165
 30
0.0
 11
114.14735
 21
0.1165
 31
0.0
  0
LINE
  5
53
330
1D
100
AcDbEntity
  8
0
100
AcDbLine
 10
117.14515
 20
0.1165
 30
0.0
 11
117.28555
 21
0.1165
 31
0.0
  0
LINE
  5
54
330
1D
100
AcDbEntity
  8
0
100
AcDbLine
 10
115.55785
 20
0.1165
 30
0.0
 11
117.14515
 21
0.1165
 31
0.0
  0
LINE
  5
55
330
1D
100
AcDbEntity
  8
0
100
AcDbLine
 10
116.83745
 20
0.1165
 30
0.0
 11
118.55645
 21
0.1165
 31
0.0
  0
LINE
  5
56
330
1D
100
AcDbEntity
  8
0
100
AcDbLine
 10
116.35795
 20
0.1165
 30
0.0
 11
118.26605
 21
0.1165
 31
0.0
  0
LINE
  5
57
330
1D
100
AcDbEntity
  8
0
100
AcDbLine
 10
117.28555
 20
0.1165
 30
0.0
 11
119.26645
 21
0.1165
 31
0.0
  0
LINE
  5
58
330
1D
100
AcDbEntity
  8
0
100
AcDbLine
 10
115.28215
 20
0.1165
 30
0.0
 11
116.83745
 21
0.1165
 31
0.0
  0
LINE
  5
59
330
1D
100
AcDbEntity
  8
0
100
AcDbLine
 10
114.94495
 20
8.89573
 30
0.0
 11
116.52795
 21
8.89573
 31
0.0
  0
LINE
  5
5A
330
1D
100
AcDbEntity
  8
0
100
AcDbLine
 10
116.52795
 20
8.89573
 30
0.0
 11
118.27815
 21
8.89573
 31
0.0
  0
LINE
  5
5B
330
1D
100
AcDbEntity
  8
0
100
AcDbLine
 10
118.27815
 20
8.89573
 30
0.0
 11
120.17845
 21
8.89573
 31
0.0
  0
LINE
  5
5C
330
1D
100
AcDbEntity
  8
0
100
AcDbLine
 10
120.84935
 20
8.89573
 30
0.0
 11
120.84935
 21
9.52279
 31
0.0
  0
LINE
  5
5D
330
1D
100
AcDbEntity
  8
0
100
AcDbLine
 10
120.84935
 20
9.52279
 30
0.0
 11
120.88405
 21
9.65723
 31
0.0
  0
LINE
  5
5E
330
1D
100
AcDbEntity
  8
0
100
AcDbLine
 10
120.84935
 20
9.52279
 30
0.0
 11
120.84935
 21
8.89573
 31
0.0
  0
LINE
  5
5F
330
1D
100
AcDbEntity
  8
0
100
AcDbLine
 10
120.88405
 20
9.65723
 30
0.0
 11
120.97935
 21
9.75577
 31
0.0
  0
LINE
  5
60
330
1D
100
AcDbEntity
  8
0
100
AcDbLine
 10
120.97935
 20
9.75577
 30
0.0
 11
121.10945
 21
9.79158
 31
0.0
  0
LINE
  5
61
330
1D
100
AcDbEntity
  8
0
100
AcDbLine
 10
121.13285
 20
9.79158
 30
0.0
 11
121.27245
 21
9.79158
 31
0.0
  0
LINE
  5
62
330
1D
100
AcDbEntity
  8
0
100
AcDbLine
 10
121.88965
 20
9.79158
 30
0.0
 11
122.36215
 21
9.79158
 31
0.0
  0
LINE
  5
63
330
1D
100
AcDbEntity
  8
0
100
AcDbLine
 10
122.36215
 20
9.79158
 30
0.0
 11
122.93855
 21
9.79158
 31
0.0
  0
LINE
  5
64
330
1D
100
AcDbEntity
  8
0
100
AcDbLine
 10
121.52465
 20
9.79158
 30
0.0
 11
121.88965
 21
9.79158
 31
0.0
  0
LINE
  5
65
330
1D
100
AcDbEntity
  8
0
100
AcDbLine
 10
120.91435
 20
10.01639
 30
0.0
 11
121.07305
 21
9.85251
 31
0.0
  0
LINE
  5
66
330
1D
100
AcDbEntity
  8
0
100
AcDbLine
 10
121.07305
 20
9.85251
 30
0.0
 11
121.28975
 21
9.79158
 31
0.0
  0
LINE
  5
67
330
1D
100
AcDbEntity
  8
0
100
AcDbLine
 10
121.27245
 20
9.79158
 30
0.0
 11
121.52465
 21
9.79158
 31
0.0
  0
LINE
  5
68
330
1D
100
AcDbEntity
  8
0
100
AcDbLine
 10
120.85715
 20
10.2404
 30
0.0
 11
120.91265
 21
43.8639
 31
0.0
  0
LINE
  5
69
330
1D
100
AcDbEntity
  8
0
100
AcDbLine
 10
120.85715
 20
10.2404
 30
0.0
 11
120.91435
 21
10.01639
 31
0.0
  0
LINE
  5
6A
330
1D
100
AcDbEntity
  8
0
100
AcDbLine
 10
122.21035
 20
8.89573
 30
0.0
 11
124.35515
 21
8.89573
 31
0.0
  0
LINE
  5
6B
330
1D
100
AcDbEntity
  8
0
100
AcDbLine
 10
120.17845
 20
8.89573
 30
0.0
 11
122.21035
 21
8.89573
 31
0.0
  0
LINE
  5
6C
330
1D
100
AcDbEntity
  8
0
100
AcDbLine
 10
115.45375
 20
0.1165
 30
0.0
 11
117.28555
 21
0.1165
 31
0.0
  0
LINE
  5
6D
330
1D
100
AcDbEntity
  8
0
100
AcDbLine
 10
114.60775
 20
0.1165
 30
0.0
 11
115.28215
 21
0.1165
 31
0.0
  0
LINE
  5
6E
330
1D
100
AcDbEntity
  8
0
100
AcDbLine
 10
114.60775
 20
0.1165
 30
0.0
 11
115.49465
 21
0.1165
 31
0.0
  0
LINE
  5
6F
330
1D
100
AcDbEntity
  8
0
100
AcDbLine
 10
114.60775
 20
0.1165
 30
0.0
 11
116.35795
 21
0.1165
 31
0.0
  0
LINE
  5
70
330
1D
100
AcDbEntity
  8
0
100
AcDbLine
 10
118.26605
 20
0.1165
 30
0.0
 11
120.31625
 21
0.1165
 31
0.0
  0
LINE
  5
71
330
1D
100
AcDbEntity
  8
0
100
AcDbLine
 10
126.72005
 20
0.1165
 30
0.0
 11
128.31425
 21
0.1165
 31
0.0
  0
LINE
  5
72
330
1D
100
AcDbEntity
  8
0
100
AcDbLine
 10
124.52415
 20
0.1165
 30
0.0
 11
126.72005
 21
0.1165
 31
0.0
  0
LINE
  5
73
330
1D
100
AcDbEntity
  8
0
100
AcDbLine
 10
123.60525
 20
0.1165
 30
0.0
 11
125.92335
 21
0.1165
 31
0.0
  0
LINE
  5
74
330
1D
100
AcDbEntity
  8
0
100
AcDbLine
 10
122.80255
 20
0.1165
 30
0.0
 11
124.92555
 21
0.1165
 31
0.0
  0
LINE
  5
75
330
1D
100
AcDbEntity
  8
0
100
AcDbLine
 10
124.92555
 20
0.1165
 30
0.0
 11
127.13605
 21
0.1165
 31
0.0
  0
LINE
  5
76
330
1D
100
AcDbEntity
  8
0
100
AcDbLine
 10
124.76345
 20
0.1165
 30
0.0
 11
125.92335
 21
0.1165
 31
0.0
  0
LINE
  5
77
330
1D
100
AcDbEntity
  8
0
100
AcDbLine
 10
125.92335
 20
0.1165
 30
0.0
 11
128.31425
 21
0.1165
 31
0.0
  0
LINE
  5
78
330
1D
100
AcDbEntity
  8
0
100
AcDbLine
 10
133.63005
 20
0.1165
 30
0.0
 11
133.84765
 21
0.1165
 31
0.0
  0
LINE
  5
79
330
1D
100
AcDbEntity
  8
0
100
AcDbLine
 10
153.90505
 20
0.1165
 30
0.0
 11
155.38825
 21
0.1165
 31
0.0
  0
LINE
  5
7A
330
1D
100
AcDbEntity
  8
0
100
AcDbLine
 10
150.40975
 20
0.1165
 30
0.0
 11
151.33735
 21
0.1165
 31
0.0
  0
LINE
  5
7B
330
1D
100
AcDbEntity
  8
0
100
AcDbLine
 10
150.40975
 20
0.1165
 30
0.0
 11
152.20065
 21
0.1165
 31
0.0
  0
LINE
  5
7C
330
1D
100
AcDbEntity
  8
0
100
AcDbLine
 10
150.40975
 20
0.1165
 30
0.0
 11
152.24155
 21
0.1165
 31
0.0
  0
LINE
  5
7D
330
1D
100
AcDbEntity
  8
0
100
AcDbLine
 10
148.80255
 20
0.1165
 30
0.0
 11
150.40975
 21
0.1165
 31
0.0
  0
LINE
  5
7E
330
1D
100
AcDbEntity
  8
0
100
AcDbLine
 10
152.24155
 20
0.1165
 30
0.0
 11
153.90505
 21
0.1165
 31
0.0
  0
LINE
  5
7F
330
1D
100
AcDbEntity
  8
0
100
AcDbLine
 10
152.20065
 20
0.1165
 30
0.0
 11
155.38825
 21
0.1165
 31
0.0
  0
LINE
  5
80
330
1D
100
AcDbEntity
  8
0
100
AcDbLine
 10
152.13745
 20
0.1165
 30
0.0
 11
153.54795
 21
0.1165
 31
0.0
  0
LINE
  5
81
330
1D
100
AcDbEntity
  8
0
100
AcDbLine
 10
153.78885
 20
0.1165
 30
0.0
 11
154.97395
 21
0.1165
 31
0.0
  0
LINE
  5
82
330
1D
100
AcDbEntity
  8
0
100
AcDbLine
 10
156.72335
 20
0.1165
 30
0.0
 11
157.27125
 21
0.1165
 31
0.0
  0
LINE
  5
83
330
1D
100
AcDbEntity
  8
0
100
AcDbLine
 10
157.23825
 20
0.1165
 30
0.0
 11
158.21355
 21
0.1165
 31
0.0
  0
LINE
  5
84
330
1D
100
AcDbEntity
  8
0
100
AcDbLine
 10
155.78875
 20
0.1165
 30
0.0
 11
156.59675
 21
0.1165
 31
0.0
  0
LINE
  5
85
330
1D
100
AcDbEntity
  8
0
100
AcDbLine
 10
156.67565
 20
0.1165
 30
0.0
 11
158.92965
 21
0.1165
 31
0.0
  0
LINE
  5
86
330
1D
100
AcDbEntity
  8
0
100
AcDbLine
 10
156.67565
 20
0.1165
 30
0.0
 11
157.75675
 21
0.1165
 31
0.0
  0
LINE
  5
87
330
1D
100
AcDbEntity
  8
0
100
AcDbLine
 10
158.62095
 20
0.1165
 30
0.0
 11
159.26075
 21
0.1165
 31
0.0
  0
LINE
  5
88
330
1D
100
AcDbEntity
  8
0
100
AcDbLine
 10
157.75675
 20
0.1165
 30
0.0
 11
158.62095
 21
0.1165
 31
0.0
  0
LINE
  5
89
330
1D
100
AcDbEntity
  8
0
100
AcDbLine
 10
157.59285
 20
0.1165
 30
0.0
 11
157.68555
 21
0.1165
 31
0.0
  0
LINE
  5
8A
330
1D
100
AcDbEntity
  8
0
100
AcDbLine
 10
158.21355
 20
0.1165
 30
0.0
 11
158.96775
 21
0.1165
 31
0.0
  0
LINE
  5
8B
330
1D
100
AcDbEntity
  8
0
100
AcDbLine
 10
157.55035
 20
0.1165
 30
0.0
 11
157.68555
 21
0.1165
 31
0.0
  0
LINE
  5
8C
330
1D
100
AcDbEntity
  8
0
100
AcDbLine
 10
155.38825
 20
0.1165
 30
0.0
 11
156.67565
 21
0.1165
 31
0.0
  0
LINE
  5
8D
330
1D
100
AcDbEntity
  8
0
100
AcDbLine
 10
154.66445
 20
0.1165
 30
0.0
 11
155.38825
 21
0.1165
 31
0.0
  0
LINE
  5
8E
330
1D
100
AcDbEntity
  8
0
100
AcDbLine
 10
138.28445
 20
0.1165
 30
0.0
 11
140.55925
 21
0.1165
 31
0.0
  0
LINE
  5
8F
330
1D
100
AcDbEntity
  8
0
100
AcDbLine
 10
138.15525
 20
0.1165
 30
0.0
 11
140.57395
 21
0.1165
 31
0.0
  0
LINE
  5
90
330
1D
100
AcDbEntity
  8
0
100
AcDbLine
 10
136.93995
 20
0.1165
 30
0.0
 11
139.38105
 21
0.1165
 31
0.0
  0
LINE
  5
91
330
1D
100
AcDbEntity
  8
0
100
AcDbLine
 10
135.69765
 20
0.1165
 30
0.0
 11
138.15525
 21
0.1165
 31
0.0
  0
LINE
  5
92
330
1D
100
AcDbEntity
  8
0
100
AcDbLine
 10
134.47185
 20
0.1165
 30
0.0
 11
136.93995
 21
0.1165
 31
0.0
  0
LINE
  5
93
330
1D
100
AcDbEntity
  8
0
100
AcDbLine
 10
135.96815
 20
0.1165
 30
0.0
 11
138.15525
 21
0.1165
 31
0.0
  0
LINE
  5
94
330
1D
100
AcDbEntity
  8
0
100
AcDbLine
 10
135.96815
 20
0.1165
 30
0.0
 11
138.28445
 21
0.1165
 31
0.0
  0
LINE
  5
95
330
1D
100
AcDbEntity
  8
0
100
AcDbLine
 10
134.06525
 20
0.1165
 30
0.0
 11
136.40065
 21
0.1165
 31
0.0
  0
LINE
  5
96
330
1D
100
AcDbEntity
  8
0
100
AcDbLine
 10
136.40065
 20
0.1165
 30
0.0
 11
138.71185
 21
0.1165
 31
0.0
  0
LINE
  5
97
330
1D
100
AcDbEntity
  8
0
100
AcDbLine
 10
147.27245
 20
0.1165
 30
0.0
 11
149.13885
 21
0.1165
 31
0.0
  0
LINE
  5
98
330
1D
100
AcDbEntity
  8
0
100
AcDbLine
 10
146.31625
 20
0.1165
 30
0.0
 11
148.42885
 21
0.1165
 31
0.0
  0
LINE
  5
99
330
1D
100
AcDbEntity
  8
0
100
AcDbLine
 10
140.50065
 20
0.1165
 30
0.0
 11
144.09005
 21
0.1165
 31
0.0
  0
LINE
  5
9A
330
1D
100
AcDbEntity
  8
0
100
AcDbLine
 10
139.38105
 20
0.1165
 30
0.0
 11
141.77195
 21
0.1165
 31
0.0
  0
LINE
  5
9B
330
1D
100
AcDbEntity
  8
0
100
AcDbLine
 10
140.57395
 20
0.1165
 30
0.0
 11
142.93185
 21
0.1165
 31
0.0
  0
LINE
  5
9C
330
1D
100
AcDbEntity
  8
0
100
AcDbLine
 10
141.77195
 20
0.1165
 30
0.0
 11
144.09005
 21
0.1165
 31
0.0
  0
LINE
  5
9D
330
1D
100
AcDbEntity
  8
0
100
AcDbLine
 10
144.09005
 20
0.1165
 30
0.0
 11
146.31625
 21
0.1165
 31
0.0
  0
LINE
  5
9E
330
1D
100
AcDbEntity
  8
0
100
AcDbLine
 10
138.71185
 20
0.1165
 30
0.0
 11
139.38105
 21
0.1165
 31
0.0
  0
LINE
  5
9F
330
1D
100
AcDbEntity
  8
0
100
AcDbLine
 10
148.42885
 20
0.1165
 30
0.0
 11
150.40975
 21
0.1165
 31
0.0
  0
LINE
  5
A0
330
1D
100
AcDbEntity
  8
0
100
AcDbLine
 10
148.42885
 20
0.1165
 30
0.0
 11
148.80255
 21
0.1165
 31
0.0
  0
LINE
  5
A1
330
1D
100
AcDbEntity
  8
0
100
AcDbLine
 10
133.84765
 20
0.1165
 30
0.0
 11
140.50065
 21
0.1165
 31
0.0
  0
LINE
  5
A2
330
1D
100
AcDbEntity
  8
0
100
AcDbLine
 10
133.84765
 20
0.1165
 30
0.0
 11
134.47185
 21
0.1165
 31
0.0
  0
LINE
  5
A3
330
1D
100
AcDbEntity
  8
0
100
AcDbLine
 10
133.84765
 20
0.1165
 30
0.0
 11
135.69765
 21
0.1165
 31
0.0
  0
LINE
  5
A4
330
1D
100
AcDbEntity
  8
0
100
AcDbLine
 10
133.84765
 20
0.1165
 30
0.0
 11
135.96815
 21
0.1165
 31
0.0
  0
LINE
  5
A5
330
1D
100
AcDbEntity
  8
0
100
AcDbLine
 10
129.54005
 20
0.1165
 30
0.0
 11
133.22345
 21
0.1165
 31
0.0
  0
LINE
  5
A6
330
1D
100
AcDbEntity
  8
0
100
AcDbLine
 10
131.72715
 20
0.1165
 30
0.0
 11
131.99765
 21
0.1165
 31
0.0
  0
LINE
  5
A7
330
1D
100
AcDbEntity
  8
0
100
AcDbLine
 10
130.75535
 20
0.1165
 30
0.0
 11
133.22345
 21
0.1165
 31
0.0
  0
LINE
  5
A8
330
1D
100
AcDbEntity
  8
0
100
AcDbLine
 10
133.22345
 20
0.1165
 30
0.0
 11
133.84765
 21
0.1165
 31
0.0
  0
LINE
  5
A9
330
1D
100
AcDbEntity
  8
0
100
AcDbLine
 10
128.31425
 20
0.1165
 30
0.0
 11
130.75535
 21
0.1165
 31
0.0
  0
LINE
  5
AA
330
1D
100
AcDbEntity
  8
0
100
AcDbLine
 10
123.61485
 20
9.79158
 30
0.0
 11
124.38285
 21
9.79158
 31
0.0
  0
LINE
  5
AB
330
1D
100
AcDbEntity
  8
0
100
AcDbLine
 10
122.93855
 20
9.79158
 30
0.0
 11
123.61485
 21
9.79158
 31
0.0
  0
LINE
  5
AC
330
1D
100
AcDbEntity
  8
0
100
AcDbLine
 10
124.35515
 20
8.89573
 30
0.0
 11
126.58915
 21
8.89573
 31
0.0
  0
LINE
  5
AD
330
1D
100
AcDbEntity
  8
0
100
AcDbLine
 10
124.38285
 20
9.79158
 30
0.0
 11
125.23675
 21
9.79158
 31
0.0
  0
LINE
  5
AE
330
1D
100
AcDbEntity
  8
0
100
AcDbLine
 10
125.23675
 20
9.79158
 30
0.0
 11
126.16865
 21
9.79158
 31
0.0
  0
LINE
  5
AF
330
1D
100
AcDbEntity
  8
0
100
AcDbLine
 10
126.58915
 20
8.89573
 30
0.0
 11
128.89505
 21
8.89573
 31
0.0
  0
LINE
  5
B0
330
1D
100
AcDbEntity
  8
0
100
AcDbLine
 10
126.16865
 20
9.79158
 30
0.0
 11
127.16985
 21
9.79158
 31
0.0
  0
LINE
  5
B1
330
1D
100
AcDbEntity
  8
0
100
AcDbLine
 10
127.16985
 20
9.79158
 30
0.0
 11
128.23195
 21
9.79158
 31
0.0
  0
LINE
  5
B2
330
1D
100
AcDbEntity
  8
0
100
AcDbLine
 10
133.84765
 20
8.89573
 30
0.0
 11
134.06965
 21
8.89573
 31
0.0
  0
LINE
  5
B3
330
1D
100
AcDbEntity
  8
0
100
AcDbLine
 10
134.06965
 20
8.89573
 30
0.0
 11
136.44745
 21
8.89573
 31
0.0
  0
LINE
  5
B4
330
1D
100
AcDbEntity
  8
0
100
AcDbLine
 10
141.10615
 20
8.89573
 30
0.0
 11
143.34015
 21
8.89573
 31
0.0
  0
LINE
  5
B5
330
1D
100
AcDbEntity
  8
0
100
AcDbLine
 10
138.80025
 20
8.89573
 30
0.0
 11
141.10615
 21
8.89573
 31
0.0
  0
LINE
  5
B6
330
1D
100
AcDbEntity
  8
0
100
AcDbLine
 10
136.44745
 20
8.89573
 30
0.0
 11
138.80025
 21
8.89573
 31
0.0
  0
LINE
  5
B7
330
1D
100
AcDbEntity
  8
0
100
AcDbLine
 10
143.34015
 20
8.89573
 30
0.0
 11
145.48495
 21
8.89573
 31
0.0
  0
LINE
  5
B8
330
1D
100
AcDbEntity
  8
0
100
AcDbLine
 10
154.15205
 20
8.89573
 30
0.0
 11
155.35795
 21
8.89573
 31
0.0
  0
LINE
  5
B9
330
1D
100
AcDbEntity
  8
0
100
AcDbLine
 10
152.75035
 20
8.89573
 30
0.0
 11
154.15205
 21
8.89573
 31
0.0
  0
LINE
  5
BA
330
1D
100
AcDbEntity
  8
0
100
AcDbLine
 10
151.16735
 20
8.89573
 30
0.0
 11
152.75035
 21
8.89573
 31
0.0
  0
LINE
  5
BB
330
1D
100
AcDbEntity
  8
0
100
AcDbLine
 10
149.41715
 20
8.89573
 30
0.0
 11
151.16735
 21
8.89573
 31
0.0
  0
LINE
  5
BC
330
1D
100
AcDbEntity
  8
0
100
AcDbLine
 10
147.51685
 20
8.89573
 30
0.0
 11
149.41715
 21
8.89573
 31
0.0
  0
LINE
  5
BD
330
1D
100
AcDbEntity
  8
0
100
AcDbLine
 10
155.35795
 20
8.89573
 30
0.0
 11
156.35665
 21
8.89573
 31
0.0
  0
LINE
  5
BE
330
1D
100
AcDbEntity
  8
0
100
AcDbLine
 10
156.35665
 20
8.89573
 30
0.0
 11
157.13865
 21
8.89573
 31
0.0
  0
LINE
  5
BF
330
1D
100
AcDbEntity
  8
0
100
AcDbLine
 10
157.13865
 20
8.89573
 30
0.0
 11
157.69685
 21
8.89573
 31
0.0
  0
LINE
  5
C0
330
1D
100
AcDbEntity
  8
0
100
AcDbLine
 10
158.11995
 20
8.89573
 30
0.0
 11
158.417595484509
 21
8.840514970336
 31
0.0
  0
LINE
  5
C1
330
1D
100
AcDbEntity
  8
0
100
AcDbLine
 10
158.64955
 20
8.80793
 30
0.0
 11
159.13335
 21
8.55352
 31
0.0
  0
LINE
  5
C2
330
1D
100
AcDbEntity
  8
0
100
AcDbLine
 10
158.02455
 20
8.89573
 30
0.0
 11
158.11995
 21
8.89573
 31
0.0
  0
LINE
  5
C3
330
1D
100
AcDbEntity
  8
0
100
AcDbLine
 10
145.77965
 20
8.89573
 30
0.0
 11
146.21745
 21
8.89573
 31
0.0
  0
LINE
  5
C4
330
1D
100
AcDbEntity
  8
0
100
AcDbLine
 10
146.05015
 20
8.89573
 30
0.0
 11
146.42205
 21
8.89573
 31
0.0
  0
LINE
  5
C5
330
1D
100
AcDbEntity
  8
0
100
AcDbLine
 10
145.56725
 20
8.89573
 30
0.0
 11
146.05015
 21
8.89573
 31
0.0
  0
LINE
  5
C6
330
1D
100
AcDbEntity
  8
0
100
AcDbLine
 10
146.84595
 20
8.89573
 30
0.0
 11
146.84595
 21
9.52279
 31
0.0
  0
LINE
  5
C7
330
1D
100
AcDbEntity
  8
0
100
AcDbLine
 10
146.75315
 20
8.89573
 30
0.0
 11
146.84595
 21
8.89573
 31
0.0
  0
LINE
  5
C8
330
1D
100
AcDbEntity
  8
0
100
AcDbLine
 10
146.54245
 20
8.89573
 30
0.0
 11
146.75315
 21
8.89573
 31
0.0
  0
LINE
  5
C9
330
1D
100
AcDbEntity
  8
0
100
AcDbLine
 10
146.42205
 20
8.89573
 30
0.0
 11
146.67945
 21
8.89573
 31
0.0
  0
LINE
  5
CA
330
1D
100
AcDbEntity
  8
0
100
AcDbLine
 10
146.67945
 20
8.89573
 30
0.0
 11
146.82165
 21
8.89573
 31
0.0
  0
LINE
  5
CB
330
1D
100
AcDbEntity
  8
0
100
AcDbLine
 10
146.21745
 20
8.89573
 30
0.0
 11
146.54245
 21
8.89573
 31
0.0
  0
LINE
  5
CC
330
1D
100
AcDbEntity
  8
0
100
AcDbLine
 10
157.69685
 20
8.89573
 30
0.0
 11
158.02455
 21
8.89573
 31
0.0
  0
LINE
  5
CD
330
1D
100
AcDbEntity
  8
0
100
AcDbLine
 10
145.48495
 20
8.89573
 30
0.0
 11
147.51685
 21
8.89573
 31
0.0
  0
LINE
  5
CE
330
1D
100
AcDbEntity
  8
0
100
AcDbLine
 10
145.48495
 20
8.89573
 30
0.0
 11
145.56725
 21
8.89573
 31
0.0
  0
LINE
  5
CF
330
1D
100
AcDbEntity
  8
0
100
AcDbLine
 10
145.48495
 20
8.89573
 30
0.0
 11
145.77965
 21
8.89573
 31
0.0
  0
LINE
  5
D0
330
1D
100
AcDbEntity
  8
0
100
AcDbLine
 10
133.62565
 20
8.89573
 30
0.0
 11
133.84765
 21
8.89573
 31
0.0
  0
LINE
  5
D1
330
1D
100
AcDbEntity
  8
0
100
AcDbLine
 10
131.24785
 20
8.89573
 30
0.0
 11
133.62565
 21
8.89573
 31
0.0
  0
LINE
  5
D2
330
1D
100
AcDbEntity
  8
0
100
AcDbLine
 10
129.34495
 20
9.79158
 30
0.0
 11
130.49885
 21
9.79158
 31
0.0
  0
LINE
  5
D3
330
1D
100
AcDbEntity
  8
0
100
AcDbLine
 10
130.49885
 20
9.79158
 30
0.0
 11
131.68215
 21
9.79158
 31
0.0
  0
LINE
  5
D4
330
1D
100
AcDbEntity
  8
0
100
AcDbLine
 10
131.68215
 20
9.79158
 30
0.0
 11
133.84765
 21
9.79158
 31
0.0
  0
LINE
  5
D5
330
1D
100
AcDbEntity
  8
0
100
AcDbLine
 10
131.68215
 20
9.79158
 30
0.0
 11
132.88625
 21
9.79158
 31
0.0
  0
LINE
  5
D8
330
1D
100
AcDbEntity
  8
0
100
AcDbLine
 10
137.19645
 20
9.79158
 30
0.0
 11
138.35035
 21
9.79158
 31
0.0
  0
LINE
  5
D9
330
1D
100
AcDbEntity
  8
0
100
AcDbLine
 10
136.01315
 20
9.79158
 30
0.0
 11
137.19645
 21
9.79158
 31
0.0
  0
LINE
  5
DA
330
1D
100
AcDbEntity
  8
0
100
AcDbLine
 10
134.80905
 20
9.79158
 30
0.0
 11
136.01315
 21
9.79158
 31
0.0
  0
LINE
  5
DE
330
1D
100
AcDbEntity
  8
0
100
AcDbLine
 10
133.84765
 20
9.79158
 30
0.0
 11
134.80905
 21
9.79158
 31
0.0
  0
LINE
  5
E0
330
1D
100
AcDbEntity
  8
0
100
AcDbLine
 10
133.84765
 20
9.79158
 30
0.0
 11
136.01315
 21
9.79158
 31
0.0
  0
LINE
  5
E1
330
1D
100
AcDbEntity
  8
0
100
AcDbLine
 10
145.33315
 20
9.79158
 30
0.0
 11
145.80565
 21
9.79158
 31
0.0
  0
LINE
  5
E2
330
1D
100
AcDbEntity
  8
0
100
AcDbLine
 10
144.75675
 20
9.79158
 30
0.0
 11
145.33315
 21
9.79158
 31
0.0
  0
LINE
  5
E3
330
1D
100
AcDbEntity
  8
0
100
AcDbLine
 10
146.40555
 20
9.79158
 30
0.0
 11
146.62225
 21
9.85251
 31
0.0
  0
LINE
  5
E4
330
1D
100
AcDbEntity
  8
0
100
AcDbLine
 10
146.84595
 20
9.52279
 30
0.0
 11
146.84595
 21
8.89573
 31
0.0
  0
LINE
  5
E5
330
1D
100
AcDbEntity
  8
0
100
AcDbLine
 10
146.71595
 20
9.75577
 30
0.0
 11
146.81125
 21
9.65723
 31
0.0
  0
LINE
  5
E6
330
1D
100
AcDbEntity
  8
0
100
AcDbLine
 10
146.58585
 20
9.79158
 30
0.0
 11
146.71595
 21
9.75577
 31
0.0
  0
LINE
  5
E7
330
1D
100
AcDbEntity
  8
0
100
AcDbLine
 10
146.81125
 20
9.65723
 30
0.0
 11
146.84595
 21
9.52279
 31
0.0
  0
LINE
  5
E8
330
1D
100
AcDbEntity
  8
0
100
AcDbLine
 10
146.42285
 20
9.79158
 30
0.0
 11
146.56245
 21
9.79158
 31
0.0
  0
LINE
  5
E9
330
1D
100
AcDbEntity
  8
0
100
AcDbLine
 10
145.80565
 20
9.79158
 30
0.0
 11
146.17065
 21
9.79158
 31
0.0
  0
LINE
  5
EA
330
1D
100
AcDbEntity
  8
0
100
AcDbLine
 10
146.17065
 20
9.79158
 30
0.0
 11
146.42285
 21
9.79158
 31
0.0
  0
LINE
  5
EB
330
1D
100
AcDbEntity
  8
0
100
AcDbLine
 10
143.31245
 20
9.79158
 30
0.0
 11
144.08045
 21
9.79158
 31
0.0
  0
LINE
  5
EC
330
1D
100
AcDbEntity
  8
0
100
AcDbLine
 10
144.08045
 20
9.79158
 30
0.0
 11
144.75675
 21
9.79158
 31
0.0
  0
LINE
  5
ED
330
1D
100
AcDbEntity
  8
0
100
AcDbLine
 10
142.45855
 20
9.79158
 30
0.0
 11
143.31245
 21
9.79158
 31
0.0
  0
LINE
  5
EE
330
1D
100
AcDbEntity
  8
0
100
AcDbLine
 10
141.52665
 20
9.79158
 30
0.0
 11
142.45855
 21
9.79158
 31
0.0
  0
LINE
  5
EF
330
1D
100
AcDbEntity
  8
0
100
AcDbLine
 10
140.52545
 20
9.79158
 30
0.0
 11
141.52665
 21
9.79158
 31
0.0
  0
LINE
  5
F0
330
1D
100
AcDbEntity
  8
0
100
AcDbLine
 10
146.62225
 20
9.85251
 30
0.0
 11
146.78095
 21
10.01639
 31
0.0
  0
LINE
  5
F1
330
1D
100
AcDbEntity
  8
0
100
AcDbLine
 10
139.46335
 20
9.79158
 30
0.0
 11
140.52545
 21
9.79158
 31
0.0
  0
LINE
  5
F2
330
1D
100
AcDbEntity
  8
0
100
AcDbLine
 10
138.35035
 20
9.79158
 30
0.0
 11
139.46335
 21
9.79158
 31
0.0
  0
LINE
  5
F5
330
1D
100
AcDbEntity
  8
0
100
AcDbLine
 10
146.78095
 20
10.01639
 30
0.0
 11
146.83815
 21
10.2404
 31
0.0
  0
LINE
  5
100
330
1D
100
AcDbEntity
  8
0
100
AcDbLine
 10
132.88625
 20
9.79158
 30
0.0
 11
133.84765
 21
9.79158
 31
0.0
  0
LINE
  5
101
330
1D
100
AcDbEntity
  8
0
100
AcDbLine
 10
128.89505
 20
8.89573
 30
0.0
 11
131.24785
 21
8.89573
 31
0.0
  0
LINE
  5
102
330
1D
100
AcDbEntity
  8
0
100
AcDbLine
 10
128.23195
 20
9.79158
 30
0.0
 11
129.34495
 21
9.79158
 31
0.0
  0
LINE
  5
103
330
1D
100
AcDbEntity
  8
0
100
AcDbLine
 10
122.48865
 20
0.1165
 30
0.0
 11
122.80255
 21
0.1165
 31
0.0
  0
LINE
  5
104
330
1D
100
AcDbEntity
  8
0
100
AcDbLine
 10
122.48865
 20
0.1165
 30
0.0
 11
124.76345
 21
0.1165
 31
0.0
  0
LINE
  5
105
330
1D
100
AcDbEntity
  8
0
100
AcDbLine
 10
122.41845
 20
0.1165
 30
0.0
 11
124.52415
 21
0.1165
 31
0.0
  0
LINE
  5
108
330
1D
100
AcDbEntity
  8
0
100
AcDbLine
 10
110.81165
 20
46.8745
 30
0.0
 11
111.35665
 21
45.0939
 31
0.0
  0
LINE
  5
10A
330
1D
100
AcDbEntity
  8
0
100
AcDbLine
 10
111.35665
 20
45.0939
 30
0.0
 11
111.55865
 21
44.4354
 31
0.0
  0
LINE
  5
10B
330
1D
100
AcDbEntity
  8
0
100
AcDbLine
 10
108.77465
 20
51.3291
 30
0.0
 11
109.49865
 21
49.9229
 31
0.0
  0
LINE
  5
10E
330
1D
100
AcDbEntity
  8
0
100
AcDbLine
 10
106.23965
 20
55.1683
 30
0.0
 11
107.23265
 21
53.7737
 31
0.0
  0
LINE
  5
110
330
1D
100
AcDbEntity
  8
0
100
AcDbLine
 10
107.59965
 20
53.2579
 30
0.0
 11
107.91665
 21
52.7372
 31
0.0
  0
LINE
  5
112
330
1D
100
AcDbEntity
  8
0
100
AcDbLine
 10
107.23265
 20
53.7737
 30
0.0
 11
107.59965
 21
53.2579
 31
0.0
  0
LINE
  5
114
330
1D
100
AcDbEntity
  8
0
100
AcDbLine
 10
107.91665
 20
52.7372
 30
0.0
 11
108.77465
 21
51.3291
 31
0.0
  0
LINE
  5
117
330
1D
100
AcDbEntity
  8
0
100
AcDbLine
 10
109.76565
 20
49.4029
 30
0.0
 11
110.04865
 21
48.7202
 31
0.0
  0
LINE
  5
118
330
1D
100
AcDbEntity
  8
0
100
AcDbLine
 10
109.49865
 20
49.9229
 30
0.0
 11
109.76565
 21
49.4029
 31
0.0
  0
LINE
  5
11B
330
1D
100
AcDbEntity
  8
0
100
AcDbLine
 10
110.04865
 20
48.7202
 30
0.0
 11
110.81165
 21
46.8745
 31
0.0
  0
LINE
  5
11E
330
1D
100
AcDbEntity
  8
0
100
AcDbLine
 10
111.71765
 20
43.6122
 30
0.0
 11
112.14765
 21
41.3866
 31
0.0
  0
LINE
  5
122
330
1D
100
AcDbEntity
  8
0
100
AcDbLine
 10
112.35065
 20
38.6125
 30
0.0
 11
112.40265
 21
36.1745
 31
0.0
  0
LINE
  5
124
330
1D
100
AcDbEntity
  8
0
100
AcDbLine
 10
112.33165
 20
39.5141
 30
0.0
 11
112.35065
 21
38.6125
 31
0.0
  0
LINE
  5
126
330
1D
100
AcDbEntity
  8
0
100
AcDbLine
 10
120.91265
 20
43.8639
 30
0.0
 11
120.91785
 21
45.9423
 31
0.0
  0
LINE
  5
127
330
1D
100
AcDbEntity
  8
0
100
AcDbLine
 10
120.91785
 20
45.9423
 30
0.0
 11
120.92305
 21
46.0874
 31
0.0
  0
LINE
  5
128
330
1D
100
AcDbEntity
  8
0
100
AcDbLine
 10
120.94295
 20
55.3836
 30
0.0
 11
121.01505
 21
55.8099
 31
0.0
  0
LINE
  5
129
330
1D
100
AcDbEntity
  8
0
100
AcDbLine
 10
120.92045
 20
52.6861
 30
0.0
 11
120.92915
 21
51.9077
 31
0.0
  0
LINE
  5
12A
330
1D
100
AcDbEntity
  8
0
100
AcDbLine
 10
120.92045
 20
52.6861
 30
0.0
 11
120.94295
 21
55.3836
 31
0.0
  0
LINE
  5
12B
330
1D
100
AcDbEntity
  8
0
100
AcDbLine
 10
120.91695
 20
49.2175
 30
0.0
 11
120.922948140634
 21
46.139667213294
 31
0.0
  0
LINE
  5
12C
330
1D
100
AcDbEntity
  8
0
100
AcDbLine
 10
120.91695
 20
49.2175
 30
0.0
 11
120.92915
 21
51.9077
 31
0.0
  0
LINE
  5
12E
330
1D
100
AcDbEntity
  8
0
100
AcDbLine
 10
112.28165
 20
40.0197
 30
0.0
 11
112.33165
 21
39.5141
 31
0.0
  0
LINE
  5
130
330
1D
100
AcDbEntity
  8
0
100
AcDbLine
 10
112.14765
 20
41.3866
 30
0.0
 11
112.28165
 21
40.0197
 31
0.0
  0
LINE
  5
132
330
1D
100
AcDbEntity
  8
0
100
AcDbLine
 10
111.55865
 20
44.4354
 30
0.0
 11
111.71765
 21
43.6122
 31
0.0
  0
LINE
  5
133
330
1D
100
AcDbEntity
  8
0
100
AcDbLine
 10
0.82665
 20
107.9955
 30
0.0
 11
1.66365
 21
106.3075
 31
0.0
  0
LINE
  5
134
330
1D
100
AcDbEntity
  8
0
100
AcDbLine
 10
1.66365
 20
106.3075
 30
0.0
 11
2.11165
 21
105.4025
 31
0.0
  0
LINE
  5
135
330
1D
100
AcDbEntity
  8
0
100
AcDbLine
 10
0.04865
 20
110.9705
 30
0.0
 11
0.82665
 21
107.9955
 31
0.0
  0
LINE
  5
136
330
1D
100
AcDbEntity
  8
0
100
AcDbLine
 10
3.77065
 20
102.1665
 30
0.0
 11
3.83265
 21
101.9995
 31
0.0
  0
LINE
  5
137
330
1D
100
AcDbEntity
  8
0
100
AcDbLine
 10
3.77065
 20
102.1665
 30
0.0
 11
3.80965
 21
102.3405
 31
0.0
  0
LINE
  5
138
330
1D
100
AcDbEntity
  8
0
100
AcDbLine
 10
3.80965
 20
102.3405
 30
0.0
 11
4.24814045712
 21
103.139731912125
 31
0.0
  0
LINE
  5
139
330
1D
100
AcDbEntity
  8
0
100
AcDbLine
 10
3.80965
 20
102.3405
 30
0.0
 11
4.24814045712
 21
103.139731912125
 31
0.0
  0
LINE
  5
13A
330
1D
100
AcDbEntity
  8
0
100
AcDbLine
 10
2.11165
 20
105.4025
 30
0.0
 11
3.82965
 21
103.1745
 31
0.0
  0
LINE
  5
13B
330
1D
100
AcDbEntity
  8
0
100
AcDbLine
 10
0.33365
 20
117.7465
 30
0.0
 11
0.53565
 21
117.8695
 31
0.0
  0
LINE
  5
13C
330
1D
100
AcDbEntity
  8
0
100
AcDbLine
 10
0.53565
 20
117.8695
 30
0.0
 11
0.77765
 21
117.8835
 31
0.0
  0
LINE
  5
13D
330
1D
100
AcDbEntity
  8
0
100
AcDbLine
 10
0.22765
 20
117.5485
 30
0.0
 11
0.33365
 21
117.7465
 31
0.0
  0
LINE
  5
13E
330
1D
100
AcDbEntity
  8
0
100
AcDbLine
 10
0.77765
 20
117.8835
 30
0.0
 11
8.82865
 21
116.3555
 31
0.0
  0
LINE
  5
13F
330
1D
100
AcDbEntity
  8
0
100
AcDbLine
 10
-0.15235
 20
114.3345
 30
0.0
 11
0.04865
 21
110.9705
 31
0.0
  0
LINE
  5
140
330
1D
100
AcDbEntity
  8
0
100
AcDbLine
 10
-0.15235
 20
114.3345
 30
0.0
 11
0.22765
 21
117.5485
 31
0.0
  0
LINE
  5
145
330
1D
100
AcDbEntity
  8
0
100
AcDbLine
 10
23.51865
 20
93.2416
 30
0.0
 11
23.70365
 21
93.2994
 31
0.0
  0
LINE
  5
146
330
1D
100
AcDbEntity
  8
0
100
AcDbLine
 10
23.70365
 20
93.2994
 30
0.0
 11
23.83365
 21
93.4327
 31
0.0
  0
LINE
  5
147
330
1D
100
AcDbEntity
  8
0
100
AcDbLine
 10
23.32765
 20
93.276
 30
0.0
 11
23.51865
 21
93.2416
 31
0.0
  0
LINE
  5
149
330
1D
100
AcDbEntity
  8
0
100
AcDbLine
 10
23.83365
 20
93.4327
 30
0.0
 11
24.101179154082
 21
93.920590370402
 31
0.0
  0
LINE
  5
14B
330
1D
100
AcDbEntity
  8
0
100
AcDbLine
 10
91.39065
 20
66.7604
 30
0.0
 11
94.51165
 21
65.1435
 31
0.0
  0
LINE
  5
14C
330
1D
100
AcDbEntity
  8
0
100
AcDbLine
 10
94.51165
 20
65.1435
 30
0.0
 11
97.42165
 21
63.3517
 31
0.0
  0
LINE
  5
14D
330
1D
100
AcDbEntity
  8
0
100
AcDbLine
 10
83.53491826858
 20
70.041327623459
 30
0.0
 11
83.88265
 21
69.8925
 31
0.0
  0
LINE
  5
14E
330
1D
100
AcDbEntity
  8
0
100
AcDbLine
 10
83.80165
 20
69.9411
 30
0.0
 11
83.88265
 21
69.8925
 31
0.0
  0
LINE
  5
151
330
1D
100
AcDbEntity
  8
0
100
AcDbLine
 10
83.53491826858
 20
70.041327623459
 30
0.0
 11
83.88265
 21
69.8925
 31
0.0
  0
LINE
  5
152
330
1D
100
AcDbEntity
  8
0
100
AcDbLine
 10
83.88265
 20
69.8925
 30
0.0
 11
86.94165
 21
68.6547
 31
0.0
  0
LINE
  5
154
330
1D
100
AcDbEntity
  8
0
100
AcDbLine
 10
86.94165
 20
68.6547
 30
0.0
 11
91.39065
 21
66.7604
 31
0.0
  0
LINE
  5
155
330
1D
100
AcDbEntity
  8
0
100
AcDbLine
 10
121.19445
 20
56.6018
 30
0.0
 11
121.34875
 21
57.2675
 31
0.0
  0
LINE
  5
156
330
1D
100
AcDbEntity
  8
0
100
AcDbLine
 10
121.01505
 20
55.8099
 30
0.0
 11
121.19445
 21
56.6018
 31
0.0
  0
LINE
  5
157
330
1D
100
AcDbEntity
  8
0
100
AcDbLine
 10
101.34965
 20
60.3509
 30
0.0
 11
104.69665
 21
57.039
 31
0.0
  0
LINE
  5
158
330
1D
100
AcDbEntity
  8
0
100
AcDbLine
 10
104.69665
 20
57.039
 30
0.0
 11
106.23965
 21
55.1683
 31
0.0
  0
LINE
  5
159
330
1D
100
AcDbEntity
  8
0
100
AcDbLine
 10
97.42165
 20
63.3517
 30
0.0
 11
101.34965
 21
60.3509
 31
0.0
  0
LINE
  5
165
330
1D
100
AcDbEntity
  8
0
100
AcDbLine
 10
77.50165
 20
72.3084
 30
0.0
 11
83.53491826858
 21
70.041327623459
 31
0.0
  0
LINE
  5
167
330
1D
100
AcDbEntity
  8
0
100
AcDbLine
 10
74.89365
 20
73.3786
 30
0.0
 11
77.50165
 21
72.3084
 31
0.0
  0
LINE
  5
169
330
1D
100
AcDbEntity
  8
0
100
AcDbLine
 10
24.75765
 20
93.4394
 30
0.0
 11
74.89365
 21
73.3786
 31
0.0
  0
LINE
  5
16F
330
1D
100
AcDbEntity
  8
0
100
AcDbLine
 10
3.83265
 20
101.9995
 30
0.0
 11
3.97765
 21
101.8845
 31
0.0
  0
LINE
  5
19D
330
1D
100
AcDbEntity
  8
0
100
AcDbLine
 10
24.05265
 20
93.9765
 30
0.0
 11
24.34065
 21
93.6447
 31
0.0
  0
LINE
  5
19E
330
1D
100
AcDbEntity
  8
0
100
AcDbLine
 10
23.59465
 20
94.528
 30
0.0
 11
24.05265
 21
93.9765
 31
0.0
  0
LINE
  5
19F
330
1D
100
AcDbEntity
  8
0
100
AcDbLine
 10
21.86765
 20
96.494
 30
0.0
 11
22.84465
 21
95.4163
 31
0.0
  0
LINE
  5
1A0
330
1D
100
AcDbEntity
  8
0
100
AcDbLine
 10
22.84465
 20
95.4163
 30
0.0
 11
23.59465
 21
94.528
 31
0.0
  0
LINE
  5
1C3
330
1D
100
AcDbEntity
  8
0
100
AcDbLine
 10
7.01065
 20
102.8595
 30
0.0
 11
9.31965
 21
102.5565
 31
0.0
  0
LINE
  5
1C4
330
1D
100
AcDbEntity
  8
0
100
AcDbLine
 10
4.58165
 20
103.1105
 30
0.0
 11
5.34565
 21
103.0365
 31
0.0
  0
LINE
  5
1C5
330
1D
100
AcDbEntity
  8
0
100
AcDbLine
 10
5.34565
 20
103.0365
 30
0.0
 11
7.01065
 21
102.8595
 31
0.0
  0
LINE
  5
1DD
330
1D
100
AcDbEntity
  8
0
100
AcDbLine
 10
11.99865
 20
102.0515
 30
0.0
 11
13.54465
 21
101.6425
 31
0.0
  0
LINE
  5
1DE
330
1D
100
AcDbEntity
  8
0
100
AcDbLine
 10
9.31965
 20
102.5565
 30
0.0
 11
11.99865
 21
102.0515
 31
0.0
  0
LINE
  5
1DF
330
1D
100
AcDbEntity
  8
0
100
AcDbLine
 10
13.54465
 20
101.6425
 30
0.0
 11
15.12065
 21
101.1035
 31
0.0
  0
LINE
  5
1EE
330
1D
100
AcDbEntity
  8
0
100
AcDbLine
 10
15.12065
 20
101.1035
 30
0.0
 11
16.45365
 21
100.5255
 31
0.0
  0
LINE
  5
1F1
330
1D
100
AcDbEntity
  8
0
100
AcDbLine
 10
17.74365
 20
99.8335
 30
0.0
 11
19.96065
 21
98.2756
 31
0.0
  0
LINE
  5
1F2
330
1D
100
AcDbEntity
  8
0
100
AcDbLine
 10
16.45365
 20
100.5255
 30
0.0
 11
17.74365
 21
99.8335
 31
0.0
  0
LINE
  5
1F5
330
1D
100
AcDbEntity
  8
0
100
AcDbLine
 10
19.96065
 20
98.2756
 30
0.0
 11
20.97965
 21
97.3772
 31
0.0
  0
LINE
  5
1F6
330
1D
100
AcDbEntity
  8
0
100
AcDbLine
 10
20.97965
 20
97.3772
 30
0.0
 11
21.86765
 21
96.494
 31
0.0
  0
LINE
  5
1FB
330
1D
100
AcDbEntity
  8
0
100
AcDbLine
 10
4.07965
 20
103.1545
 30
0.0
 11
4.24814045712
 21
103.139731912125
 31
0.0
  0
LINE
  5
1FC
330
1D
100
AcDbEntity
  8
0
100
AcDbLine
 10
4.07965
 20
103.1545
 30
0.0
 11
4.58165
 21
103.1105
 31
0.0
  0
LINE
  5
1FE
330
1D
100
AcDbEntity
  8
0
100
AcDbLine
 10
24.101179154082
 20
93.920590370402
 30
0.0
 11
24.34065
 21
93.6447
 31
0.0
  0
LINE
  5
1FF
330
1D
100
AcDbEntity
  8
0
100
AcDbLine
 10
24.34065
 20
93.6447
 30
0.0
 11
24.44565
 21
93.5332
 31
0.0
  0
LINE
  5
213
330
1D
100
AcDbEntity
  8
0
100
AcDbLine
 10
74.84765
 20
102.8515
 30
0.0
 11
74.84765
 21
103.0805
 31
0.0
  0
LINE
  5
218
330
1D
100
AcDbEntity
  8
0
100
AcDbLine
 10
74.84765
 20
103.0805
 30
0.0
 11
74.84765
 21
102.8515
 31
0.0
  0
LINE
  5
219
330
1D
100
AcDbEntity
  8
0
100
AcDbLine
 10
24.44565
 20
93.5332
 30
0.0
 11
24.75765
 21
93.4394
 31
0.0
  0
LINE
  5
21B
330
1D
100
AcDbEntity
  8
0
100
AcDbLine
 10
24.64865
 20
93.4721
 30
0.0
 11
24.75765
 21
93.4394
 31
0.0
  0
LINE
  5
21C
330
1D
100
AcDbEntity
  8
0
100
AcDbLine
 10
3.82965
 20
103.1745
 30
0.0
 11
4.07965
 21
103.1545
 31
0.0
  0
LINE
  5
21D
330
1D
100
AcDbEntity
  8
0
100
AcDbLine
 10
121.34875
 20
57.2675
 30
0.0
 11
122.52165
 21
62.6944
 31
0.0
  0
LINE
  5
224
330
1D
100
AcDbEntity
  8
0
100
AcDbLine
 10
128.26495
 20
57.5263
 30
0.0
 11
129.90865
 21
57.4375
 31
0.0
  0
LINE
  5
257
330
1D
100
AcDbEntity
  8
0
100
AcDbLine
 10
129.90865
 20
57.4375
 30
0.0
 11
133.84765
 21
57.1358
 31
0.0
  0
LINE
  5
258
330
1D
100
AcDbEntity
  8
0
100
AcDbLine
 10
122.52165
 20
62.6944
 30
0.0
 11
122.63045
 21
63.2264
 31
0.0
  0
LINE
  5
283
330
1D
100
AcDbEntity
  8
0
100
AcDbLine
 10
133.84765
 20
57.1358
 30
0.0
 11
137.78665
 21
57.4375
 31
0.0
  0
LINE
  5
297
330
1D
100
AcDbEntity
  8
0
100
AcDbLine
 10
122.63045
 20
63.2264
 30
0.0
 11
123.24195
 21
66.4712
 31
0.0
  0
LINE
  5
2A1
330
1D
100
AcDbEntity
  8
0
100
AcDbLine
 10
123.47105
 20
67.3766
 30
0.0
 11
123.67805
 21
67.8138
 31
0.0
  0
LINE
  5
2A2
330
1D
100
AcDbEntity
  8
0
100
AcDbLine
 10
123.67805
 20
67.8138
 30
0.0
 11
123.83245
 21
68.016
 31
0.0
  0
LINE
  5
2A3
330
1D
100
AcDbEntity
  8
0
100
AcDbLine
 10
124.26345
 20
68.5455
 30
0.0
 11
124.55525
 21
68.7824
 31
0.0
  0
LINE
  5
2A4
330
1D
100
AcDbEntity
  8
0
100
AcDbLine
 10
123.83245
 20
68.016
 30
0.0
 11
124.26345
 21
68.5455
 31
0.0
  0
LINE
  5
2A6
330
1D
100
AcDbEntity
  8
0
100
AcDbLine
 10
124.55525
 20
68.7824
 30
0.0
 11
124.91575
 21
69.0092
 31
0.0
  0
LINE
  5
2A8
330
1D
100
AcDbEntity
  8
0
100
AcDbLine
 10
125.33145
 20
69.215
 30
0.0
 11
125.82015
 21
69.4089
 31
0.0
  0
LINE
  5
2AA
330
1D
100
AcDbEntity
  8
0
100
AcDbLine
 10
124.91575
 20
69.0092
 30
0.0
 11
125.33145
 21
69.215
 31
0.0
  0
LINE
  5
2AB
330
1D
100
AcDbEntity
  8
0
100
AcDbLine
 10
123.24195
 20
66.4712
 30
0.0
 11
123.47105
 21
67.3766
 31
0.0
  0
LINE
  5
2CD
330
1D
100
AcDbEntity
  8
0
100
AcDbLine
 10
146.772351859366
 20
46.139667213293
 30
0.0
 11
146.77835
 21
49.2175
 31
0.0
  0
LINE
  5
2CE
330
1D
100
AcDbEntity
  8
0
100
AcDbLine
 10
146.77225
 20
46.0874
 30
0.0
 11
146.77745
 21
45.9423
 31
0.0
  0
LINE
  5
2CF
330
1D
100
AcDbEntity
  8
0
100
AcDbLine
 10
146.77745
 20
45.9423
 30
0.0
 11
146.78265
 21
43.8639
 31
0.0
  0
LINE
  5
2D0
330
1D
100
AcDbEntity
  8
0
100
AcDbLine
 10
146.78265
 20
43.8639
 30
0.0
 11
146.83815
 21
10.2404
 31
0.0
  0
LINE
  5
2D1
330
1D
100
AcDbEntity
  8
0
100
AcDbLine
 10
146.772351859366
 20
46.139667213293
 30
0.0
 11
146.77835
 21
49.2175
 31
0.0
  0
LINE
  5
2E2
330
1D
100
AcDbEntity
  8
0
100
AcDbLine
 10
146.75235
 20
55.3836
 30
0.0
 11
146.77485
 21
52.6861
 31
0.0
  0
LINE
  5
2E3
330
1D
100
AcDbEntity
  8
0
100
AcDbLine
 10
146.68025
 20
55.8099
 30
0.0
 11
146.75235
 21
55.3836
 31
0.0
  0
LINE
  5
307
330
1D
100
AcDbEntity
  8
0
100
AcDbLine
 10
146.50085
 20
56.6018
 30
0.0
 11
146.68025
 21
55.8099
 31
0.0
  0
LINE
  5
309
330
1D
100
AcDbEntity
  8
0
100
AcDbLine
 10
143.43185
 20
68.5455
 30
0.0
 11
143.86285
 21
68.016
 31
0.0
  0
LINE
  5
30A
330
1D
100
AcDbEntity
  8
0
100
AcDbLine
 10
144.01725
 20
67.8138
 30
0.0
 11
144.22425
 21
67.3766
 31
0.0
  0
LINE
  5
30B
330
1D
100
AcDbEntity
  8
0
100
AcDbLine
 10
143.86285
 20
68.016
 30
0.0
 11
144.01725
 21
67.8138
 31
0.0
  0
LINE
  5
30C
330
1D
100
AcDbEntity
  8
0
100
AcDbLine
 10
143.14005
 20
68.7824
 30
0.0
 11
143.43185
 21
68.5455
 31
0.0
  0
LINE
  5
30D
330
1D
100
AcDbEntity
  8
0
100
AcDbLine
 10
142.77955
 20
69.0092
 30
0.0
 11
143.14005
 21
68.7824
 31
0.0
  0
LINE
  5
30F
330
1D
100
AcDbEntity
  8
0
100
AcDbLine
 10
142.36385
 20
69.215
 30
0.0
 11
142.77955
 21
69.0092
 31
0.0
  0
LINE
  5
310
330
1D
100
AcDbEntity
  8
0
100
AcDbLine
 10
144.45335
 20
66.4712
 30
0.0
 11
145.06485
 21
63.2264
 31
0.0
  0
LINE
  5
311
330
1D
100
AcDbEntity
  8
0
100
AcDbLine
 10
144.22425
 20
67.3766
 30
0.0
 11
144.45335
 21
66.4712
 31
0.0
  0
LINE
  5
312
330
1D
100
AcDbEntity
  8
0
100
AcDbLine
 10
145.06485
 20
63.2264
 30
0.0
 11
145.17365
 21
62.6944
 31
0.0
  0
LINE
  5
313
330
1D
100
AcDbEntity
  8
0
100
AcDbLine
 10
146.34655
 20
57.2675
 30
0.0
 11
146.50085
 21
56.6018
 31
0.0
  0
LINE
  5
314
330
1D
100
AcDbEntity
  8
0
100
AcDbLine
 10
145.17365
 20
62.6944
 30
0.0
 11
146.34655
 21
57.2675
 31
0.0
  0
LINE
  5
318
330
1D
100
AcDbEntity
  8
0
100
AcDbLine
 10
146.76615
 20
51.9077
 30
0.0
 11
146.77835
 21
49.2175
 31
0.0
  0
LINE
  5
319
330
1D
100
AcDbEntity
  8
0
100
AcDbLine
 10
146.76615
 20
51.9077
 30
0.0
 11
146.77485
 21
52.6861
 31
0.0
  0
LINE
  5
31F
330
1D
100
AcDbEntity
  8
0
100
AcDbLine
 10
125.82015
 20
69.4089
 30
0.0
 11
126.36895
 21
69.5836
 31
0.0
  0
LINE
  5
321
330
1D
100
AcDbEntity
  8
0
100
AcDbLine
 10
126.98655
 20
69.7427
 30
0.0
 11
127.16305
 21
69.7876
 31
0.0
  0
LINE
  5
323
330
1D
100
AcDbEntity
  8
0
100
AcDbLine
 10
126.36895
 20
69.5836
 30
0.0
 11
126.98655
 21
69.7427
 31
0.0
  0
LINE
  5
324
330
1D
100
AcDbEntity
  8
0
100
AcDbLine
 10
127.16305
 20
69.7876
 30
0.0
 11
128.05635
 21
69.9677
 31
0.0
  0
LINE
  5
32A
330
1D
100
AcDbEntity
  8
0
100
AcDbLine
 10
128.05635
 20
69.9677
 30
0.0
 11
129.04545
 21
70.1158
 31
0.0
  0
LINE
  5
32D
330
1D
100
AcDbEntity
  8
0
100
AcDbLine
 10
130.11345
 20
70.232
 30
0.0
 11
130.96445
 21
70.2988
 31
0.0
  0
LINE
  5
330
330
1D
100
AcDbEntity
  8
0
100
AcDbLine
 10
130.96445
 20
70.2988
 30
0.0
 11
131.84065
 21
70.3454
 31
0.0
  0
LINE
  5
331
330
1D
100
AcDbEntity
  8
0
100
AcDbLine
 10
131.84065
 20
70.3454
 30
0.0
 11
133.60695
 21
70.3829
 31
0.0
  0
LINE
  5
333
330
1D
100
AcDbEntity
  8
0
100
AcDbLine
 10
129.04545
 20
70.1158
 30
0.0
 11
130.11345
 21
70.232
 31
0.0
  0
LINE
  5
33A
330
1D
100
AcDbEntity
  8
0
100
AcDbLine
 10
140.70875
 20
69.7427
 30
0.0
 11
141.32635
 21
69.5836
 31
0.0
  0
LINE
  5
33B
330
1D
100
AcDbEntity
  8
0
100
AcDbLine
 10
141.32635
 20
69.5836
 30
0.0
 11
141.87515
 21
69.4089
 31
0.0
  0
LINE
  5
33C
330
1D
100
AcDbEntity
  8
0
100
AcDbLine
 10
141.87515
 20
69.4089
 30
0.0
 11
142.36385
 21
69.215
 31
0.0
  0
LINE
  5
340
330
1D
100
AcDbEntity
  8
0
100
AcDbLine
 10
140.53225
 20
69.7876
 30
0.0
 11
140.70875
 21
69.7427
 31
0.0
  0
LINE
  5
343
330
1D
100
AcDbEntity
  8
0
100
AcDbLine
 10
139.63895
 20
69.9677
 30
0.0
 11
140.53225
 21
69.7876
 31
0.0
  0
LINE
  5
345
330
1D
100
AcDbEntity
  8
0
100
AcDbLine
 10
138.64985
 20
70.1158
 30
0.0
 11
139.63895
 21
69.9677
 31
0.0
  0
LINE
  5
348
330
1D
100
AcDbEntity
  8
0
100
AcDbLine
 10
137.58185
 20
70.232
 30
0.0
 11
138.64985
 21
70.1158
 31
0.0
  0
LINE
  5
34A
330
1D
100
AcDbEntity
  8
0
100
AcDbLine
 10
136.73085
 20
70.2988
 30
0.0
 11
137.58185
 21
70.232
 31
0.0
  0
LINE
  5
34B
330
1D
100
AcDbEntity
  8
0
100
AcDbLine
 10
135.85465
 20
70.3454
 30
0.0
 11
136.73085
 21
70.2988
 31
0.0
  0
LINE
  5
34E
330
1D
100
AcDbEntity
  8
0
100
AcDbLine
 10
134.08835
 20
70.3829
 30
0.0
 11
135.85465
 21
70.3454
 31
0.0
  0
LINE
  5
34F
330
1D
100
AcDbEntity
  8
0
100
AcDbLine
 10
133.84765
 20
70.3778
 30
0.0
 11
134.08835
 21
70.3829
 31
0.0
  0
LINE
  5
350
330
1D
100
AcDbEntity
  8
0
100
AcDbLine
 10
133.60695
 20
70.3829
 30
0.0
 11
133.84765
 21
70.3778
 31
0.0
  0
LINE
  5
353
330
1D
100
AcDbEntity
  8
0
100
AcDbLine
 10
153.06565
 20
86.6
 30
0.0
 11
153.11265
 21
86.4243
 31
0.0
  0
LINE
  5
355
330
1D
100
AcDbEntity
  8
0
100
AcDbLine
 10
152.76265
 20
86.822
 30
0.0
 11
152.89565
 21
86.7619
 31
0.0
  0
LINE
  5
356
330
1D
100
AcDbEntity
  8
0
100
AcDbLine
 10
152.94065
 20
86.7412
 30
0.0
 11
153.06565
 21
86.6
 31
0.0
  0
LINE
  5
358
330
1D
100
AcDbEntity
  8
0
100
AcDbLine
 10
153.11265
 20
86.4243
 30
0.0
 11
153.34565
 21
77.505
 31
0.0
  0
LINE
  5
361
330
1D
100
AcDbEntity
  8
0
100
AcDbLine
 10
152.50965
 20
86.8724
 30
0.0
 11
152.76265
 21
86.822
 31
0.0
  0
LINE
  5
365
330
1D
100
AcDbEntity
  8
0
100
AcDbLine
 10
153.34565
 20
77.505
 30
0.0
 11
154.47029124373
 21
21.803951505683
 31
0.0
  0
LINE
  5
366
330
1D
100
AcDbEntity
  8
0
100
AcDbLine
 10
154.175073139191
 20
35.74509469074
 30
0.0
 11
156.66635
 21
42.6704
 31
0.0
  0
LINE
  5
367
330
1D
100
AcDbEntity
  8
0
100
AcDbLine
 10
154.47029124373
 20
21.803951505682
 30
0.0
 11
154.730916827644
 21
8.89573
 31
0.0
  0
LINE
  5
36B
330
1D
100
AcDbEntity
  8
0
100
AcDbLine
 10
157.88035
 20
44.5329
 30
0.0
 11
158.65835
 21
45.159
 31
0.0
  0
LINE
  5
36C
330
1D
100
AcDbEntity
  8
0
100
AcDbLine
 10
157.24235
 20
43.7649
 30
0.0
 11
157.88035
 21
44.5329
 31
0.0
  0
LINE
  5
36D
330
1D
100
AcDbEntity
  8
0
100
AcDbLine
 10
156.68535
 20
42.6655
 30
0.0
 11
157.24235
 21
43.7649
 31
0.0
  0
LINE
  5
373
330
1D
100
AcDbEntity
  8
0
100
AcDbLine
 10
158.65835
 20
45.159
 30
0.0
 11
159.54535
 21
45.6181
 31
0.0
  0
LINE
  5
375
330
1D
100
AcDbEntity
  8
0
100
AcDbLine
 10
154.462899946909
 20
21.783414084072
 30
0.0
 11
161.370710830608
 21
40.977424007016
 31
0.0
  0
LINE
  5
376
330
1D
100
AcDbEntity
  8
0
100
AcDbLine
 10
154.462899946909
 20
21.783414084072
 30
0.0
 11
161.370710830608
 21
40.977424007016
 31
0.0
  0
LINE
  5
377
330
1D
100
AcDbEntity
  8
0
100
AcDbLine
 10
159.84765
 20
0.1165
 30
0.0
 11
159.84765
 21
7.10405
 31
0.0
  0
LINE
  5
378
330
1D
100
AcDbEntity
  8
0
100
AcDbLine
 10
159.78785
 20
0.1165
 30
0.0
 11
159.84765
 21
0.1165
 31
0.0
  0
LINE
  5
379
330
1D
100
AcDbEntity
  8
0
100
AcDbLine
 10
159.13335
 20
8.55352
 30
0.0
 11
159.51645
 21
8.15755
 31
0.0
  0
LINE
  5
37A
330
1D
100
AcDbEntity
  8
0
100
AcDbLine
 10
159.76185
 20
7.65768
 30
0.0
 11
159.84765
 21
7.10405
 31
0.0
  0
LINE
  5
37B
330
1D
100
AcDbEntity
  8
0
100
AcDbLine
 10
159.51645
 20
8.15755
 30
0.0
 11
159.76185
 21
7.65768
 31
0.0
  0
LINE
  5
37C
330
1D
100
AcDbEntity
  8
0
100
AcDbLine
 10
159.84765
 20
7.10405
 30
0.0
 11
159.84765
 21
0.1165
 31
0.0
  0
LINE
  5
37D
330
1D
100
AcDbEntity
  8
0
100
AcDbLine
 10
159.26075
 20
0.1165
 30
0.0
 11
159.67075
 21
0.1165
 31
0.0
  0
LINE
  5
37E
330
1D
100
AcDbEntity
  8
0
100
AcDbLine
 10
159.67075
 20
0.1165
 30
0.0
 11
159.84765
 21
0.1165
 31
0.0
  0
LINE
  5
37F
330
1D
100
AcDbEntity
  8
0
100
AcDbLine
 10
159.67075
 20
0.1165
 30
0.0
 11
159.78785
 21
0.1165
 31
0.0
  0
LINE
  5
382
330
1D
100
AcDbEntity
  8
0
100
AcDbLine
 10
161.38935
 20
40.9706
 30
0.0
 11
176.15235
 21
43.6232
 31
0.0
  0
LINE
  5
385
330
1D
100
AcDbEntity
  8
0
100
AcDbLine
 10
175.87735
 20
45.1454
 30
0.0
 11
176.02135
 21
44.3466
 31
0.0
  0
LINE
  5
386
330
1D
100
AcDbEntity
  8
0
100
AcDbLine
 10
176.11735
 20
43.8118
 30
0.0
 11
176.15235
 21
43.6232
 31
0.0
  0
LINE
  5
387
330
1D
100
AcDbEntity
  8
0
100
AcDbLine
 10
176.12035
 20
43.8091
 30
0.0
 11
176.15235
 21
43.6232
 31
0.0
  0
LINE
  5
388
330
1D
100
AcDbEntity
  8
0
100
AcDbLine
 10
176.02135
 20
44.3466
 30
0.0
 11
176.11735
 21
43.8118
 31
0.0
  0
LINE
  5
389
330
1D
100
AcDbEntity
  8
0
100
AcDbLine
 10
176.02535
 20
44.3415
 30
0.0
 11
176.12035
 21
43.8091
 31
0.0
  0
LINE
  5
38A
330
1D
100
AcDbEntity
  8
0
100
AcDbLine
 10
175.88235
 20
45.1389
 30
0.0
 11
176.02535
 21
44.3415
 31
0.0
  0
LINE
  5
38B
330
1D
100
AcDbEntity
  8
0
100
AcDbLine
 10
175.30035
 20
48.3585
 30
0.0
 11
175.39635
 21
47.8264
 31
0.0
  0
LINE
  5
38C
330
1D
100
AcDbEntity
  8
0
100
AcDbLine
 10
175.53835
 20
47.0288
 30
0.0
 11
175.70735
 21
46.0874
 31
0.0
  0
LINE
  5
38D
330
1D
100
AcDbEntity
  8
0
100
AcDbLine
 10
175.70735
 20
46.0874
 30
0.0
 11
175.87735
 21
45.1454
 31
0.0
  0
LINE
  5
38E
330
1D
100
AcDbEntity
  8
0
100
AcDbLine
 10
175.71335
 20
46.0803
 30
0.0
 11
175.88235
 21
45.1389
 31
0.0
  0
LINE
  5
38F
330
1D
100
AcDbEntity
  8
0
100
AcDbLine
 10
175.54335
 20
47.0223
 30
0.0
 11
175.71335
 21
46.0803
 31
0.0
  0
LINE
  5
390
330
1D
100
AcDbEntity
  8
0
100
AcDbLine
 10
175.39635
 20
47.8264
 30
0.0
 11
175.53835
 21
47.0288
 31
0.0
  0
LINE
  5
391
330
1D
100
AcDbEntity
  8
0
100
AcDbLine
 10
175.40035
 20
47.8213
 30
0.0
 11
175.54335
 21
47.0223
 31
0.0
  0
LINE
  5
392
330
1D
100
AcDbEntity
  8
0
100
AcDbLine
 10
175.30335
 20
48.3558
 30
0.0
 11
175.40035
 21
47.8213
 31
0.0
  0
LINE
  5
393
330
1D
100
AcDbEntity
  8
0
100
AcDbLine
 10
175.30335
 20
48.3558
 30
0.0
 11
175.54335
 21
47.0223
 31
0.0
  0
LINE
  5
394
330
1D
100
AcDbEntity
  8
0
100
AcDbLine
 10
175.26835
 20
48.5444
 30
0.0
 11
175.30335
 21
48.3558
 31
0.0
  0
LINE
  5
395
330
1D
100
AcDbEntity
  8
0
100
AcDbLine
 10
175.26835
 20
48.5444
 30
0.0
 11
175.30035
 21
48.3585
 31
0.0
  0
LINE
  5
396
330
1D
100
AcDbEntity
  8
0
100
AcDbLine
 10
160.50435
 20
45.8917
 30
0.0
 11
175.26835
 21
48.5444
 31
0.0
  0
LINE
  5
397
330
1D
100
AcDbEntity
  8
0
100
AcDbLine
 10
159.54535
 20
45.6181
 30
0.0
 11
160.50435
 21
45.8917
 31
0.0
  0
LINE
  5
3C2
330
1D
100
AcDbEntity
  8
0
100
AcDbLine
 10
3.97765
 20
101.8845
 30
0.0
 11
23.32765
 21
93.276
 31
0.0
  0
LINE
  5
3C3
330
1D
100
AcDbEntity
  8
0
100
AcDbLine
 10
152.94065
 20
86.7412
 30
0.0
 11
152.89565
 21
86.7619
 31
0.0
  0
LINE
  5
3C4
330
1D
100
AcDbEntity
  8
0
100
AcDbLine
 10
152.50965
 20
86.8724
 30
0.0
 11
8.82865
 21
116.3555
 31
0.0
  0
LINE
  5
3C5
330
1D
100
AcDbEntity
  8
0
100
AcDbLine
 10
137.78665
 20
57.4375
 30
0.0
 11
141.892088168845
 21
58.097962570901
 31
0.0
  0
LINE
  5
3C6
330
1D
100
AcDbEntity
  8
0
100
AcDbLine
 10
141.892088168845
 20
58.097962570901
 30
0.0
 11
144.795600519848
 21
58.887266899329
 31
0.0
  0
LINE
  5
3C7
330
1D
100
AcDbEntity
  8
0
100
AcDbLine
 10
144.795600519848
 20
58.887266899329
 30
0.0
 11
145.514431247524
 21
59.155066582189
 31
0.0
  0
LINE
  5
3C8
330
1D
100
AcDbEntity
  8
0
100
AcDbLine
 10
128.26495
 20
57.5263
 30
0.0
 11
125.146682173493
 21
58.188550101293
 31
0.0
  0
LINE
  5
3C9
330
1D
100
AcDbEntity
  8
0
100
AcDbLine
 10
125.146682173493
 20
58.188550101293
 30
0.0
 11
122.997713268533
 21
59.184413740177
 31
0.0
  0
LINE
  5
3CA
330
1D
100
AcDbEntity
  8
0
100
AcDbLine
 10
122.997713268533
 20
59.184413740177
 30
0.0
 11
122.26484674414
 21
59.708482117524
 31
0.0
  0
ENDSEC
  0
SECTION
  2
OBJECTS
  0
DICTIONARY
  5
C
330
0
100
AcDbDictionary
281
     1
  3
ACAD_GROUP
350
D
  3
ACAD_LAYOUT
350
1A
  3
ACAD_MLEADERSTYLE
350
3CD
  3
ACAD_MLINESTYLE
350
17
  3
ACAD_PLOTSETTINGS
350
19
  3
ACAD_PLOTSTYLENAME
350
E
  3
ACAD_SCALELIST
350
3A0
  3
AcDbVariableDictionary
350
3CB
  3
DWGPROPS
350
3D0
  0
DICTIONARY
  5
D
102
{ACAD_REACTORS
330
C
102
}
330
C
100
AcDbDictionary
281
     1
  0
DICTIONARY
  5
1A
102
{ACAD_REACTORS
330
C
102
}
330
C
100
AcDbDictionary
281
     1
  3
Layout1
350
1C
  3
Model
350
1E
  0
DICTIONARY
  5
3CD
102
{ACAD_REACTORS
330
C
102
}
330
C
100
AcDbDictionary
281
     1
  0
DICTIONARY
  5
17
102
{ACAD_REACTORS
330
C
102
}
330
C
100
AcDbDictionary
281
     1
  3
Standard
350
18
  0
DICTIONARY
  5
19
102
{ACAD_REACTORS
330
C
102
}
330
C
100
AcDbDictionary
281
     1
  0
ACDBDICTIONARYWDFLT
  5
E
102
{ACAD_REACTORS
330
C
102
}
330
C
100
AcDbDictionary
281
     1
  3
Normal
350
F
100
AcDbDictionaryWithDefault
340
F
  0
DICTIONARY
  5
3A0
102
{ACAD_REACTORS
330
C
102
}
330
C
100
AcDbDictionary
281
     1
  3
A0
350
3A1
  3
A1
350
3A2
  3
A2
350
3A3
  3
A3
350
3A4
  3
A4
350
3A5
  3
A5
350
3A6
  3
A6
350
3A7
  3
A7
350
3A8
  3
A8
350
3A9
  3
A9
350
3AA
  3
B0
350
3AB
  3
B1
350
3AC
  3
B2
350
3AD
  3
B3
350
3AE
  3
B4
350
3AF
  3
B5
350
3B0
  3
B6
350
3B1
  3
B7
350
3B2
  3
B8
350
3B3
  3
B9
350
3B4
  3
C0
350
3B5
  3
C1
350
3B6
  3
C2
350
3B7
  3
C3
350
3B8
  3
C4
350
3B9
  3
C5
350
3BA
  3
C6
350
3BB
  3
C7
350
3BC
  3
C8
350
3BD
  3
C9
350
3BE
  3
D0
350
3BF
  3
D1
350
3C0
  3
D2
350
3C1
  0
DICTIONARY
  5
3CB
102
{ACAD_REACTORS
330
C
102
}
330
C
100
AcDbDictionary
281
     1
  3
CANNOSCALE
350
3CE
  0
XRECORD
  5
3D0
102
{ACAD_REACTORS
330
C
102
}
330
C
100
AcDbXrecord
280
     1
  1
DWGPROPS COOKIE
  2

  3

  4

  6

  7

  8
MARTIN
  9

300
=
301
=
302
=
303
=
304
=
305
=
306
=
307
=
308
=
309
=
 40
0.0
 41
2455873.336678773
 42
2455873.339069363
  1

 90
        0
  0
LAYOUT
  5
1C
102
{ACAD_REACTORS
330
1A
102
}
330
1A
100
AcDbPlotSettings
  1

  2
none_device
  4

  6

 40
0.0
 41
0.0
 42
0.0
 43
0.0
 44
0.0
 45
0.0
 46
0.0
 47
0.0
 48
0.0
 49
0.0
140
0.0
141
0.0
142
1.0
143
1.0
 70
   688
 72
     0
 73
     0
 74
     5
  7

 75
    16
147
1.0
148
0.0
149
0.0
100
AcDbLayout
  1
Layout1
 70
     1
 71
     1
 10
0.0
 20
0.0
 11
12.0
 21
9.0
 12
0.0
 22
0.0
 32
0.0
 14
1.000000000000E+20
 24
1.000000000000E+20
 34
1.000000000000E+20
 15
-1.000000000000E+20
 25
-1.000000000000E+20
 35
-1.000000000000E+20
146
0.0
 13
0.0
 23
0.0
 33
0.0
 16
1.0
 26
0.0
 36
0.0
 17
0.0
 27
1.0
 37
0.0
 76
     0
330
1B
  0
LAYOUT
  5
1E
102
{ACAD_REACTORS
330
1A
102
}
330
1A
100
AcDbPlotSettings
  1

  2
none_device
  4

  6

 40
0.0
 41
0.0
 42
0.0
 43
0.0
 44
0.0
 45
0.0
 46
0.0
 47
0.0
 48
0.0
 49
0.0
140
0.0
141
0.0
142
1.0
143
1.0
 70
  1712
 72
     0
 73
     0
 74
     0
  7

 75
     0
147
1.0
148
0.0
149
0.0
100
AcDbLayout
  1
Model
 70
     1
 71
     0
 10
0.0
 20
0.0
 11
12.0
 21
9.0
 12
0.0
 22
0.0
 32
0.0
 14
-0.15235
 24
0.1165
 34
0.0
 15
176.15235
 25
117.8835
 35
0.0
146
0.0
 13
0.0
 23
0.0
 33
0.0
 16
1.0
 26
0.0
 36
0.0
 17
0.0
 27
1.0
 37
0.0
 76
     0
330
1D
331
39B
  0
MLINESTYLE
  5
18
102
{ACAD_REACTORS
330
17
102
}
330
17
100
AcDbMlineStyle
  2
Standard
 70
     0
  3

 62
   256
 51
90.0
 52
90.0
 71
     2
 49
0.5
 62
   256
  6
BYLAYER
 49
-0.5
 62
   256
  6
BYLAYER
  0
ACDBPLACEHOLDER
  5
F
102
{ACAD_REACTORS
330
E
102
}
330
E
  0
SCALE
  5
3A1
102
{ACAD_REACTORS
330
3A0
102
}
330
3A0
100
AcDbScale
 70
     0
300
1:1
140
1.0
141
1.0
290
     1
  0
SCALE
  5
3A2
102
{ACAD_REACTORS
330
3A0
102
}
330
3A0
100
AcDbScale
 70
     0
300
1:2
140
1.0
141
2.0
290
     0
  0
SCALE
  5
3A3
102
{ACAD_REACTORS
330
3A0
102
}
330
3A0
100
AcDbScale
 70
     0
300
1:4
140
1.0
141
4.0
290
     0
  0
SCALE
  5
3A4
102
{ACAD_REACTORS
330
3A0
102
}
330
3A0
100
AcDbScale
 70
     0
300
1:5
140
1.0
141
5.0
290
     0
  0
SCALE
  5
3A5
102
{ACAD_REACTORS
330
3A0
102
}
330
3A0
100
AcDbScale
 70
     0
300
1:8
140
1.0
141
8.0
290
     0
  0
SCALE
  5
3A6
102
{ACAD_REACTORS
330
3A0
102
}
330
3A0
100
AcDbScale
 70
     0
300
1:10
140
1.0
141
10.0
290
     0
  0
SCALE
  5
3A7
102
{ACAD_REACTORS
330
3A0
102
}
330
3A0
100
AcDbScale
 70
     0
300
1:16
140
1.0
141
16.0
290
     0
  0
SCALE
  5
3A8
102
{ACAD_REACTORS
330
3A0
102
}
330
3A0
100
AcDbScale
 70
     0
300
1:20
140
1.0
141
20.0
290
     0
  0
SCALE
  5
3A9
102
{ACAD_REACTORS
330
3A0
102
}
330
3A0
100
AcDbScale
 70
     0
300
1:30
140
1.0
141
30.0
290
     0
  0
SCALE
  5
3AA
102
{ACAD_REACTORS
330
3A0
102
}
330
3A0
100
AcDbScale
 70
     0
300
1:40
140
1.0
141
40.0
290
     0
  0
SCALE
  5
3AB
102
{ACAD_REACTORS
330
3A0
102
}
330
3A0
100
AcDbScale
 70
     0
300
1:50
140
1.0
141
50.0
290
     0
  0
SCALE
  5
3AC
102
{ACAD_REACTORS
330
3A0
102
}
330
3A0
100
AcDbScale
 70
     0
300
1:100
140
1.0
141
100.0
290
     0
  0
SCALE
  5
3AD
102
{ACAD_REACTORS
330
3A0
102
}
330
3A0
100
AcDbScale
 70
     0
300
2:1
140
2.0
141
1.0
290
     0
  0
SCALE
  5
3AE
102
{ACAD_REACTORS
330
3A0
102
}
330
3A0
100
AcDbScale
 70
     0
300
4:1
140
4.0
141
1.0
290
     0
  0
SCALE
  5
3AF
102
{ACAD_REACTORS
330
3A0
102
}
330
3A0
100
AcDbScale
 70
     0
300
8:1
140
8.0
141
1.0
290
     0
  0
SCALE
  5
3B0
102
{ACAD_REACTORS
330
3A0
102
}
330
3A0
100
AcDbScale
 70
     0
300
10:1
140
10.0
141
1.0
290
     0
  0
SCALE
  5
3B1
102
{ACAD_REACTORS
330
3A0
102
}
330
3A0
100
AcDbScale
 70
     0
300
100:1
140
100.0
141
1.0
290
     0
  0
SCALE
  5
3B2
102
{ACAD_REACTORS
330
3A0
102
}
330
3A0
100
AcDbScale
 70
     0
300
1/128" = 1'-0"
140
0.0078125
141
12.0
290
     0
  0
SCALE
  5
3B3
102
{ACAD_REACTORS
330
3A0
102
}
330
3A0
100
AcDbScale
 70
     0
300
1/64" = 1'-0"
140
0.015625
141
12.0
290
     0
  0
SCALE
  5
3B4
102
{ACAD_REACTORS
330
3A0
102
}
330
3A0
100
AcDbScale
 70
     0
300
1/32" = 1'-0"
140
0.03125
141
12.0
290
     0
  0
SCALE
  5
3B5
102
{ACAD_REACTORS
330
3A0
102
}
330
3A0
100
AcDbScale
 70
     0
300
1/16" = 1'-0"
140
0.0625
141
12.0
290
     0
  0
SCALE
  5
3B6
102
{ACAD_REACTORS
330
3A0
102
}
330
3A0
100
AcDbScale
 70
     0
300
3/32" = 1'-0"
140
0.09375
141
12.0
290
     0
  0
SCALE
  5
3B7
102
{ACAD_REACTORS
330
3A0
102
}
330
3A0
100
AcDbScale
 70
     0
300
1/8" = 1'-0"
140
0.125
141
12.0
290
     0
  0
SCALE
  5
3B8
102
{ACAD_REACTORS
330
3A0
102
}
330
3A0
100
AcDbScale
 70
     0
300
3/16" = 1'-0"
140
0.1875
141
12.0
290
     0
  0
SCALE
  5
3B9
102
{ACAD_REACTORS
330
3A0
102
}
330
3A0
100
AcDbScale
 70
     0
300
1/4" = 1'-0"
140
0.25
141
12.0
290
     0
  0
SCALE
  5
3BA
102
{ACAD_REACTORS
330
3A0
102
}
330
3A0
100
AcDbScale
 70
     0
300
3/8" = 1'-0"
140
0.375
141
12.0
290
     0
  0
SCALE
  5
3BB
102
{ACAD_REACTORS
330
3A0
102
}
330
3A0
100
AcDbScale
 70
     0
300
1/2" = 1'-0"
140
0.5
141
12.0
290
     0
  0
SCALE
  5
3BC
102
{ACAD_REACTORS
330
3A0
102
}
330
3A0
100
AcDbScale
 70
     0
300
3/4" = 1'-0"
140
0.75
141
12.0
290
     0
  0
SCALE
  5
3BD
102
{ACAD_REACTORS
330
3A0
102
}
330
3A0
100
AcDbScale
 70
     0
300
1" = 1'-0"
140
1.0
141
12.0
290
     0
  0
SCALE
  5
3BE
102
{ACAD_REACTORS
330
3A0
102
}
330
3A0
100
AcDbScale
 70
     0
300
1-1/2" = 1'-0"
140
1.5
141
12.0
290
     0
  0
SCALE
  5
3BF
102
{ACAD_REACTORS
330
3A0
102
}
330
3A0
100
AcDbScale
 70
     0
300
3" = 1'-0"
140
3.0
141
12.0
290
     0
  0
SCALE
  5
3C0
102
{ACAD_REACTORS
330
3A0
102
}
330
3A0
100
AcDbScale
 70
     0
300
6" = 1'-0"
140
6.0
141
12.0
290
     0
  0
SCALE
  5
3C1
102
{ACAD_REACTORS
330
3A0
102
}
330
3A0
100
AcDbScale
 70
     0
300
1'-0" = 1'-0"
140
12.0
141
12.0
290
     0
  0
DICTIONARYVAR
  5
3CE
102
{ACAD_REACTORS
330
3CB
102
}
330
3CB
100
DictionaryVariables
280
     0
  1
1:1
  0
ENDSEC
  0
SECTION
  2
THUMBNAILIMAGE
 90
    16364
310
28000000B40000005500000001000800000000000000000000000000000000000000000000000000FFFFFF000000FF0000FFFF0000FF0000FFFF0000FF000000FF00FF000000000080808000C0C0C0000000FF007F7FFF000000A5005252A50000007F003F3F7F0000004C0026264C000000260013132600003FFF007F9FFF
310
000029A5005267A500001F7F003F4F7F0000134C00262F4C000009260013172600007FFF007FBFFF000052A500527CA500003F7F003F5F7F0000264C0026394C0000132600131C260000BFFF007FDFFF00007CA5005291A500005F7F003F6F7F0000394C0026424C00001C26001321260000FFFF007FFFFF0000A5A50052A5
310
A500007F7F003F7F7F00004C4C00264C4C00002626001326260000FFBF007FFFDF0000A57C0052A59100007F5F003F7F6F00004C3900264C420000261C001326210000FF7F007FFFBF0000A5520052A57C00007F3F003F7F5F00004C2600264C39000026130013261C0000FF3F007FFF9F0000A5290052A56700007F1F003F
310
7F4F00004C1300264C2F00002609001326170000FF00007FFF7F0000A5000052A55200007F00003F7F3F00004C0000264C260000260000132613003FFF00009FFF7F0029A5000067A552001F7F00004F7F3F00134C00002F4C260009260000172613007FFF0000BFFF7F0052A500007CA552003F7F00005F7F3F00264C0000
310
394C2600132600001C261300BFFF0000DFFF7F007CA5000091A552005F7F00006F7F3F00394C0000424C26001C26000021261300FFFF0000FFFF7F00A5A50000A5A552007F7F00007F7F3F004C4C00004C4C26002626000026261300FFBF0000FFDF7F00A57C0000A59152007F5F00007F6F3F004C3900004C422600261C00
310
0026211300FF7F0000FFBF7F00A5520000A57C52007F3F00007F5F3F004C2600004C39260026130000261C1300FF3F0000FF9F7F00A5290000A56752007F1F00007F4F3F004C1300004C2F26002609000026171300FF000000FF7F7F00A5000000A55252007F0000007F3F3F004C0000004C2626002600000026131300FF00
310
3F00FF7F9F00A5002900A55267007F001F007F3F4F004C0013004C262F002600090026131700FF007F00FF7FBF00A5005200A5527C007F003F007F3F5F004C0026004C2639002600130026131C00FF00BF00FF7FDF00A5007C00A55291007F005F007F3F6F004C0039004C26420026001C0026132100FF00FF00FF7FFF00A5
310
00A500A552A5007F007F007F3F7F004C004C004C264C002600260026132600BF00FF00DF7FFF007C00A5009152A5005F007F006F3F7F0039004C0042264C001C002600211326007F00FF00BF7FFF005200A5007C52A5003F007F005F3F7F0026004C0039264C00130026001C1326003F00FF009F7FFF002900A5006752A500
310
1F007F004F3F7F0013004C002F264C000900260017132600000000002D2D2D005B5B5B0089898900B7B7B700B3B3B30000000000000000000000000000000000000000000000000000000000000000000000000000000000000000000000000000000000000000000000000000000000000000000000000000000000000000
310
00000000000000000000000000000000000000000000000000000000000000000000000000000000000000000000000000000000000000000000000000000000000000000000000000000000000000000000000000000000000000000000000000000000000000000000000000000000000000000000000000000000000000
310
00000000000000000000000000000000000000000000000000000000000000000000000000000000000000000000000000000000000000000000000000000000000000000000000000000000000000000000000000000000000000000000000000000000000000000000000000000000000000000000000000000000000000
310
00000000000000000000000000000000000000000000000000000000000000000000000000000000000000000000000000000000000000000000000000000000000000000000000000000000000000000000000000000000000000000000000000000000000000000000000000000000000000000000000000000000000000
310
00000000000000000000000000000000000000000000000000000000000000000000000000000000000000000000000000000000000000000000000000000000000000000000000000000000000000000000000000000000000000000000000000000000000000000000000000000000000000000000000000000000000000
310
00000000000000000000000000000000000000000000000000000000000000000000000000000000000000000000000000000000000000000707070707070707070707070707070707070707070707070707070707070707070707000000000000000000000000000000000000000000000000000000000000000000000000
310
00000000000000000000000000000000000000000000000000000000000000000000000000000000000000000000000000000000000000000000000000000000000000000000000000000000000000000000000000000000000000000000000000000000000000000000000000070000000000000000000000000000000000
310
00000000000000000000000000000000070000000000000000000000000000000000000000000000000000000000000000000000000000000000000000000000000000000000000000000000000000000000000000000000000000000000000000000000000000000000000000000000000000000000000000000000000000
310
00000000000000000000000000000000000000000000000000000000000000000000000700000000000000000000000000000000000000000000000000000000000000000007000000000000000000000000000000000000000000000000000000000000000000000000000000000000000000000000000000000000000000
310
00000000000000000000000000000000000000000000000000000000000000000000000000000000000000000000000000000000000000000000000000000000000000000000000000000000000000000000000000000000070000000000000000000000000000000000000000000000000000000000000000000700000000
310
00000000000000000000000000000000000000000000000000000000000000000000000000000000000000000000000000000000000000000000000000000000000000000000000000000000000000000000000000000000000000000000000000000000000000000000000000000000000000000000000000000000000000
310
00000000000000000000000000000700000000000000000000000000000000000000000000000000000000000000000007000000000000000000000000000000000000000000000000000000000000000000000000000000000000000000000000000000000000000000000000000000000000000000000000000000000000
310
00000000000000000000000000000000000000000000000000000000000000000000000000000000000000000000000000000000000000000000000000000000000000070700000000000000000000000000000000000000000000000000000000000000000700000000000000000000000000000000000000000000000000
310
00000000000000000000000000000000000000000000000000000000000000000000000000000000000000000000000000000000000000000000000000000000000000000000000000000000000000000000000000000000000000000000000000000000000000000000000000000000000000000000000000070707070707
310
07070707070707070707070707070707070707070707070707070700000000000000000000000000000000000000000000000000000000000000000000000000000000000000000000000000000000000000000000000000000000000000000000000000000000000000000000000000000000000000000000000000000000
310
00000000000000000000000000000000000000000000000000000000000000000000000000000000000000000000000000070000000000070000000000000000000000000000000007000000000700000000000000000000000000000000000000000000000000000000000000000000000000000000000000000000000000
310
00000000000000000000000000000000000000000000000000000000000000000000000000000000000000000000000000000000000000000000000000000000000000000000000000000000000000000000000000000000000000000000000000000000000007000000000007000000000000000000000000000000000700
310
00000007000000000000000000000000000000000000000000000000000000000000000000000000000000000000000000000000000000000000000000000000000000000000000000000000000000000000000000000000000000000000000000000000000000000000000000000000000000000000000000000000000000
310
00000000000000000000000000000000000000000000000000000000070000000000070000000000000000000000000000000007000000000700000000000000000000000000000000000000000000000000000000000000000000000000000000000000000000000000000000000000000000000000000000000000000000
310
00000000000000000000000000000000000000000000000000000000000000000000000000000000000000000000000000000000000000000000000000000000000000000000000000000000000000000007000000000007000000000000000000000000000000000700000000070000000000000000000000000000000000
310
00000000000000000000000000000000000000000000000000000000000000000000000000000000000000000000000000000000000000000000000000000000000000000000000000000000000000000000000000000000000000000000000000000000000000000000000000000000000000000000000000000000000000
310
00000000000000070000000000070000000000000000000000000000000007000000000700000000000000000000000000000000000000000000000000000000000000000000000000000000000000000000000000000000000000000000000000000000000000000000000000000000000000000000000000000000000000
310
00000000000000000000000000000000000000000000000000000000000000000000000000000000000000000000000000000000000000000000000007000000000007000000000000000000000000000000000700000000070000000000000000000000000000000000000000000000000000000000000000000000000000
310
00000000000000000000000000000000000000000000000000000000000000000000000000000000000000000000000000000000000000000000000000000000000000000000000000000000000000000000000000000000000000000000000000000000000000000000000000000000000700000000000700000000000000
310
00000000000000000007000000000700000000000000000000000000000000000000000000000000000000000000000000000000000000000000000000000000000000000000000000000000000000000000000000000000000000000000000000000000000000000000000000000000000000000000000000000000000000
310
00000000000000000000000000000000000000000000000000000000000000000000000000000007000000000007000000000000000000000000000000000700000000070000000000000000000000000000000000000000000000000000000000000000000000000000000000000000000000000000000000000000000000
310
00000000000000000000000000000000000000000000000000000000000000000000000000000000000000000000000000000000000000000000000000000000000000000000000000000000000000000000000000000000000000000700000000000700000000000000000000000000000000070000000007000000000000
310
00000000000000000000000000000000000000000000000000000000000000000000000000000000000000000000000000000000000000000000000000000000000000000000000000000000000000000000000000000000000000000000000000000000000000000000000000000000000000000000000000000000000000
310
00000000000000000000000000000000000007000000000007000000000000000000000000000000000700000000070700000000000000000000000000000000000000000000000000000000000000000000000000000000000000000000000000000000000000000000000000000000000000000000000000000000000000
310
00000000000000000000000000000000000000000000000000000000000000000000000000000000000000000000000000000000000000000000000000000000000000000000000700000000000700000000000000000000000000000000070000000007070000000000000000000000000000000000000000000000000000
310
00000000000000000000000000000000000000000000000000000000000000000000000000000000000000000000000000000000000000000000000000000000000000000000000000000000000000000000000000000000000000000000000000000000000000000000000000000000000000000000000000000000070000
310
00000007000000000000000000000000000000000700000000070700000000000000000000000000000000000000000000000000000000000000000000000000000000000000000000000000000000000000000000000000000000000000000000000000000000000000000000000000000000000000000000000000000000
310
00000000000000000000000000000000000000000000000000000000000000000000000000000000000000000000000000000700000000000700000000000000000000000000000000070000000007000700000000000000000000000000000000000000000000000000000000000000000000000000000000000000000000
310
00000000000000000000000000000000000000000000000000000000000000000000000000000000000000000000000000000000000000000000000000000000000000000000000000000000000000000000000000000000000000000000000000000000000000070000000000070000000000000000000000000000000007
310
00000000070007000000000000000000000000000000000000000000000000000000000000000000000000000000000000000000000000000000000000000000000000000000000000000000000000000000000000000000000000000000000000000000000000000000000000000000000000000000000000000000000000
310
00000000000000000000000000000000000000000000000000000000000700000000000700000000000000000000000000000000070000000007000700000000000000000000000000000000000000000000000000000000000000000000000000000000000000000000000000000000000000000000000000000000000000
310
00000000000000000000000000000000000000000000000000000000000000000000000000000000000000000000000000000000000000000000000000000000000000000000000000000000000000000000070000000000070000000000000000000000000000000007000000000700070000000000000000000000000000
310
00000000000000000000000000000000000000000000000000000000000000000000000000000000000000000000000000000000000000000000000000000000000000000000000000000000000000000000000000000000000000000000000000000000000000000000000000000000000000000000000000000000000000
310
00000000000000000000000000000700000000000000000000000000000000070000000007000007000000000000000000000000000000000000000000000000000000000000000000000000000000000000000000000000000000000000000000000000000000000000000000000000000000000000000000000000000000
310
00000000000000000000000000000000000000000000000000000000000000000000000000000000000000000000000000000000000000000000000000070000000000070000000000000000000000000000000007000000000700000700000000000000000000000000000000000000000000000000000000000000000000
310
00000000000000000000000000000000000000000000000000000000000000000000000000000000000000000000000000000000000000000000000000000000000000000000000000000000000000000000000000000000000000000000000000000000000000000000000000000000000007000000000007000000000000
310
00000000000000000000070000000007000007000000000000000000000000000000000000000000000000000000000000000000000000000000000000000000000000000000000000000000000000000000000000000000000000000000000000000000000000000000000000000000000000000000000000000000000000
310
00000000000000000000000000000000000000000000000000000000000000000000000000000000070000000000070000000000000000000000000000000007000000000707000007000000000000000000000000000000000000000000000000000000000000000000000000000000000000000000000000000000000000
310
00000000000000000000000000000000000000000000000000000000000000000000000000000000000000000000000000000000000000000000000000000000000000000000000000000000000000000000000000000000000000000007000000000007000000000000000000000000000000000700000000070700000707
310
07070700000000000000000000000000000000000000000000000000000000000000000000000000000000000000000000000000000000000000000000000000000000000000000000000000000000000000000000000000000000000000000000000000000000000000000000000000000000000000000000000000000000
310
00000000000000000000000000000000000000070000000000070000000000000000000000000000000007000000000707070000000000000707070707000000000000000000000000000000000000000000000000000000000000000000000000000000000000000000000000000000000000000000000000000000000000
310
00000000000000000000000000000000000000000000000000000000000000000000000000000000000000000000000000000000000000000000000000000000000000000000000707000000000007000000000000000000000000000000000700000000070007070000000000000000000007000000000000000000000000
310
00000000000000000000000000000000000000000000000000000000000000000000000000000000000000000000000000000000000000000000000000000000000000000000000000000000000000000000000000000000000000000000000000000000000000000000000000000000000000000000000000000000070000
310
00000000070000000000000000000000000000000007000000000700000707070700000000000000070000000000000000000000000000000000000000000000000000000000000000000000000000000000000000000000000000000000000000000000000000000000000000000000000000000000000000000000000000
310
00000000000000000000000000000000000000000000000000000000000000000000000000000000000000000000000000000700000000000007000000000000000000000000000000000700000000070000000000000707070707000007000000000000000000000000000000000000000000000000000000000000000000
310
00000000000000000000000000000000000000000000000000000000000000000000000000000000000000000000000000000000000000000000000000000000000000000000000000000000000000000000000000000000000000000000000000000000000007070000000000000700000000000000000000000000000000
310
00000000000700000000000000000000000707070000000000000000000000000000000000000000000000000000000000000000000000000000000000000000000000000000000000000000000000000000000000000000000000000000000000000000000000000000000000000000000000000000000000000000000000
310
00000000000000000000000000000000000000000000000000000000070000000000000007000000000000000000000000000000000700000007000000000000000000000000000000000000000000000000000000000000000000000000000000000000000000000000000000000000000000000000000000000000000000
310
00000000000000000000000000000000000000000000000000000000000000000000000000000000000000000000000000000000000000000000000000000000000000000000000000000000000000000700000000000000000700000000000000000000000000000000070000000700000000000000000000000000000000
310
00000000000000000000000000000000000000000000000000000000000000000000000000000000000000000000000000000000000000000000000000000000000000000000000000000000000000000000000000000000000000000000000000000000000000000000000000000000000000000000000000000000000000
310
00000000000007000000000000000007000000000000000000000000000000000700000007000000000000000000000000000000000000000000000000000000000000000000000000000000000000000000000000000000000000000000000000000000000000000000000000000000000000000000000000000000000000
310
00000000000000000000000000000000000000000000000000000000000000000000000000000000000000000000000000000000000000000000070000000000000000000700000000000000000000000000000000070000000700000000000000000000000000000000000000000000000000000000000000000000000000
310
00000000000000000000000000000000000000000000000000000000000000000000000000000000000000000000000000000000000000000000000000000000000000000000000000000000000000000000000000000000000000000000000000000000000000000000000000000700000000000000000000070000000000
310
00000707000000000000070700000007000000000000000000000000000000000000000000000000000000000000000000000000000000000000000000000000000000000000000000000000000000000000000000000000000000000000000000000000000000000000000000000000000000000000000000000000000000
310
00000000000000000000000000000000000000000000000000000000000000000000000700000000000000000000000700070707070707000007070707070707000000000700000000000000000000000000000000000000000000000000000000000000000000000000000000000000000000000000000000000000000000
310
00000000000000000000000000000000000000000000000000000000000000000000000000000000000000000000000000000000000000000000000000000000000000000000000000000000000000000000000000000007000000000000000000000000070700000000000000000000000000000700000000070000000000
310
00000000000000000000000000000000000000000000000000000000000000000000000000000000000000000000000000000000000000000000000000000000000000000000000000000000000000000000000000000000000000000000000000000000000000000000000000000000000000000000000000000000000000
310
00000000000000000000000707000000000000000000000000000007000000000000000000000000000007000000000700000000000000000000000000000000000000000000000000000000000000000000000000000000000000000000000000000000000000000000000000000000000000000000000000000000000000
310
00000000000000000000000000000000000000000000000000000000000000000000000000000000000000000000000000000000000000000000000000000007000000000000000000000000000000000700000000000000000000000000000700000000070000000000000000000000000000000000000000000000000000
310
00000000000000000000000000000000000000000000000000000000000000000000000000000000000000000000000000000000000000000000000000000000000000000000000000000000000000000000000000000000000000000000000000000000000000000000000000000000000000070000000000000000000000
310
00000000000007000000000000000000000000000700000000000700000000000000000000000000000000000000000000000000000000000000000000000000000000000000000000000000000000000000000000000000000000000000000000000000000000000000000000000000000000000000000000000000000000
310
00000000000000000000000000000000000000000000000000000000000000000000000000000000070000000000000000000000000000000000000700000000000000000000000000070000000000070000000000000000000000000000000000000000000000000000000000000000000000000000000000000000000000
310
00000000000000000000000000000000000000000000000000000000000000000000000000000000000000000000000000000000000000000000000000000000000000000000000000000000000000000000000000000000000007070700000000000000000000000000000000000000070700000000000000000000000007
310
00000000000700000000000000000000000000000000000000000000000000000000000000000000000000000000000000000000000000000000000000000000000000000000000000000000000000000000000000000000000000000000000000000000000000000000000000000000000000000000000000000000000000
310
00000000000000000000000000000707000000000000000000000000000000000000000000000007070000000000000000000007070000000000070000000000000000000000000000000000000000000000000000000000000000000000000000000000000000000000000000000000000000000000000000000000000000
310
00000000000000000000000000000000000000000000000000000000000000000000000000000000000000000000000000000000000000000000000000000000070707000000000000000000000000000000000000000000000000000007070707070707070707070000000000000007000000000000000000000000000000
310
00000000000000000000000000000000000000000000000000000000000000000000000000000000000000000000000000000000000000000000000000000000000000000000000000000000000000000000000000000000000000000000000000000000000000000000000000000000000007070700000000000000000000
310
00000000000000000000000000000000000000000000000000000000000000000000000000070000000000000000000000000000000000000000000000000000000000000000000000000000000000000000000000000000000000000000000000000000000000000000000000000000000000000000000000000000000000
310
00000000000000000000000000000000000000000000000000000000000000000000000000070707000000000000000000000000000000000000000000000000000000000000000000000000000000000000000000000000000007000000000000000000000000000000000000000000000000000000000000000000000000
310
00000000000000000000000000000000000000000000000000000000000000000000000000000000000000000000000000000000000000000000000000000000000000000000000000000000000000000000000000000000070700000000000000000000000000000000000000000000000000000000000000000000000000
310
00000000000000000000000000000000070000000000000000000000000000000000000000000000000000000000000000000000000000000000000000000000000000000000000000000000000000000000000000000000000000000000000000000000000000000000000000000000000000000000000000000000000000
310
00000000000000000000000707070000000000000000000000000000000000000000000000000000000000000000000000000000000000000000000000000000000000000007000000000000000000000000000000000000000000000000000000000000000000000000000000000000000000000000000000000000000000
310
00000000000000000000000000000000000000000000000000000000000000000000000000000000000000000000000000000000000000000000000000000707000000000000000000000000000000000000000000000000000000000000000000000000000000000000000000000000000000000000000000000700000000
310
00000000000000000000000000000000000000000000000000000000000000000000000000000000000000000000000000000000000000000000000000000000000000000000000000000000000000000000000000000000000000000000000000000000000000000000000000000000070707000000000000000000000000
310
00000000000000000000000000000000000000000000000000000000000000000000000000000000000000000000000007000000000000000000000000000000000000000000000000000000000000000000000000000000000000000000000000000000000000000000000000000000000000000000000000000000000000
310
00000000000000000000000000000000000000000000000000000000000000000000000007070000000000000000000000000000000000000000000000000000000000000000000000000000000000000000000000000000000000000000000000000000000700000000000000000000000000000000000000000000000000
310
00000000000000000000000000000000000000000000000000000000000000000000000000000000000000000000000000000000000000000000000000000000000000000000000000000000000000000000000000000707070000000000000000000000000000000000000000000000000000000000000000000000000000
310
00000000000000000000000000000000000000000000000000000007000000000000000000000000000000000000000000000000000000000000000000000000000000000000000000000000000000000000000000000000000000000000000000000000000000000000000000000000000000000000000000000000000000
310
00000000000000000007070700000000000000000000000000000000000000000000000000000000000000000000000000000000000000000000000000000000000000000000000000000000000000000700000000000000000000000000000000000000000000000000000000000000000000000000000000000000000000
310
00000000000000000000000000000000000000000000000000000000000000000000000000000000000000000000000000000000000000000000000007070000000000000000000000000000000000000000000000000000000000000000000000000000000000000000000000000000000000000000000000000000000000
310
00000000000007000000000000000000000000000000000000000000000000000000000000000000000000000000000000000000000000000000000000000000000000000000000000000000000000000000000000000000000000000000000000000000000000000000000000000707070000000000000000000000000000
310
00000000000000000000000000000000000000000000000000000000000000000000000000000000000000000000000000000000000000000007070700000000000000000000000000000000000000000000000000000000000000000000000000000000000000000000000000000000000000000000000000000000000000
310
00000000000000000000000000000000000000000000000000000000000000000000070700000000000000000000000000000000000000000000000000000000000000000000000000000000000000000000000000000000000000000000000000000000000000000007070707070000000000000000000000000000000000
310
00000000000000000000000000000000000000000000000000000000000000000000000000000000000000000000000000000000000000000000000000000000000000000000000000000000000000000000000007070700000000000000000000000000000000000000000000000000000000000000000000000000000000
310
00000000000000000000000000000000000000000000000000000707070707000000000000000000000000000000000000000000000000000000000000000000000000000000000000000000000000000000000000000000000000000000000000000000000000000000000000000000000000000000000000000000000000
310
00000000000000000707000000000000000000000000000000000000000000000000000000000000000000000000000000000000000000000000000000000000000000000000000000000707070707000000000000000000000000000000000000000000000000000000000000000000000000000000000000000000000000
310
00000000000000000000000000000000000000000000000000000000000000000000000000000000000000000000000000000000000000000000070707000000000000000000000000000000000000000000000000000000000000000000000000000000000000000000000000000000000000000000000000000707070707
310
00000000000000000000000000000000000000000000000000000000000000000000000000000000000000000000000000000000000000000000000000000000000000000000000000000000000000000000000000000000000000000000000000000000000000000000000000070700070000000000000000000000000000
310
00000000000000000000000000000000000000000000000000000000000000000000000000000000000000070707070700000000000000000000000000000000000000000000000000000000000000000000000000000000000000000000000000000000000000000000000000000000000000000000000000000000000000
310
00000000000000000000000000000000000000000000000000000000000000000007070007070000000000000000000000000000000000000000000000000000000000000000000000000000000000000000000000000000000000070707070700000000000000000000000000000000000000000000000000000000000000
310
00000000000000000000000000000000000000000000000000000000000000000000000000000000000000000000000000000000000000000000000000000000000000000000000000000000000000000000000007070000070700000000000000000000000000000000000000000000000000000000000000000000000000
310
00000000000000000000000007070707070000000000000000000000000000000000000000000000000000000000000000000000000000000000000000000000000000000000000000000000000000000000000000000000000000000000000000000000000000000000000000000000000000000000000000000000000000
310
00000000000000000707000000070000000000000000000000000000000000000000000000000000000000000000000000000000000000000000000007070707070000000000000000000000000000000000000000000000000000000000000000000000000000000000000000000000000000000000000000000000000000
310
00000000000000000000000000000000000000000000000000000000000000000000000000000000000000000000000000000000000000000000000707000000070700000000000000000000000000000000000000000000000000000000000000000000000000000000000007070707070000000000000000000000000000
310
00000000000000000000000000000000000000000000000000000000000000000000000000000000000000000000000000000000000000000000000000000000000000000000000000000000000000000000000000000000000000000000000000000000000000000000000000070707070707070700000000000000000000
310
00000000000000000000000000000000000000000000000000000000000707070707000000000000000000000000000000000000000000000000000000000000000000000000000000000000000000000000000000000000000000000000000000000000000000000000000000000000000000000000000000000000000000
310
00000000000000000000000000000000000000000000000000000000000000000000000007070000000000000000000000000000000000000000000000000000000000000000000000000000000707070707070000000000000000000000000000000000000000000000000000000000000000000000000000000000000000
310
00000000000000000000000000000000000000000000000000000000000000000000000000000000000000000000000000000000000000000000000000000000000000000000000000000000000000000000000000000007070000000000000000000000000000000000000000000000000000000000000000000000000707
310
07070700000000000000000000000000000000000000000000000000000000000000000000000000000000000000000000000000000000000000000000000000000000000000000000000000000000000000000000000000000000000000000000000000000000000000000000000000000000000000000000000000000000
310
00000000000000000000000000070000000000000000000000000000000000000000000000000000000000000000070707070700000000000000000000000000000000000000000000000000000000000000000000000000000000000000000000000000000000000000000000000000000000000000000000000000000000
310
00000000000000000000000000000000000000000000000000000000000000000000000000000000000000000000000000000000000000000000000000000000000007000000000000000000000000000000000000000000000000000000070707070700000000000000000000000000000000000000000000000000000000
310
00000000000000000000000000000000000000000000000000000000000000000000000000000000000000000000000000000000000000000000000000000000000000000000000000000000000000000000000000000000000000000000000000000000000000000000000000000000000000000000070000000000000000
310
00000000000000000000000000000007070707070000000000000000000000000000000000000000000000000000000000000000000000000000000000000000000000000000000000000000000000000000000000000000000000000000000000000000000000000000000000000000000000000000000000000000000000
310
00000000000000000000000000000000000000000000000000000000000000000000000000000000000000000700000000000000000000000000000000000007070707070000000000000000000000000000000000000000000000000000000000000000000000000000000000000000000000000000000000000000000000
310
00000000000000000000000000000000000000000000000000000000000000000000000000000000000000000000000000000000000000000000000000000000000000000000000000000000000000000000000000000000000000000000000000070000000000000000000000000007070707070000000000000000000000
310
00000000000000000000000000000000000000000000000000000000000000000000000000000000000000000000000000000000000000000000000000000000000000000000000000000000000000000000000000000000000000000000000000000000000000000000000000000000000000000000000000000000000000
310
00000000000000000000000000000000000000000000000700000000000000000707070707000000000000000000000000000000000000000000000000000000000000000000000000000000000000000000000000000000000000000000000000000000000000000000000000000000000000000000000000000000000000
310
00000000000000000000000000000000000000000000000000000000000000000000000000000000000000000000000000000000000000000000000000000000000000000000000000000000070000000707000707000000000000000000000000000000000000000000000000000000000000000000000000000000000000
310
00000000000000000000000000000000000000000000000000000000000000000000000000000000000000000000000000000000000000000000000000000000000000000000000000000000000000000000000000000000000000000000000000000000000000000000000000000000000000000000000000000000000000
310
00000707070700000000000000000000000000000000000000000000000000000000000000000000000000000000000000000000000000000000000000000000000000000000000000000000000000000000000000000000000000000000000000000000000000000000000000000000000000000000000000000000000000
310
00000000000000000000000000000000000000000000000000000000000000000000000000000000000000000000000000000000000000000000000000000000000000000000000000000000000000000000000000000000000000000000000000000000000000000000000000000000000000000000000000000000000000
310
00000000000000000000000000000000000000000000000000000000000000000000000000000000000000000000000000000000000000000000000000000000000000000000000000000000000000000000000000000000000000000000000000000000000000000000000000000000000000000000000000000000000000
310
00000000000000000000000000000000000000000000000000000000000000000000000000000000000000000000000000000000000000000000000000000000000000000000000000000000000000000000000000000000000000000000000000000000000000000000000000000000000000000000000000000000000000
310
00000000000000000000000000000000000000000000000000000000000000000000000000000000000000000000000000000000000000000000000000000000000000000000000000000000000000000000000000000000000000000000000000000000000000000000000000000000000000000000000000000000000000
310
00000000000000000000000000000000000000000000000000000000000000000000000000000000000000000000000000000000000000000000000000000000000000000000000000000000000000000000000000000000000000000000000000000000000000000000000000000000000000000000000000000000000000
310
000000000000000000000000000000000000000000000000000000000000000000000000000000000000000000000000000000000000000000000000000000000000000000000000000000000000000000000000000000000000000000000000000000000000000000000000
  0
ENDSEC
  0
EOF
