999
Erzeugt mit innoplus bad 
0
SECTION
2
HEADER
9
$ACADVER
1
AC1009
9
$DWGCODEPAGE
3
ISO8859-1
0
ENDSEC
0
SECTION
2
TABLES
0
TABLE
2
LAYER
70
1
0
LAYER
2
0
70
0
62
7
6
CONTINUOUS
0
ENDTAB
0
ENDSEC
0
SECTION
2
ENTITIES
0
LINE
8
0
6
CONTINUOUS
10
0.016000
20
-0.044324
30
0.0
11
0.016000
21
-0.053677
31
0.0
0
LINE
8
0
6
CONTINUOUS
10
0.016000
20
0.077941
30
0.0
11
0.016000
21
0.070618
31
0.0
0
LINE
8
0
6
CONTINUOUS
10
0.016000
20
-0.100000
30
0.0
11
0.017000
21
-0.100000
31
0.0
0
LINE
8
0
6
CONTINUOUS
10
0.016000
20
-0.099206
30
0.0
11
0.016000
21
-0.100000
31
0.0
0
LINE
8
0
6
CONTINUOUS
10
0.016000
20
0.089941
30
0.0
11
0.016000
21
0.084382
31
0.0
0
LINE
8
0
6
CONTINUOUS
10
0.016000
20
0.025000
30
0.0
11
0.016000
21
-0.025000
31
0.0
0
LINE
8
0
6
CONTINUOUS
10
0.016000
20
-0.025000
30
0.0
11
0.016000
21
-0.034794
31
0.0
0
LINE
8
0
6
CONTINUOUS
10
0.016000
20
0.070618
30
0.0
11
0.016000
21
0.062324
31
0.0
0
LINE
8
0
6
CONTINUOUS
10
0.016000
20
-0.097265
30
0.0
11
0.016000
21
-0.099206
31
0.0
0
LINE
8
0
6
CONTINUOUS
10
0.016000
20
0.084382
30
0.0
11
0.016000
21
0.077941
31
0.0
0
LINE
8
0
6
CONTINUOUS
10
0.016000
20
-0.077941
30
0.0
11
0.016000
21
-0.084382
31
0.0
0
LINE
8
0
6
CONTINUOUS
10
0.016000
20
-0.053677
30
0.0
11
0.016000
21
-0.062324
31
0.0
0
LINE
8
0
6
CONTINUOUS
10
0.016000
20
0.053676
30
0.0
11
0.016000
21
0.044324
31
0.0
0
LINE
8
0
6
CONTINUOUS
10
0.016000
20
-0.070618
30
0.0
11
0.016000
21
-0.077941
31
0.0
0
LINE
8
0
6
CONTINUOUS
10
0.016000
20
-0.062324
30
0.0
11
0.016000
21
-0.070618
31
0.0
0
LINE
8
0
6
CONTINUOUS
10
0.016000
20
0.044324
30
0.0
11
0.016000
21
0.034794
31
0.0
0
LINE
8
0
6
CONTINUOUS
10
0.016000
20
0.099206
30
0.0
11
0.016000
21
0.097265
31
0.0
0
LINE
8
0
6
CONTINUOUS
10
0.016000
20
0.100000
30
0.0
11
0.016000
21
0.099206
31
0.0
0
LINE
8
0
6
CONTINUOUS
10
0.017000
20
0.100000
30
0.0
11
0.016000
21
0.100000
31
0.0
0
LINE
8
0
6
CONTINUOUS
10
0.016000
20
-0.084382
30
0.0
11
0.016000
21
-0.089941
31
0.0
0
LINE
8
0
6
CONTINUOUS
10
0.016000
20
-0.094177
30
0.0
11
0.016000
21
-0.097265
31
0.0
0
LINE
8
0
6
CONTINUOUS
10
0.016000
20
0.094176
30
0.0
11
0.016000
21
0.089941
31
0.0
0
LINE
8
0
6
CONTINUOUS
10
0.016000
20
0.034794
30
0.0
11
0.016000
21
0.025000
31
0.0
0
LINE
8
0
6
CONTINUOUS
10
0.016000
20
0.097265
30
0.0
11
0.016000
21
0.094176
31
0.0
0
LINE
8
0
6
CONTINUOUS
10
0.016000
20
-0.034794
30
0.0
11
0.016000
21
-0.044324
31
0.0
0
LINE
8
0
6
CONTINUOUS
10
0.016000
20
-0.089941
30
0.0
11
0.016000
21
-0.094177
31
0.0
0
LINE
8
0
6
CONTINUOUS
10
0.016000
20
0.062324
30
0.0
11
0.016000
21
0.053676
31
0.0
0
LINE
8
0
6
CONTINUOUS
10
0.030000
20
-0.053677
30
0.0
11
0.030000
21
-0.044324
31
0.0
0
LINE
8
0
6
CONTINUOUS
10
0.030000
20
0.070618
30
0.0
11
0.030000
21
0.077941
31
0.0
0
LINE
8
0
6
CONTINUOUS
10
0.030000
20
-0.100000
30
0.0
11
0.030000
21
-0.099206
31
0.0
0
LINE
8
0
6
CONTINUOUS
10
0.029000
20
-0.100000
30
0.0
11
0.030000
21
-0.100000
31
0.0
0
LINE
8
0
6
CONTINUOUS
10
0.030000
20
0.084382
30
0.0
11
0.030000
21
0.089941
31
0.0
0
LINE
8
0
6
CONTINUOUS
10
0.030000
20
-0.025000
30
0.0
11
0.030000
21
0.025000
31
0.0
0
LINE
8
0
6
CONTINUOUS
10
0.030000
20
-0.034794
30
0.0
11
0.030000
21
-0.025000
31
0.0
0
LINE
8
0
6
CONTINUOUS
10
0.030000
20
0.062324
30
0.0
11
0.030000
21
0.070618
31
0.0
0
LINE
8
0
6
CONTINUOUS
10
0.030000
20
-0.099206
30
0.0
11
0.030000
21
-0.097265
31
0.0
0
LINE
8
0
6
CONTINUOUS
10
0.030000
20
0.077941
30
0.0
11
0.030000
21
0.084382
31
0.0
0
LINE
8
0
6
CONTINUOUS
10
0.030000
20
-0.084382
30
0.0
11
0.030000
21
-0.077941
31
0.0
0
LINE
8
0
6
CONTINUOUS
10
0.030000
20
-0.062324
30
0.0
11
0.030000
21
-0.053677
31
0.0
0
LINE
8
0
6
CONTINUOUS
10
0.030000
20
0.044324
30
0.0
11
0.030000
21
0.053676
31
0.0
0
LINE
8
0
6
CONTINUOUS
10
0.030000
20
-0.077941
30
0.0
11
0.030000
21
-0.070618
31
0.0
0
LINE
8
0
6
CONTINUOUS
10
0.030000
20
-0.070618
30
0.0
11
0.030000
21
-0.062324
31
0.0
0
LINE
8
0
6
CONTINUOUS
10
0.030000
20
0.034794
30
0.0
11
0.030000
21
0.044324
31
0.0
0
LINE
8
0
6
CONTINUOUS
10
0.030000
20
0.097265
30
0.0
11
0.030000
21
0.099206
31
0.0
0
LINE
8
0
6
CONTINUOUS
10
0.030000
20
0.100000
30
0.0
11
0.029000
21
0.100000
31
0.0
0
LINE
8
0
6
CONTINUOUS
10
0.030000
20
0.099206
30
0.0
11
0.030000
21
0.100000
31
0.0
0
LINE
8
0
6
CONTINUOUS
10
0.030000
20
-0.089941
30
0.0
11
0.030000
21
-0.084382
31
0.0
0
LINE
8
0
6
CONTINUOUS
10
0.030000
20
-0.097265
30
0.0
11
0.030000
21
-0.094177
31
0.0
0
LINE
8
0
6
CONTINUOUS
10
0.030000
20
0.089941
30
0.0
11
0.030000
21
0.094176
31
0.0
0
LINE
8
0
6
CONTINUOUS
10
0.030000
20
0.025000
30
0.0
11
0.030000
21
0.034794
31
0.0
0
LINE
8
0
6
CONTINUOUS
10
0.030000
20
0.094176
30
0.0
11
0.030000
21
0.097265
31
0.0
0
LINE
8
0
6
CONTINUOUS
10
0.030000
20
-0.044324
30
0.0
11
0.030000
21
-0.034794
31
0.0
0
LINE
8
0
6
CONTINUOUS
10
0.030000
20
-0.094177
30
0.0
11
0.030000
21
-0.089941
31
0.0
0
LINE
8
0
6
CONTINUOUS
10
0.030000
20
0.053676
30
0.0
11
0.030000
21
0.062324
31
0.0
0
LINE
8
0
6
CONTINUOUS
10
0.029000
20
0.100000
30
0.0
11
0.017000
21
0.100000
31
0.0
0
LINE
8
0
6
CONTINUOUS
10
0.017000
20
-0.100000
30
0.0
11
0.029000
21
-0.100000
31
0.0
0
LINE
8
0
6
CONTINUOUS
10
0.006004
20
-0.020059
30
0.0
11
0.006004
21
-0.014366
31
0.0
0
LINE
8
0
6
CONTINUOUS
10
0.006004
20
-0.004464
30
0.0
11
0.006004
21
-0.000955
31
0.0
0
LINE
8
0
6
CONTINUOUS
10
0.006004
20
-0.009038
30
0.0
11
0.006004
21
-0.004464
31
0.0
0
LINE
8
0
6
CONTINUOUS
10
0.006004
20
-0.014366
30
0.0
11
0.006004
21
-0.009038
31
0.0
0
LINE
8
0
6
CONTINUOUS
10
0.006004
20
-0.000955
30
0.0
11
0.006004
21
0.001250
31
0.0
0
LINE
8
0
6
CONTINUOUS
10
0.006004
20
0.002000
30
0.0
11
0.005453
21
0.002000
31
0.0
0
LINE
8
0
6
CONTINUOUS
10
0.006004
20
0.001250
30
0.0
11
0.006004
21
0.002000
31
0.0
0
LINE
8
0
6
CONTINUOUS
10
0.006004
20
-0.025781
30
0.0
11
0.006004
21
-0.020059
31
0.0
0
LINE
8
0
6
CONTINUOUS
10
0.006004
20
-0.031103
30
0.0
11
0.006004
21
-0.025781
31
0.0
0
LINE
8
0
6
CONTINUOUS
10
0.006004
20
-0.035674
30
0.0
11
0.006004
21
-0.031103
31
0.0
0
LINE
8
0
6
CONTINUOUS
10
0.006004
20
-0.039181
30
0.0
11
0.006004
21
-0.035674
31
0.0
0
LINE
8
0
6
CONTINUOUS
10
0.006004
20
-0.041386
30
0.0
11
0.006004
21
-0.039181
31
0.0
0
LINE
8
0
6
CONTINUOUS
10
0.006004
20
-0.042138
30
0.0
11
0.006004
21
-0.041386
31
0.0
0
LINE
8
0
6
CONTINUOUS
10
0.005453
20
-0.042138
30
0.0
11
0.006004
21
-0.042138
31
0.0
0
LINE
8
0
6
CONTINUOUS
10
-0.006930
20
-0.042138
30
0.0
11
0.005453
21
-0.042138
31
0.0
0
LINE
8
0
6
CONTINUOUS
10
-0.030000
20
-0.035768
30
0.0
11
-0.030000
21
-0.051467
31
0.0
0
LINE
8
0
6
CONTINUOUS
10
-0.030000
20
-0.089829
30
0.0
11
-0.030000
21
-0.093970
31
0.0
0
LINE
8
0
6
CONTINUOUS
10
-0.030000
20
-0.051467
30
0.0
11
-0.030000
21
-0.063900
31
0.0
0
LINE
8
0
6
CONTINUOUS
10
-0.030000
20
-0.063900
30
0.0
11
-0.030000
21
-0.089829
31
0.0
0
LINE
8
0
6
CONTINUOUS
10
-0.030000
20
-0.020069
30
0.0
11
-0.030000
21
-0.035768
31
0.0
0
LINE
8
0
6
CONTINUOUS
10
-0.030000
20
-0.093970
30
0.0
11
-0.030000
21
-0.096936
31
0.0
0
LINE
8
0
6
CONTINUOUS
10
-0.029449
20
-0.093970
30
0.0
11
-0.030000
21
-0.093970
31
0.0
0
LINE
8
0
6
CONTINUOUS
10
-0.030000
20
-0.098011
30
0.0
11
-0.029449
21
-0.098011
31
0.0
0
LINE
8
0
6
CONTINUOUS
10
-0.030000
20
-0.096936
30
0.0
11
-0.030000
21
-0.098011
31
0.0
0
LINE
8
0
6
CONTINUOUS
10
-0.029449
20
-0.096936
30
0.0
11
-0.030000
21
-0.096936
31
0.0
0
LINE
8
0
6
CONTINUOUS
10
-0.030000
20
-0.014357
30
0.0
11
-0.030000
21
-0.020069
31
0.0
0
LINE
8
0
6
CONTINUOUS
10
-0.030000
20
-0.009034
30
0.0
11
-0.030000
21
-0.014357
31
0.0
0
LINE
8
0
6
CONTINUOUS
10
-0.030000
20
-0.004464
30
0.0
11
-0.030000
21
-0.009034
31
0.0
0
LINE
8
0
6
CONTINUOUS
10
-0.030000
20
-0.000957
30
0.0
11
-0.030000
21
-0.004464
31
0.0
0
LINE
8
0
6
CONTINUOUS
10
-0.030000
20
0.001248
30
0.0
11
-0.030000
21
-0.000957
31
0.0
0
LINE
8
0
6
CONTINUOUS
10
-0.030000
20
0.002000
30
0.0
11
-0.030000
21
0.001248
31
0.0
0
LINE
8
0
6
CONTINUOUS
10
-0.029449
20
0.002000
30
0.0
11
-0.030000
21
0.002000
31
0.0
0
LINE
8
0
6
CONTINUOUS
10
-0.024856
20
0.002000
30
0.0
11
-0.029449
21
0.002000
31
0.0
0
LINE
8
0
6
CONTINUOUS
10
-0.029449
20
-0.098011
30
0.0
11
-0.028181
21
-0.098011
31
0.0
0
LINE
8
0
6
CONTINUOUS
10
-0.026884
20
-0.093461
30
0.0
11
-0.029449
21
-0.093970
31
0.0
0
LINE
8
0
6
CONTINUOUS
10
-0.017703
20
-0.046618
30
0.0
11
-0.014906
21
-0.044184
31
0.0
0
LINE
8
0
6
CONTINUOUS
10
-0.016772
20
0.002000
30
0.0
11
-0.019425
21
0.002000
31
0.0
0
LINE
8
0
6
CONTINUOUS
10
-0.026884
20
-0.093461
30
0.0
11
-0.027672
21
-0.096444
31
0.0
0
LINE
8
0
6
CONTINUOUS
10
-0.026712
20
-0.095637
30
0.0
11
-0.025714
21
-0.092786
31
0.0
0
LINE
8
0
6
CONTINUOUS
10
-0.023149
20
-0.047907
30
0.0
11
-0.022953
21
-0.033880
31
0.0
0
LINE
8
0
6
CONTINUOUS
10
-0.011465
20
0.002000
30
0.0
11
-0.014118
21
0.002000
31
0.0
0
LINE
8
0
6
CONTINUOUS
10
-0.014118
20
0.002000
30
0.0
11
-0.016772
21
0.002000
31
0.0
0
LINE
8
0
6
CONTINUOUS
10
-0.019425
20
0.002000
30
0.0
11
-0.021414
21
0.002000
31
0.0
0
LINE
8
0
6
CONTINUOUS
10
-0.021414
20
0.002000
30
0.0
11
-0.022690
21
0.002000
31
0.0
0
LINE
8
0
6
CONTINUOUS
10
-0.022690
20
0.002000
30
0.0
11
-0.024856
21
0.002000
31
0.0
0
LINE
8
0
6
CONTINUOUS
10
-0.026072
20
-0.085978
30
0.0
11
-0.026884
21
-0.093461
31
0.0
0
LINE
8
0
6
CONTINUOUS
10
-0.028181
20
-0.098011
30
0.0
11
-0.026907
21
-0.096545
31
0.0
0
LINE
8
0
6
CONTINUOUS
10
-0.026907
20
-0.096545
30
0.0
11
-0.025407
21
-0.093582
31
0.0
0
LINE
8
0
6
CONTINUOUS
10
-0.025407
20
-0.093582
30
0.0
11
-0.024117
21
-0.088500
31
0.0
0
LINE
8
0
6
CONTINUOUS
10
-0.025480
20
-0.065874
30
0.0
11
-0.023149
21
-0.047907
31
0.0
0
LINE
8
0
6
CONTINUOUS
10
-0.021306
20
-0.062849
30
0.0
11
-0.019425
21
-0.049934
31
0.0
0
LINE
8
0
6
CONTINUOUS
10
-0.021368
20
-0.050692
30
0.0
11
-0.019425
21
-0.035015
31
0.0
0
LINE
8
0
6
CONTINUOUS
10
-0.021321
20
-0.041235
30
0.0
11
-0.019425
21
-0.027818
31
0.0
0
LINE
8
0
6
CONTINUOUS
10
-0.019425
20
-0.049934
30
0.0
11
-0.017703
21
-0.046618
31
0.0
0
LINE
8
0
6
CONTINUOUS
10
-0.014906
20
-0.044184
30
0.0
11
-0.011465
21
-0.042735
31
0.0
0
LINE
8
0
6
CONTINUOUS
10
-0.017677
20
-0.045680
30
0.0
11
-0.017595
21
-0.042938
31
0.0
0
LINE
8
0
6
CONTINUOUS
10
-0.019425
20
-0.045936
30
0.0
11
-0.019425
21
-0.048917
31
0.0
0
LINE
8
0
6
CONTINUOUS
10
-0.017595
20
-0.042938
30
0.0
11
-0.017440
21
-0.038603
31
0.0
0
LINE
8
0
6
CONTINUOUS
10
-0.019425
20
-0.041194
30
0.0
11
-0.019425
21
-0.045936
31
0.0
0
LINE
8
0
6
CONTINUOUS
10
-0.017440
20
-0.038603
30
0.0
11
-0.017199
21
-0.033030
31
0.0
0
LINE
8
0
6
CONTINUOUS
10
-0.019425
20
-0.035015
30
0.0
11
-0.019425
21
-0.041194
31
0.0
0
LINE
8
0
6
CONTINUOUS
10
-0.019425
20
-0.027818
30
0.0
11
-0.019425
21
-0.035015
31
0.0
0
LINE
8
0
6
CONTINUOUS
10
-0.011465
20
-0.042735
30
0.0
11
-0.006930
21
-0.042138
31
0.0
0
LINE
8
0
6
CONTINUOUS
10
-0.021368
20
-0.050692
30
0.0
11
-0.021321
21
-0.041235
31
0.0
0
LINE
8
0
6
CONTINUOUS
10
-0.023332
20
-0.064715
30
0.0
11
-0.021321
21
-0.041235
31
0.0
0
LINE
8
0
6
CONTINUOUS
10
-0.022931
20
-0.079084
30
0.0
11
-0.021306
21
-0.062849
31
0.0
0
LINE
8
0
6
CONTINUOUS
10
-0.024117
20
-0.088575
30
0.0
11
-0.022931
21
-0.079084
31
0.0
0
LINE
8
0
6
CONTINUOUS
10
-0.025480
20
-0.065874
30
0.0
11
-0.026072
21
-0.085978
31
0.0
0
LINE
8
0
6
CONTINUOUS
10
-0.024563
20
-0.084712
30
0.0
11
-0.023332
21
-0.064715
31
0.0
0
LINE
8
0
6
CONTINUOUS
10
-0.027672
20
-0.096444
30
0.0
11
-0.028181
21
-0.098011
31
0.0
0
LINE
8
0
6
CONTINUOUS
10
-0.028181
20
-0.098011
30
0.0
11
-0.026875
21
-0.096415
31
0.0
0
LINE
8
0
6
CONTINUOUS
10
-0.006930
20
0.002000
30
0.0
11
-0.011465
21
0.002000
31
0.0
0
LINE
8
0
6
CONTINUOUS
10
0.005453
20
0.002000
30
0.0
11
-0.006930
21
0.002000
31
0.0
0
LINE
8
0
6
CONTINUOUS
10
0.013211
20
0.031204
30
0.0
11
0.016000
21
0.031204
31
0.0
0
LINE
8
0
6
CONTINUOUS
10
0.016000
20
0.045380
30
0.0
11
0.013211
21
0.045380
31
0.0
0
LINE
8
0
6
CONTINUOUS
10
0.013211
20
0.045380
30
0.0
11
0.012730
21
0.045380
31
0.0
0
LINE
8
0
6
CONTINUOUS
10
-0.018428
20
0.045021
30
0.0
11
-0.020743
21
0.042543
31
0.0
0
LINE
8
0
6
CONTINUOUS
10
-0.020743
20
0.034041
30
0.0
11
-0.018428
21
0.031563
31
0.0
0
LINE
8
0
6
CONTINUOUS
10
0.012730
20
0.031204
30
0.0
11
0.013211
21
0.031204
31
0.0
0
LINE
8
0
6
CONTINUOUS
10
0.010292
20
0.045341
30
0.0
11
-0.000032
21
0.047583
31
0.0
0
LINE
8
0
6
CONTINUOUS
10
0.012730
20
0.031204
30
0.0
11
0.012730
21
0.031440
31
0.0
0
LINE
8
0
6
CONTINUOUS
10
0.012370
20
0.031487
30
0.0
11
0.012730
21
0.031204
31
0.0
0
LINE
8
0
6
CONTINUOUS
10
0.012730
20
0.043254
30
0.0
11
0.012730
21
0.044435
31
0.0
0
LINE
8
0
6
CONTINUOUS
10
0.012730
20
0.032149
30
0.0
11
0.012730
21
0.033330
31
0.0
0
LINE
8
0
6
CONTINUOUS
10
0.012730
20
0.044435
30
0.0
11
0.012730
21
0.045144
31
0.0
0
LINE
8
0
6
CONTINUOUS
10
0.012730
20
0.034748
30
0.0
11
0.012730
21
0.036520
31
0.0
0
LINE
8
0
6
CONTINUOUS
10
0.012730
20
0.036520
30
0.0
11
0.012730
21
0.038292
31
0.0
0
LINE
8
0
6
CONTINUOUS
10
0.012730
20
0.041836
30
0.0
11
0.012730
21
0.043254
31
0.0
0
LINE
8
0
6
CONTINUOUS
10
0.012730
20
0.040064
30
0.0
11
0.012730
21
0.041836
31
0.0
0
LINE
8
0
6
CONTINUOUS
10
0.012730
20
0.031440
30
0.0
11
0.012730
21
0.032149
31
0.0
0
LINE
8
0
6
CONTINUOUS
10
0.012730
20
0.045380
30
0.0
11
0.012370
21
0.045097
31
0.0
0
LINE
8
0
6
CONTINUOUS
10
0.012730
20
0.045144
30
0.0
11
0.012730
21
0.045380
31
0.0
0
LINE
8
0
6
CONTINUOUS
10
0.012730
20
0.038292
30
0.0
11
0.012730
21
0.040064
31
0.0
0
LINE
8
0
6
CONTINUOUS
10
0.012730
20
0.033330
30
0.0
11
0.012730
21
0.034748
31
0.0
0
LINE
8
0
6
CONTINUOUS
10
-0.000032
20
0.029001
30
0.0
11
0.010292
21
0.031242
31
0.0
0
LINE
8
0
6
CONTINUOUS
10
0.010623
20
0.031489
30
0.0
11
0.010623
21
0.032186
31
0.0
0
LINE
8
0
6
CONTINUOUS
10
0.010623
20
0.036547
30
0.0
11
0.010623
21
0.038292
31
0.0
0
LINE
8
0
6
CONTINUOUS
10
0.010623
20
0.040036
30
0.0
11
0.010623
21
0.041781
31
0.0
0
LINE
8
0
6
CONTINUOUS
10
0.010623
20
0.032186
30
0.0
11
0.010623
21
0.033407
31
0.0
0
LINE
8
0
6
CONTINUOUS
10
0.010623
20
0.038292
30
0.0
11
0.010623
21
0.040036
31
0.0
0
LINE
8
0
6
CONTINUOUS
10
0.010623
20
0.034803
30
0.0
11
0.010623
21
0.033407
31
0.0
0
LINE
8
0
6
CONTINUOUS
10
0.010623
20
0.043176
30
0.0
11
0.010623
21
0.044397
31
0.0
0
LINE
8
0
6
CONTINUOUS
10
0.010623
20
0.041781
30
0.0
11
0.010623
21
0.043176
31
0.0
0
LINE
8
0
6
CONTINUOUS
10
0.010292
20
0.031242
30
0.0
11
0.010623
21
0.031314
31
0.0
0
LINE
8
0
6
CONTINUOUS
10
0.010623
20
0.031314
30
0.0
11
0.010623
21
0.031489
31
0.0
0
LINE
8
0
6
CONTINUOUS
10
0.010623
20
0.045270
30
0.0
11
0.010292
21
0.045341
31
0.0
0
LINE
8
0
6
CONTINUOUS
10
0.010623
20
0.045095
30
0.0
11
0.010623
21
0.045270
31
0.0
0
LINE
8
0
6
CONTINUOUS
10
0.010623
20
0.034803
30
0.0
11
0.010623
21
0.036547
31
0.0
0
LINE
8
0
6
CONTINUOUS
10
0.010623
20
0.044397
30
0.0
11
0.010623
21
0.045095
31
0.0
0
LINE
8
0
6
CONTINUOUS
10
-0.000032
20
0.047583
30
0.0
11
-0.000737
21
0.047736
31
0.0
0
LINE
8
0
6
CONTINUOUS
10
-0.000737
20
0.028847
30
0.0
11
-0.000032
21
0.029001
31
0.0
0
LINE
8
0
6
CONTINUOUS
10
-0.018428
20
0.031563
30
0.0
11
-0.014998
21
0.029182
31
0.0
0
LINE
8
0
6
CONTINUOUS
10
-0.014998
20
0.047402
30
0.0
11
-0.018428
21
0.045021
31
0.0
0
LINE
8
0
6
CONTINUOUS
10
-0.009252
20
0.049224
30
0.0
11
-0.014998
21
0.047402
31
0.0
0
LINE
8
0
6
CONTINUOUS
10
-0.020743
20
0.040357
30
0.0
11
-0.020743
21
0.041328
31
0.0
0
LINE
8
0
6
CONTINUOUS
10
-0.020743
20
0.039385
30
0.0
11
-0.020743
21
0.040357
31
0.0
0
LINE
8
0
6
CONTINUOUS
10
-0.020743
20
0.038292
30
0.0
11
-0.020743
21
0.039385
31
0.0
0
LINE
8
0
6
CONTINUOUS
10
-0.020743
20
0.034041
30
0.0
11
-0.020743
21
0.034162
31
0.0
0
LINE
8
0
6
CONTINUOUS
10
-0.021892
20
0.038292
30
0.0
11
-0.020743
21
0.034041
31
0.0
0
LINE
8
0
6
CONTINUOUS
10
-0.020743
20
0.034162
30
0.0
11
-0.020743
21
0.034648
31
0.0
0
LINE
8
0
6
CONTINUOUS
10
0.010624
20
0.032654
30
0.0
11
0.012370
21
0.031487
31
0.0
0
LINE
8
0
6
CONTINUOUS
10
-0.001227
20
0.050364
30
0.0
11
-0.009252
21
0.049224
31
0.0
0
LINE
8
0
6
CONTINUOUS
10
-0.009252
20
0.027360
30
0.0
11
-0.001227
21
0.026220
31
0.0
0
LINE
8
0
6
CONTINUOUS
10
-0.014998
20
0.029182
30
0.0
11
-0.009252
21
0.027360
31
0.0
0
LINE
8
0
6
CONTINUOUS
10
0.012370
20
0.045097
30
0.0
11
0.010624
21
0.043930
31
0.0
0
LINE
8
0
6
CONTINUOUS
10
-0.020743
20
0.042422
30
0.0
11
-0.020743
21
0.042543
31
0.0
0
LINE
8
0
6
CONTINUOUS
10
-0.020743
20
0.042543
30
0.0
11
-0.021892
21
0.038292
31
0.0
0
LINE
8
0
6
CONTINUOUS
10
-0.020743
20
0.041936
30
0.0
11
-0.020743
21
0.042422
31
0.0
0
LINE
8
0
6
CONTINUOUS
10
-0.020743
20
0.041328
30
0.0
11
-0.020743
21
0.041936
31
0.0
0
LINE
8
0
6
CONTINUOUS
10
-0.020743
20
0.034648
30
0.0
11
-0.020743
21
0.035255
31
0.0
0
LINE
8
0
6
CONTINUOUS
10
-0.020743
20
0.035255
30
0.0
11
-0.020743
21
0.036227
31
0.0
0
LINE
8
0
6
CONTINUOUS
10
-0.020743
20
0.036227
30
0.0
11
-0.020743
21
0.037199
31
0.0
0
LINE
8
0
6
CONTINUOUS
10
-0.020743
20
0.037199
30
0.0
11
-0.020743
21
0.038292
31
0.0
0
LINE
8
0
6
CONTINUOUS
10
-0.000737
20
0.046916
30
0.0
11
-0.000737
21
0.048859
31
0.0
0
LINE
8
0
6
CONTINUOUS
10
-0.000737
20
0.032219
30
0.0
11
-0.000737
21
0.035134
31
0.0
0
LINE
8
0
6
CONTINUOUS
10
-0.000737
20
0.026146
30
0.0
11
-0.000737
21
0.026631
31
0.0
0
LINE
8
0
6
CONTINUOUS
10
-0.001227
20
0.026220
30
0.0
11
-0.000737
21
0.026146
31
0.0
0
LINE
8
0
6
CONTINUOUS
10
-0.000737
20
0.027725
30
0.0
11
-0.000737
21
0.029668
31
0.0
0
LINE
8
0
6
CONTINUOUS
10
-0.000737
20
0.035134
30
0.0
11
-0.000737
21
0.038292
31
0.0
0
LINE
8
0
6
CONTINUOUS
10
-0.000737
20
0.044365
30
0.0
11
-0.000737
21
0.046916
31
0.0
0
LINE
8
0
6
CONTINUOUS
10
-0.000737
20
0.041450
30
0.0
11
-0.000737
21
0.044365
31
0.0
0
LINE
8
0
6
CONTINUOUS
10
-0.000737
20
0.026631
30
0.0
11
-0.000737
21
0.027725
31
0.0
0
LINE
8
0
6
CONTINUOUS
10
-0.000737
20
0.050438
30
0.0
11
-0.001227
21
0.050364
31
0.0
0
LINE
8
0
6
CONTINUOUS
10
-0.000737
20
0.049952
30
0.0
11
-0.000737
21
0.050438
31
0.0
0
LINE
8
0
6
CONTINUOUS
10
-0.000737
20
0.038292
30
0.0
11
-0.000737
21
0.041450
31
0.0
0
LINE
8
0
6
CONTINUOUS
10
-0.000737
20
0.029668
30
0.0
11
-0.000737
21
0.032219
31
0.0
0
LINE
8
0
6
CONTINUOUS
10
-0.000737
20
0.048859
30
0.0
11
-0.000737
21
0.049952
31
0.0
0
LINE
8
0
6
CONTINUOUS
10
0.009500
20
-0.045026
30
0.0
11
0.009773
21
-0.045026
31
0.0
0
LINE
8
0
6
CONTINUOUS
10
0.009773
20
0.005026
30
0.0
11
0.009500
21
0.005026
31
0.0
0
LINE
8
0
6
CONTINUOUS
10
0.009773
20
-0.045026
30
0.0
11
0.016000
21
-0.045026
31
0.0
0
LINE
8
0
6
CONTINUOUS
10
0.016000
20
0.005026
30
0.0
11
0.009773
21
0.005026
31
0.0
0
LINE
8
0
6
CONTINUOUS
10
0.009500
20
-0.013551
30
0.0
11
0.009500
21
-0.007583
31
0.0
0
LINE
8
0
6
CONTINUOUS
10
0.008662
20
-0.007863
30
0.0
11
0.008683
21
-0.013729
31
0.0
0
LINE
8
0
6
CONTINUOUS
10
0.008662
20
0.001192
30
0.0
11
0.008663
21
0.000955
31
0.0
0
LINE
8
0
6
CONTINUOUS
10
0.009500
20
-0.032417
30
0.0
11
0.009500
21
-0.026449
31
0.0
0
LINE
8
0
6
CONTINUOUS
10
0.008683
20
-0.026271
30
0.0
11
0.008662
21
-0.032137
31
0.0
0
LINE
8
0
6
CONTINUOUS
10
0.009500
20
-0.041657
30
0.0
11
0.009500
21
-0.037615
31
0.0
0
LINE
8
0
6
CONTINUOUS
10
0.008676
20
-0.037257
30
0.0
11
0.008662
21
-0.041192
31
0.0
0
LINE
8
0
6
CONTINUOUS
10
0.009500
20
-0.026449
30
0.0
11
0.009500
21
-0.020000
31
0.0
0
LINE
8
0
6
CONTINUOUS
10
0.008680
20
-0.020000
30
0.0
11
0.008683
21
-0.026271
31
0.0
0
LINE
8
0
6
CONTINUOUS
10
0.009500
20
-0.045026
30
0.0
11
0.009500
21
-0.044160
31
0.0
0
LINE
8
0
6
CONTINUOUS
10
0.008680
20
-0.044448
30
0.0
11
0.009500
21
-0.045026
31
0.0
0
LINE
8
0
6
CONTINUOUS
10
0.008683
20
-0.043586
30
0.0
11
0.008680
21
-0.044448
31
0.0
0
LINE
8
0
6
CONTINUOUS
10
0.009500
20
0.001657
30
0.0
11
0.009500
21
0.004160
31
0.0
0
LINE
8
0
6
CONTINUOUS
10
0.008683
20
0.003586
30
0.0
11
0.008662
21
0.001192
31
0.0
0
LINE
8
0
6
CONTINUOUS
10
0.009500
20
-0.002385
30
0.0
11
0.009500
21
0.001657
31
0.0
0
LINE
8
0
6
CONTINUOUS
10
0.008662
20
0.001192
30
0.0
11
0.008676
21
-0.002743
31
0.0
0
LINE
8
0
6
CONTINUOUS
10
0.009500
20
-0.037615
30
0.0
11
0.009500
21
-0.032417
31
0.0
0
LINE
8
0
6
CONTINUOUS
10
0.008662
20
-0.032137
30
0.0
11
0.008676
21
-0.037257
31
0.0
0
LINE
8
0
6
CONTINUOUS
10
0.009500
20
-0.020000
30
0.0
11
0.009500
21
-0.013551
31
0.0
0
LINE
8
0
6
CONTINUOUS
10
0.008683
20
-0.013729
30
0.0
11
0.008680
21
-0.020000
31
0.0
0
LINE
8
0
6
CONTINUOUS
10
0.009500
20
0.004160
30
0.0
11
0.009500
21
0.005026
31
0.0
0
LINE
8
0
6
CONTINUOUS
10
0.008680
20
0.004448
30
0.0
11
0.008683
21
0.003586
31
0.0
0
LINE
8
0
6
CONTINUOUS
10
0.009500
20
0.005026
30
0.0
11
0.008680
21
0.004448
31
0.0
0
LINE
8
0
6
CONTINUOUS
10
0.009500
20
-0.044160
30
0.0
11
0.009500
21
-0.041657
31
0.0
0
LINE
8
0
6
CONTINUOUS
10
0.008662
20
-0.041192
30
0.0
11
0.008683
21
-0.043586
31
0.0
0
LINE
8
0
6
CONTINUOUS
10
0.009500
20
-0.007583
30
0.0
11
0.009500
21
-0.002385
31
0.0
0
LINE
8
0
6
CONTINUOUS
10
0.008676
20
-0.002743
30
0.0
11
0.008662
21
-0.007863
31
0.0
0
LINE
8
0
6
CONTINUOUS
10
0.005790
20
-0.040508
30
0.0
11
0.009679
21
-0.041467
31
0.0
0
LINE
8
0
6
CONTINUOUS
10
0.008663
20
0.000955
30
0.0
11
0.005790
21
0.000247
31
0.0
0
LINE
8
0
6
CONTINUOUS
10
0.015526
20
-0.005490
30
0.0
11
0.015526
21
-0.005802
31
0.0
0
LINE
8
0
6
CONTINUOUS
10
0.015526
20
-0.005802
30
0.0
11
0.015864
21
-0.005802
31
0.0
0
LINE
8
0
6
CONTINUOUS
10
0.015526
20
-0.004601
30
0.0
11
0.015526
21
-0.005490
31
0.0
0
LINE
8
0
6
CONTINUOUS
10
0.015526
20
-0.003270
30
0.0
11
0.015526
21
-0.004601
31
0.0
0
LINE
8
0
6
CONTINUOUS
10
0.015526
20
-0.004601
30
0.0
11
0.015864
21
-0.004601
31
0.0
0
LINE
8
0
6
CONTINUOUS
10
0.015526
20
-0.001700
30
0.0
11
0.015526
21
-0.003270
31
0.0
0
LINE
8
0
6
CONTINUOUS
10
0.015526
20
-0.000130
30
0.0
11
0.015526
21
-0.001700
31
0.0
0
LINE
8
0
6
CONTINUOUS
10
0.015526
20
-0.001700
30
0.0
11
0.015864
21
-0.001700
31
0.0
0
LINE
8
0
6
CONTINUOUS
10
0.015526
20
0.001201
30
0.0
11
0.015526
21
-0.000130
31
0.0
0
LINE
8
0
6
CONTINUOUS
10
0.015526
20
0.002402
30
0.0
11
0.015526
21
0.002090
31
0.0
0
LINE
8
0
6
CONTINUOUS
10
0.015864
20
0.002402
30
0.0
11
0.015526
21
0.002402
31
0.0
0
LINE
8
0
6
CONTINUOUS
10
0.015526
20
0.002090
30
0.0
11
0.015526
21
0.001201
31
0.0
0
LINE
8
0
6
CONTINUOUS
10
0.015526
20
0.001201
30
0.0
11
0.015864
21
0.001201
31
0.0
0
LINE
8
0
6
CONTINUOUS
10
0.016000
20
0.002402
30
0.0
11
0.015864
21
0.002402
31
0.0
0
LINE
8
0
6
CONTINUOUS
10
0.016000
20
0.001201
30
0.0
11
0.015864
21
0.001201
31
0.0
0
LINE
8
0
6
CONTINUOUS
10
0.016000
20
-0.001700
30
0.0
11
0.015864
21
-0.001700
31
0.0
0
LINE
8
0
6
CONTINUOUS
10
0.016000
20
-0.004601
30
0.0
11
0.015864
21
-0.004601
31
0.0
0
LINE
8
0
6
CONTINUOUS
10
0.015864
20
-0.005802
30
0.0
11
0.016000
21
-0.005802
31
0.0
0
ENDSEC
0
EOF
