  0
SECTION
  2
HEADER
  9
$ACADVER
  1
AC1015
  9
$ACADMAINTVER
 70
    13
  9
$DWGCODEPAGE
  3
ANSI_1252
  9
$INSBASE
 10
0.0
 20
0.0
 30
0.0
  9
$EXTMIN
 10
-0.0000000000000022
 20
0.0879999999999899
 30
0.0
  9
$EXTMAX
 10
80.0
 20
634.9119999999999
 30
0.0
  9
$LIMMIN
 10
0.0
 20
0.0
  9
$LIMMAX
 10
12.0
 20
9.0
  9
$ORTHOMODE
 70
     0
  9
$REGENMODE
 70
     1
  9
$FILLMODE
 70
     1
  9
$QTEXTMODE
 70
     0
  9
$MIRRTEXT
 70
     1
  9
$LTSCALE
 40
1.0
  9
$ATTMODE
 70
     1
  9
$TEXTSIZE
 40
0.2
  9
$TRACEWID
 40
0.05
  9
$TEXTSTYLE
  7
Standard
  9
$CLAYER
  8
0
  9
$CELTYPE
  6
Continuous
  9
$CECOLOR
 62
   256
  9
$CELTSCALE
 40
1.0
  9
$DISPSILH
 70
     0
  9
$DIMSCALE
 40
1.0
  9
$DIMASZ
 40
0.18
  9
$DIMEXO
 40
0.0625
  9
$DIMDLI
 40
0.38
  9
$DIMRND
 40
0.0
  9
$DIMDLE
 40
0.0
  9
$DIMEXE
 40
0.18
  9
$DIMTP
 40
0.0
  9
$DIMTM
 40
0.0
  9
$DIMTXT
 40
0.18
  9
$DIMCEN
 40
0.09
  9
$DIMTSZ
 40
0.0
  9
$DIMTOL
 70
     0
  9
$DIMLIM
 70
     0
  9
$DIMTIH
 70
     1
  9
$DIMTOH
 70
     1
  9
$DIMSE1
 70
     0
  9
$DIMSE2
 70
     0
  9
$DIMTAD
 70
     0
  9
$DIMZIN
 70
     0
  9
$DIMBLK
  1

  9
$DIMASO
 70
     1
  9
$DIMSHO
 70
     1
  9
$DIMPOST
  1

  9
$DIMAPOST
  1

  9
$DIMALT
 70
     0
  9
$DIMALTD
 70
     2
  9
$DIMALTF
 40
25.4
  9
$DIMLFAC
 40
1.0
  9
$DIMTOFL
 70
     0
  9
$DIMTVP
 40
0.0
  9
$DIMTIX
 70
     0
  9
$DIMSOXD
 70
     0
  9
$DIMSAH
 70
     0
  9
$DIMBLK1
  1

  9
$DIMBLK2
  1

  9
$DIMSTYLE
  2
Standard
  9
$DIMCLRD
 70
     0
  9
$DIMCLRE
 70
     0
  9
$DIMCLRT
 70
     0
  9
$DIMTFAC
 40
1.0
  9
$DIMGAP
 40
0.09
  9
$DIMJUST
 70
     0
  9
$DIMSD1
 70
     0
  9
$DIMSD2
 70
     0
  9
$DIMTOLJ
 70
     1
  9
$DIMTZIN
 70
     0
  9
$DIMALTZ
 70
     0
  9
$DIMALTTZ
 70
     0
  9
$DIMUPT
 70
     0
  9
$DIMDEC
 70
     4
  9
$DIMTDEC
 70
     4
  9
$DIMALTU
 70
     2
  9
$DIMALTTD
 70
     2
  9
$DIMTXSTY
  7
Standard
  9
$DIMAUNIT
 70
     0
  9
$DIMADEC
 70
     0
  9
$DIMALTRND
 40
0.0
  9
$DIMAZIN
 70
     0
  9
$DIMDSEP
 70
    46
  9
$DIMATFIT
 70
     3
  9
$DIMFRAC
 70
     0
  9
$DIMLDRBLK
  1

  9
$DIMLUNIT
 70
     2
  9
$DIMLWD
 70
    -2
  9
$DIMLWE
 70
    -2
  9
$DIMTMOVE
 70
     0
  9
$LUNITS
 70
     2
  9
$LUPREC
 70
     4
  9
$SKETCHINC
 40
0.1
  9
$FILLETRAD
 40
0.0
  9
$AUNITS
 70
     0
  9
$AUPREC
 70
     0
  9
$MENU
  1
.
  9
$ELEVATION
 40
0.0
  9
$PELEVATION
 40
0.0
  9
$THICKNESS
 40
0.0
  9
$LIMCHECK
 70
     0
  9
$CHAMFERA
 40
0.0
  9
$CHAMFERB
 40
0.0
  9
$CHAMFERC
 40
0.0
  9
$CHAMFERD
 40
0.0
  9
$SKPOLY
 70
     0
  9
$TDCREATE
 40
2454781.390642176
  9
$TDUCREATE
 40
2454781.348975509
  9
$TDUPDATE
 40
2454781.392805081
  9
$TDUUPDATE
 40
2454781.351138414
  9
$TDINDWG
 40
0.0021630903
  9
$TDUSRTIMER
 40
0.0021630903
  9
$USRTIMER
 70
     1
  9
$ANGBASE
 50
0.0
  9
$ANGDIR
 70
     0
  9
$PDMODE
 70
     0
  9
$PDSIZE
 40
0.0
  9
$PLINEWID
 40
0.0
  9
$SPLFRAME
 70
     0
  9
$SPLINETYPE
 70
     6
  9
$SPLINESEGS
 70
     8
  9
$HANDSEED
  5
2A0
  9
$SURFTAB1
 70
     6
  9
$SURFTAB2
 70
     6
  9
$SURFTYPE
 70
     6
  9
$SURFU
 70
     6
  9
$SURFV
 70
     6
  9
$UCSBASE
  2

  9
$UCSNAME
  2

  9
$UCSORG
 10
0.0
 20
0.0
 30
0.0
  9
$UCSXDIR
 10
1.0
 20
0.0
 30
0.0
  9
$UCSYDIR
 10
0.0
 20
1.0
 30
0.0
  9
$UCSORTHOREF
  2

  9
$UCSORTHOVIEW
 70
     1
  9
$UCSORGTOP
 10
0.0
 20
0.0
 30
0.0
  9
$UCSORGBOTTOM
 10
0.0
 20
0.0
 30
0.0
  9
$UCSORGLEFT
 10
0.0
 20
0.0
 30
0.0
  9
$UCSORGRIGHT
 10
0.0
 20
0.0
 30
0.0
  9
$UCSORGFRONT
 10
0.0
 20
0.0
 30
0.0
  9
$UCSORGBACK
 10
0.0
 20
0.0
 30
0.0
  9
$PUCSBASE
  2

  9
$PUCSNAME
  2

  9
$PUCSORG
 10
0.0
 20
0.0
 30
0.0
  9
$PUCSXDIR
 10
1.0
 20
0.0
 30
0.0
  9
$PUCSYDIR
 10
0.0
 20
1.0
 30
0.0
  9
$PUCSORTHOREF
  2

  9
$PUCSORTHOVIEW
 70
     0
  9
$PUCSORGTOP
 10
0.0
 20
0.0
 30
0.0
  9
$PUCSORGBOTTOM
 10
0.0
 20
0.0
 30
0.0
  9
$PUCSORGLEFT
 10
0.0
 20
0.0
 30
0.0
  9
$PUCSORGRIGHT
 10
0.0
 20
0.0
 30
0.0
  9
$PUCSORGFRONT
 10
0.0
 20
0.0
 30
0.0
  9
$PUCSORGBACK
 10
0.0
 20
0.0
 30
0.0
  9
$USERI1
 70
     0
  9
$USERI2
 70
     0
  9
$USERI3
 70
     0
  9
$USERI4
 70
     0
  9
$USERI5
 70
     0
  9
$USERR1
 40
0.0
  9
$USERR2
 40
0.0
  9
$USERR3
 40
0.0
  9
$USERR4
 40
0.0
  9
$USERR5
 40
0.0
  9
$WORLDVIEW
 70
     1
  9
$SHADEDGE
 70
     3
  9
$SHADEDIF
 70
    70
  9
$TILEMODE
 70
     1
  9
$MAXACTVP
 70
    64
  9
$PINSBASE
 10
0.0
 20
0.0
 30
0.0
  9
$PLIMCHECK
 70
     0
  9
$PEXTMIN
 10
1.000000000000000E+20
 20
1.000000000000000E+20
 30
1.000000000000000E+20
  9
$PEXTMAX
 10
-1.000000000000000E+20
 20
-1.000000000000000E+20
 30
-1.000000000000000E+20
  9
$PLIMMIN
 10
0.0
 20
0.0
  9
$PLIMMAX
 10
12.0
 20
9.0
  9
$UNITMODE
 70
     0
  9
$VISRETAIN
 70
     1
  9
$PLINEGEN
 70
     0
  9
$PSLTSCALE
 70
     1
  9
$TREEDEPTH
 70
  3020
  9
$CMLSTYLE
  2
Standard
  9
$CMLJUST
 70
     0
  9
$CMLSCALE
 40
1.0
  9
$PROXYGRAPHICS
 70
     1
  9
$MEASUREMENT
 70
     0
  9
$CELWEIGHT
370
    -1
  9
$ENDCAPS
280
     0
  9
$JOINSTYLE
280
     0
  9
$LWDISPLAY
290
     0
  9
$INSUNITS
 70
     0
  9
$HYPERLINKBASE
  1

  9
$STYLESHEET
  1

  9
$XEDIT
290
     1
  9
$CEPSNTYPE
380
     0
  9
$PSTYLEMODE
290
     1
  9
$FINGERPRINTGUID
  2
{76C26F71-FF24-4BAF-A8E4-80EA90D11677}
  9
$VERSIONGUID
  2
{BC634FB1-E242-415B-9DA5-EEB5082F626B}
  9
$EXTNAMES
290
     1
  9
$PSVPSCALE
 40
0.0
  9
$OLESTARTUP
290
     0
  0
ENDSEC
  0
SECTION
  2
CLASSES
  0
CLASS
  1
ACDBDICTIONARYWDFLT
  2
AcDbDictionaryWithDefault
  3
AutoCAD 2000
 90
        0
280
     0
281
     0
  0
CLASS
  1
ACDBPLACEHOLDER
  2
AcDbPlaceHolder
  3
AutoCAD 2000
 90
        0
280
     0
281
     0
  0
CLASS
  1
LAYOUT
  2
AcDbLayout
  3
AutoCAD 2000
 90
        0
280
     0
281
     0
  0
CLASS
  1
DICTIONARYVAR
  2
AcDbDictionaryVar
  3
AutoCAD 2000
 90
        0
280
     0
281
     0
  0
ENDSEC
  0
SECTION
  2
TABLES
  0
TABLE
  2
VPORT
  5
8
330
0
100
AcDbSymbolTable
 70
     2
  0
VPORT
  5
29F
330
8
100
AcDbSymbolTableRecord
100
AcDbViewportTableRecord
  2
*Active
 70
     0
 10
0.0
 20
0.0
 11
1.0
 21
1.0
 12
40.0
 22
317.4999999999999
 13
0.0
 23
0.0
 14
1.0
 24
1.0
 15
0.0
 25
0.0
 16
0.0
 26
0.0
 36
1.0
 17
0.0
 27
0.0
 37
0.0
 40
639.6947723785166
 41
2.078104993597951
 42
50.0
 43
0.0
 44
0.0
 50
0.0
 51
0.0
 71
     0
 72
   100
 73
     1
 74
     3
 75
     0
 76
     0
 77
     0
 78
     0
281
     0
 65
     1
110
0.0
120
0.0
130
0.0
111
1.0
121
0.0
131
0.0
112
0.0
122
1.0
132
0.0
 79
     1
146
0.0
  0
ENDTAB
  0
TABLE
  2
LTYPE
  5
5
330
0
100
AcDbSymbolTable
 70
     1
  0
LTYPE
  5
13
330
5
100
AcDbSymbolTableRecord
100
AcDbLinetypeTableRecord
  2
ByBlock
 70
     0
  3

 72
    65
 73
     0
 40
0.0
  0
LTYPE
  5
14
330
5
100
AcDbSymbolTableRecord
100
AcDbLinetypeTableRecord
  2
ByLayer
 70
     0
  3

 72
    65
 73
     0
 40
0.0
  0
LTYPE
  5
15
330
5
100
AcDbSymbolTableRecord
100
AcDbLinetypeTableRecord
  2
Continuous
 70
     0
  3
Solid line
 72
    65
 73
     0
 40
0.0
  0
ENDTAB
  0
TABLE
  2
LAYER
  5
2
330
0
100
AcDbSymbolTable
 70
     1
  0
LAYER
  5
10
330
2
100
AcDbSymbolTableRecord
100
AcDbLayerTableRecord
  2
0
 70
     0
 62
     7
  6
Continuous
370
    -3
390
F
  0
ENDTAB
  0
TABLE
  2
STYLE
  5
3
330
0
100
AcDbSymbolTable
 70
     1
  0
STYLE
  5
11
330
3
100
AcDbSymbolTableRecord
100
AcDbTextStyleTableRecord
  2
Standard
 70
     0
 40
0.0
 41
1.0
 50
0.0
 71
     0
 42
0.2
  3
txt
  4

  0
ENDTAB
  0
TABLE
  2
VIEW
  5
6
330
0
100
AcDbSymbolTable
 70
     0
  0
ENDTAB
  0
TABLE
  2
UCS
  5
7
330
0
100
AcDbSymbolTable
 70
     0
  0
ENDTAB
  0
TABLE
  2
APPID
  5
9
330
0
100
AcDbSymbolTable
 70
     1
  0
APPID
  5
12
330
9
100
AcDbSymbolTableRecord
100
AcDbRegAppTableRecord
  2
ACAD
 70
     0
  0
ENDTAB
  0
TABLE
  2
DIMSTYLE
  5
A
330
0
100
AcDbSymbolTable
 70
     1
100
AcDbDimStyleTable
 71
     0
  0
DIMSTYLE
105
293
330
A
100
AcDbSymbolTableRecord
100
AcDbDimStyleTableRecord
  2
Standard
 70
     0
340
11
  0
ENDTAB
  0
TABLE
  2
BLOCK_RECORD
  5
1
330
0
100
AcDbSymbolTable
 70
     0
  0
BLOCK_RECORD
  5
1E
330
1
100
AcDbSymbolTableRecord
100
AcDbBlockTableRecord
  2
*Model_Space
340
21
  0
BLOCK_RECORD
  5
1A
330
1
100
AcDbSymbolTableRecord
100
AcDbBlockTableRecord
  2
*Paper_Space
340
1D
  0
ENDTAB
  0
ENDSEC
  0
SECTION
  2
BLOCKS
  0
BLOCK
  5
1F
330
1E
100
AcDbEntity
  8
0
100
AcDbBlockBegin
  2
*Model_Space
 70
     0
 10
0.0
 20
0.0
 30
0.0
  3
*Model_Space
  1

  0
ENDBLK
  5
20
330
1E
100
AcDbEntity
  8
0
100
AcDbBlockEnd
  0
BLOCK
  5
1B
330
1A
100
AcDbEntity
 67
     1
  8
0
100
AcDbBlockBegin
  2
*Paper_Space
 70
     0
 10
0.0
 20
0.0
 30
0.0
  3
*Paper_Space
  1

  0
ENDBLK
  5
1C
330
1A
100
AcDbEntity
 67
     1
  8
0
100
AcDbBlockEnd
  0
ENDSEC
  0
SECTION
  2
ENTITIES
  0
LINE
  5
22
330
1E
100
AcDbEntity
  8
0
100
AcDbLine
 10
2.99999999999997
 20
96.766
 30
0.0
 11
15.0
 21
96.766
 31
0.0
  0
LINE
  5
23
330
1E
100
AcDbEntity
  8
0
100
AcDbLine
 10
2.99999999999997
 20
96.766
 30
0.0
 11
15.0
 21
96.766
 31
0.0
  0
LINE
  5
24
330
1E
100
AcDbEntity
  8
0
100
AcDbLine
 10
2.99999999999997
 20
96.766
 30
0.0
 11
2.99999999999997
 21
121.766
 31
0.0
  0
LINE
  5
25
330
1E
100
AcDbEntity
  8
0
100
AcDbLine
 10
2.99999999999997
 20
121.766
 30
0.0
 11
2.99999999999997
 21
131.7659999999999
 31
0.0
  0
LINE
  5
26
330
1E
100
AcDbEntity
  8
0
100
AcDbLine
 10
2.99999999999997
 20
131.7659999999999
 30
0.0
 11
9.999999999999969
 21
131.7659999999999
 31
0.0
  0
LINE
  5
27
330
1E
100
AcDbEntity
  8
0
100
AcDbLine
 10
1.999999999999969
 20
140.7659999999999
 30
0.0
 11
3.36799999999997
 21
140.7659999999999
 31
0.0
  0
LINE
  5
28
330
1E
100
AcDbEntity
  8
0
100
AcDbLine
 10
1.999999999999969
 20
136.7659999999999
 30
0.0
 11
3.36799999999997
 21
136.7659999999999
 31
0.0
  0
LINE
  5
29
330
1E
100
AcDbEntity
  8
0
100
AcDbLine
 10
1.999999999999969
 20
136.7659999999999
 30
0.0
 11
1.999999999999969
 21
140.7659999999999
 31
0.0
  0
LINE
  5
2A
330
1E
100
AcDbEntity
  8
0
100
AcDbLine
 10
2.99999999999997
 20
131.7659999999999
 30
0.0
 11
9.999999999999969
 21
131.7659999999999
 31
0.0
  0
LINE
  5
2B
330
1E
100
AcDbEntity
  8
0
100
AcDbLine
 10
3.32399999999997
 20
124.0699999999999
 30
0.0
 11
4.18799999999997
 21
126.2299999999999
 31
0.0
  0
LINE
  5
2C
330
1E
100
AcDbEntity
  8
0
100
AcDbLine
 10
2.99999999999997
 20
121.766
 30
0.0
 11
3.32399999999997
 21
119.462
 31
0.0
  0
LINE
  5
2D
330
1E
100
AcDbEntity
  8
0
100
AcDbLine
 10
2.99999999999997
 20
121.766
 30
0.0
 11
3.32399999999997
 21
124.0699999999999
 31
0.0
  0
LINE
  5
2E
330
1E
100
AcDbEntity
  8
0
100
AcDbLine
 10
3.36799999999997
 20
140.7659999999999
 30
0.0
 11
7.015999999999981
 21
140.7659999999999
 31
0.0
  0
LINE
  5
2F
330
1E
100
AcDbEntity
  8
0
100
AcDbLine
 10
3.36799999999997
 20
136.7659999999999
 30
0.0
 11
7.015999999999981
 21
136.7659999999999
 31
0.0
  0
LINE
  5
30
330
1E
100
AcDbEntity
  8
0
100
AcDbLine
 10
4.18799999999997
 20
126.2299999999999
 30
0.0
 11
5.627999999999969
 21
128.138
 31
0.0
  0
LINE
  5
31
330
1E
100
AcDbEntity
  8
0
100
AcDbLine
 10
3.32399999999997
 20
119.462
 30
0.0
 11
4.18799999999997
 21
117.302
 31
0.0
  0
LINE
  5
32
330
1E
100
AcDbEntity
  8
0
100
AcDbLine
 10
4.18799999999997
 20
117.302
 30
0.0
 11
5.627999999999969
 21
115.3939999999999
 31
0.0
  0
LINE
  5
33
330
1E
100
AcDbEntity
  8
0
100
AcDbLine
 10
4.999999999999969
 20
152.766
 30
0.0
 11
4.999999999999969
 21
150.766
 31
0.0
  0
LINE
  5
34
330
1E
100
AcDbEntity
  8
0
100
AcDbLine
 10
4.999999999999969
 20
152.766
 30
0.0
 11
6.25999999999997
 21
152.766
 31
0.0
  0
LINE
  5
35
330
1E
100
AcDbEntity
  8
0
100
AcDbLine
 10
4.999999999999969
 20
150.766
 30
0.0
 11
4.999999999999969
 21
152.766
 31
0.0
  0
LINE
  5
36
330
1E
100
AcDbEntity
  8
0
100
AcDbLine
 10
4.999999999999969
 20
150.766
 30
0.0
 11
6.25999999999997
 21
150.766
 31
0.0
  0
LINE
  5
37
330
1E
100
AcDbEntity
  8
0
100
AcDbLine
 10
4.999999999999969
 20
154.766
 30
0.0
 11
16.0
 21
155.766
 31
0.0
  0
LINE
  5
38
330
1E
100
AcDbEntity
  8
0
100
AcDbLine
 10
-0.0000000000000022
 20
578.19
 30
0.0
 11
1.439999999999999
 21
568.106
 31
0.0
  0
LINE
  5
39
330
1E
100
AcDbEntity
  8
0
100
AcDbLine
 10
-0.0000000000000021
 20
578.19
 30
0.0
 11
1.439999999999999
 21
568.106
 31
0.0
  0
LINE
  5
3A
330
1E
100
AcDbEntity
  8
0
100
AcDbLine
 10
-0.0000000000000021
 20
578.19
 30
0.0
 11
-0.000000000000002
 21
578.885
 31
0.0
  0
LINE
  5
3B
330
1E
100
AcDbEntity
  8
0
100
AcDbLine
 10
-0.0000000000000019
 20
578.885
 30
0.0
 11
1.439999999999999
 21
568.7999999999999
 31
0.0
  0
LINE
  5
3C
330
1E
100
AcDbEntity
  8
0
100
AcDbLine
 10
-0.0000000000000019
 20
578.885
 30
0.0
 11
0.178475026597074
 21
580.1348209501419
 31
0.0
  0
LINE
  5
3D
330
1E
100
AcDbEntity
  8
0
100
AcDbLine
 10
-0.000000000000002
 20
578.885
 30
0.0
 11
1.439999999999999
 21
568.7999999999999
 31
0.0
  0
LINE
  5
3E
330
1E
100
AcDbEntity
  8
0
100
AcDbLine
 10
-0.000000000000002
 20
578.885
 30
0.0
 11
0.178475026597074
 21
580.1348209501419
 31
0.0
  0
LINE
  5
3F
330
1E
100
AcDbEntity
  8
0
100
AcDbLine
 10
-0.0000000000000019
 20
581.428
 30
0.0
 11
1.399999999999999
 21
571.2839999999999
 31
0.0
  0
LINE
  5
40
330
1E
100
AcDbEntity
  8
0
100
AcDbLine
 10
-0.0000000000000019
 20
581.428
 30
0.0
 11
-0.0000000000000017
 21
584.987
 31
0.0
  0
LINE
  5
41
330
1E
100
AcDbEntity
  8
0
100
AcDbLine
 10
-0.0000000000000019
 20
581.428
 30
0.0
 11
1.399999999999999
 21
571.2839999999999
 31
0.0
  0
LINE
  5
42
330
1E
100
AcDbEntity
  8
0
100
AcDbLine
 10
1.439999999999999
 20
568.106
 30
0.0
 11
5.27999999999999
 21
558.6519999999999
 31
0.0
  0
LINE
  5
43
330
1E
100
AcDbEntity
  8
0
100
AcDbLine
 10
1.439999999999999
 20
568.7999999999999
 30
0.0
 11
5.27999999999999
 21
559.346
 31
0.0
  0
LINE
  5
44
330
1E
100
AcDbEntity
  8
0
100
AcDbLine
 10
2.399999999999999
 20
575.3129999999999
 30
0.0
 11
6.2
 21
566.056
 31
0.0
  0
LINE
  5
45
330
1E
100
AcDbEntity
  8
0
100
AcDbLine
 10
1.399999999999999
 20
574.844
 30
0.0
 11
5.4
 21
565.39
 31
0.0
  0
LINE
  5
46
330
1E
100
AcDbEntity
  8
0
100
AcDbLine
 10
1.399999999999999
 20
571.2839999999999
 30
0.0
 11
5.4
 21
561.83
 31
0.0
  0
LINE
  5
47
330
1E
100
AcDbEntity
  8
0
100
AcDbLine
 10
2.399999999999999
 20
595.009
 30
0.0
 11
6.2
 21
604.2659999999999
 31
0.0
  0
LINE
  5
48
330
1E
100
AcDbEntity
  8
0
100
AcDbLine
 10
1.399999999999999
 20
595.1309999999999
 30
0.0
 11
5.4
 21
604.585
 31
0.0
  0
LINE
  5
49
330
1E
100
AcDbEntity
  8
0
100
AcDbLine
 10
0.9999999999999978
 20
585.1609999999999
 30
0.0
 11
2.399999999999999
 21
595.009
 31
0.0
  0
LINE
  5
4A
330
1E
100
AcDbEntity
  8
0
100
AcDbLine
 10
0.9999999999999978
 20
585.1609999999999
 30
0.0
 11
2.399999999999999
 21
575.3129999999999
 31
0.0
  0
LINE
  5
4B
330
1E
100
AcDbEntity
  8
0
100
AcDbLine
 10
1.399999999999999
 20
595.1309999999999
 30
0.0
 11
5.4
 21
604.585
 31
0.0
  0
LINE
  5
4C
330
1E
100
AcDbEntity
  8
0
100
AcDbLine
 10
-0.0000000000000017
 20
584.987
 30
0.0
 11
1.399999999999999
 21
595.1309999999999
 31
0.0
  0
LINE
  5
4D
330
1E
100
AcDbEntity
  8
0
100
AcDbLine
 10
-0.0000000000000017
 20
584.987
 30
0.0
 11
1.399999999999999
 21
574.844
 31
0.0
  0
LINE
  5
4E
330
1E
100
AcDbEntity
  8
0
100
AcDbLine
 10
4.999999999999969
 20
154.766
 30
0.0
 11
4.999999999999969
 21
153.7659999999999
 31
0.0
  0
LINE
  5
4F
330
1E
100
AcDbEntity
  8
0
100
AcDbLine
 10
4.999999999999969
 20
154.766
 30
0.0
 11
6.29999999999997
 21
154.766
 31
0.0
  0
LINE
  5
50
330
1E
100
AcDbEntity
  8
0
100
AcDbLine
 10
4.999999999999969
 20
154.766
 30
0.0
 11
16.0
 21
155.766
 31
0.0
  0
LINE
  5
51
330
1E
100
AcDbEntity
  8
0
100
AcDbLine
 10
5.627999999999969
 20
128.138
 30
0.0
 11
7.53599999999997
 21
129.578
 31
0.0
  0
LINE
  5
52
330
1E
100
AcDbEntity
  8
0
100
AcDbLine
 10
5.627999999999969
 20
115.3939999999999
 30
0.0
 11
7.53599999999997
 21
113.9539999999999
 31
0.0
  0
LINE
  5
53
330
1E
100
AcDbEntity
  8
0
100
AcDbLine
 10
7.015999999999981
 20
140.7659999999999
 30
0.0
 11
13.09599999999999
 21
140.7659999999999
 31
0.0
  0
LINE
  5
54
330
1E
100
AcDbEntity
  8
0
100
AcDbLine
 10
7.015999999999981
 20
136.7659999999999
 30
0.0
 11
9.999999999999969
 21
136.7659999999999
 31
0.0
  0
LINE
  5
55
330
1E
100
AcDbEntity
  8
0
100
AcDbLine
 10
7.015999999999981
 20
136.7659999999999
 30
0.0
 11
13.09599999999999
 21
136.7659999999999
 31
0.0
  0
LINE
  5
56
330
1E
100
AcDbEntity
  8
0
100
AcDbLine
 10
7.53599999999997
 20
129.578
 30
0.0
 11
9.695999999999969
 21
130.442
 31
0.0
  0
LINE
  5
57
330
1E
100
AcDbEntity
  8
0
100
AcDbLine
 10
9.695999999999969
 20
130.442
 30
0.0
 11
9.999999999999969
 21
130.4847499999999
 31
0.0
  0
LINE
  5
58
330
1E
100
AcDbEntity
  8
0
100
AcDbLine
 10
7.53599999999997
 20
113.9539999999999
 30
0.0
 11
9.695999999999969
 21
113.09
 31
0.0
  0
LINE
  5
59
330
1E
100
AcDbEntity
  8
0
100
AcDbLine
 10
9.695999999999969
 20
113.09
 30
0.0
 11
12.0
 21
112.766
 31
0.0
  0
LINE
  5
5A
330
1E
100
AcDbEntity
  8
0
100
AcDbLine
 10
6.25999999999997
 20
150.766
 30
0.0
 11
9.61999999999997
 21
150.766
 31
0.0
  0
LINE
  5
5B
330
1E
100
AcDbEntity
  8
0
100
AcDbLine
 10
6.25999999999997
 20
152.766
 30
0.0
 11
9.61999999999997
 21
152.766
 31
0.0
  0
LINE
  5
5C
330
1E
100
AcDbEntity
  8
0
100
AcDbLine
 10
9.61999999999997
 20
152.766
 30
0.0
 11
15.22
 21
152.766
 31
0.0
  0
LINE
  5
5D
330
1E
100
AcDbEntity
  8
0
100
AcDbLine
 10
9.61999999999997
 20
150.766
 30
0.0
 11
13.0
 21
150.766
 31
0.0
  0
LINE
  5
5E
330
1E
100
AcDbEntity
  8
0
100
AcDbLine
 10
9.61999999999997
 20
150.766
 30
0.0
 11
15.22
 21
150.766
 31
0.0
  0
LINE
  5
60
330
1E
100
AcDbEntity
  8
0
100
AcDbLine
 10
13.648
 20
31.766
 30
0.0
 11
14.61999999999999
 21
31.766
 31
0.0
  0
LINE
  5
61
330
1E
100
AcDbEntity
  8
0
100
AcDbLine
 10
13.0
 20
32.728
 30
0.0
 11
13.648
 21
31.766
 31
0.0
  0
LINE
  5
62
330
1E
100
AcDbEntity
  8
0
100
AcDbLine
 10
13.0
 20
32.728
 30
0.0
 11
13.0
 21
55.80449999999999
 31
0.0
  0
LINE
  5
63
330
1E
100
AcDbEntity
  8
0
100
AcDbLine
 10
14.61999999999999
 20
31.766
 30
0.0
 11
15.0
 21
31.766
 31
0.0
  0
LINE
  5
65
330
1E
100
AcDbEntity
  8
0
100
AcDbLine
 10
13.648
 20
56.766
 30
0.0
 11
14.61999999999999
 21
56.766
 31
0.0
  0
LINE
  5
66
330
1E
100
AcDbEntity
  8
0
100
AcDbLine
 10
13.0
 20
55.80449999999999
 30
0.0
 11
13.648
 21
56.766
 31
0.0
  0
LINE
  5
67
330
1E
100
AcDbEntity
  8
0
100
AcDbLine
 10
14.61999999999999
 20
56.766
 30
0.0
 11
14.724835695315
 21
56.766
 31
0.0
  0
LINE
  5
68
330
1E
100
AcDbEntity
  8
0
100
AcDbLine
 10
14.0
 20
53.12129999999999
 30
0.0
 11
14.0
 21
52.4142
 31
0.0
  0
LINE
  5
69
330
1E
100
AcDbEntity
  8
0
100
AcDbLine
 10
14.0
 20
53.12129999999999
 30
0.0
 11
14.93599999999999
 21
57.8278
 31
0.0
  0
LINE
  5
6A
330
1E
100
AcDbEntity
  8
0
100
AcDbLine
 10
14.0
 20
78.766
 30
0.0
 11
14.0
 21
80.766
 31
0.0
  0
LINE
  5
6B
330
1E
100
AcDbEntity
  8
0
100
AcDbLine
 10
14.0
 20
78.766
 30
0.0
 11
14.93599999999999
 21
78.766
 31
0.0
  0
LINE
  5
6C
330
1E
100
AcDbEntity
  8
0
100
AcDbLine
 10
14.0
 20
78.766
 30
0.0
 11
14.5
 21
78.766
 31
0.0
  0
LINE
  5
6D
330
1E
100
AcDbEntity
  8
0
100
AcDbLine
 10
14.0
 20
80.766
 30
0.0
 11
14.93599999999999
 21
80.766
 31
0.0
  0
LINE
  5
6E
330
1E
100
AcDbEntity
  8
0
100
AcDbLine
 10
14.0
 20
80.766
 30
0.0
 11
14.0
 21
78.766
 31
0.0
  0
LINE
  5
6F
330
1E
100
AcDbEntity
  8
0
100
AcDbLine
 10
9.999999999999969
 20
129.766
 30
0.0
 11
11.08
 21
129.766
 31
0.0
  0
LINE
  5
70
330
1E
100
AcDbEntity
  8
0
100
AcDbLine
 10
9.999999999999969
 20
129.766
 30
0.0
 11
9.999999999999969
 21
136.7659999999999
 31
0.0
  0
LINE
  5
71
330
1E
100
AcDbEntity
  8
0
100
AcDbLine
 10
13.09599999999999
 20
140.7659999999999
 30
0.0
 11
21.15199999999999
 21
140.7659999999999
 31
0.0
  0
LINE
  5
72
330
1E
100
AcDbEntity
  8
0
100
AcDbLine
 10
13.09599999999999
 20
136.7659999999999
 30
0.0
 11
21.15199999999999
 21
136.7659999999999
 31
0.0
  0
LINE
  5
73
330
1E
100
AcDbEntity
  8
0
100
AcDbLine
 10
9.999999999999969
 20
136.7659999999999
 30
0.0
 11
9.999999999999969
 21
129.766
 31
0.0
  0
LINE
  5
74
330
1E
100
AcDbEntity
  8
0
100
AcDbLine
 10
11.08
 20
129.766
 30
0.0
 11
13.96
 21
129.766
 31
0.0
  0
LINE
  5
75
330
1E
100
AcDbEntity
  8
0
100
AcDbLine
 10
13.96
 20
129.766
 30
0.0
 11
18.76
 21
129.766
 31
0.0
  0
LINE
  5
76
330
1E
100
AcDbEntity
  8
0
100
AcDbLine
 10
13.96
 20
129.766
 30
0.0
 11
15.0
 21
129.766
 31
0.0
  0
LINE
  5
77
330
1E
100
AcDbEntity
  8
0
100
AcDbLine
 10
12.0
 20
112.766
 30
0.0
 11
14.1838107098381
 21
113.073098381071
 31
0.0
  0
LINE
  5
78
330
1E
100
AcDbEntity
  8
0
100
AcDbLine
 10
14.0
 20
84.76600000000001
 30
0.0
 11
14.93599999999999
 21
84.76600000000001
 31
0.0
  0
LINE
  5
79
330
1E
100
AcDbEntity
  8
0
100
AcDbLine
 10
14.0
 20
84.76600000000001
 30
0.0
 11
14.0
 21
82.766
 31
0.0
  0
LINE
  5
7A
330
1E
100
AcDbEntity
  8
0
100
AcDbLine
 10
14.0
 20
82.766
 30
0.0
 11
14.0
 21
84.76600000000001
 31
0.0
  0
LINE
  5
7B
330
1E
100
AcDbEntity
  8
0
100
AcDbLine
 10
14.0
 20
82.766
 30
0.0
 11
14.5
 21
82.766
 31
0.0
  0
LINE
  5
7C
330
1E
100
AcDbEntity
  8
0
100
AcDbLine
 10
14.0
 20
82.766
 30
0.0
 11
14.93599999999999
 21
82.766
 31
0.0
  0
LINE
  5
7D
330
1E
100
AcDbEntity
  8
0
100
AcDbLine
 10
14.5
 20
78.766
 30
0.0
 11
17.0
 21
78.766
 31
0.0
  0
LINE
  5
7E
330
1E
100
AcDbEntity
  8
0
100
AcDbLine
 10
14.5
 20
64.76600000000001
 30
0.0
 11
14.5
 21
78.766
 31
0.0
  0
LINE
  5
7F
330
1E
100
AcDbEntity
  8
0
100
AcDbLine
 10
14.5
 20
64.76600000000001
 30
0.0
 11
17.5
 21
64.76600000000001
 31
0.0
  0
LINE
  5
80
330
1E
100
AcDbEntity
  8
0
100
AcDbLine
 10
14.5
 20
82.766
 30
0.0
 11
14.5
 21
80.766
 31
0.0
  0
LINE
  5
81
330
1E
100
AcDbEntity
  8
0
100
AcDbLine
 10
14.5
 20
82.766
 30
0.0
 11
17.0
 21
82.766
 31
0.0
  0
LINE
  5
82
330
1E
100
AcDbEntity
  8
0
100
AcDbLine
 10
14.93599999999999
 20
78.766
 30
0.0
 11
17.432
 21
78.766
 31
0.0
  0
LINE
  5
83
330
1E
100
AcDbEntity
  8
0
100
AcDbLine
 10
14.5
 20
80.766
 30
0.0
 11
14.5
 21
82.766
 31
0.0
  0
LINE
  5
84
330
1E
100
AcDbEntity
  8
0
100
AcDbLine
 10
14.5
 20
112.766
 30
0.0
 11
14.5
 21
110.766
 31
0.0
  0
LINE
  5
85
330
1E
100
AcDbEntity
  8
0
100
AcDbLine
 10
14.5
 20
112.766
 30
0.0
 11
17.5
 21
112.766
 31
0.0
  0
LINE
  5
86
330
1E
100
AcDbEntity
  8
0
100
AcDbLine
 10
14.5
 20
110.766
 30
0.0
 11
17.5
 21
110.766
 31
0.0
  0
LINE
  5
87
330
1E
100
AcDbEntity
  8
0
100
AcDbLine
 10
14.5
 20
110.766
 30
0.0
 11
17.140625
 21
110.766
 31
0.0
  0
LINE
  5
88
330
1E
100
AcDbEntity
  8
0
100
AcDbLine
 10
14.5
 20
110.766
 30
0.0
 11
14.5
 21
112.766
 31
0.0
  0
LINE
  5
89
330
1E
100
AcDbEntity
  8
0
100
AcDbLine
 10
14.0
 20
111.766
 30
0.0
 11
14.93599999999999
 21
105.1099999999999
 31
0.0
  0
LINE
  5
8A
330
1E
100
AcDbEntity
  8
0
100
AcDbLine
 10
14.0
 20
111.766
 30
0.0
 11
14.93599999999999
 21
118.422
 31
0.0
  0
LINE
  5
8B
330
1E
100
AcDbEntity
  8
0
100
AcDbLine
 10
14.93599999999999
 20
57.8278
 30
0.0
 11
17.432
 21
62.2402
 31
0.0
  0
LINE
  5
8C
330
1E
100
AcDbEntity
  8
0
100
AcDbLine
 10
14.93599999999999
 20
57.1207
 30
0.0
 11
17.432
 21
61.5331
 31
0.0
  0
LINE
  5
8D
330
1E
100
AcDbEntity
  8
0
100
AcDbLine
 10
14.0
 20
52.4142
 30
0.0
 11
14.93599999999999
 21
47.7077
 31
0.0
  0
LINE
  5
8E
330
1E
100
AcDbEntity
  8
0
100
AcDbLine
 10
14.0
 20
52.4142
 30
0.0
 11
14.0
 21
53.12129999999999
 31
0.0
  0
LINE
  5
8F
330
1E
100
AcDbEntity
  8
0
100
AcDbLine
 10
14.0
 20
52.4142
 30
0.0
 11
14.93599999999999
 21
57.1207
 31
0.0
  0
LINE
  5
90
330
1E
100
AcDbEntity
  8
0
100
AcDbLine
 10
15.0
 20
17.766
 30
0.0
 11
15.0
 21
52.4142
 31
0.0
  0
LINE
  5
91
330
1E
100
AcDbEntity
  8
0
100
AcDbLine
 10
15.0
 20
52.4142
 30
0.0
 11
15.9
 21
56.9397
 31
0.0
  0
LINE
  5
92
330
1E
100
AcDbEntity
  8
0
100
AcDbLine
 10
15.9
 20
22.291
 30
0.0
 11
18.3
 21
26.534
 31
0.0
  0
LINE
  5
93
330
1E
100
AcDbEntity
  8
0
100
AcDbLine
 10
15.0
 20
17.766
 30
0.0
 11
15.9
 21
13.241
 31
0.0
  0
LINE
  5
94
330
1E
100
AcDbEntity
  8
0
100
AcDbLine
 10
15.0
 20
17.766
 30
0.0
 11
15.0
 21
52.4142
 31
0.0
  0
LINE
  5
95
330
1E
100
AcDbEntity
  8
0
100
AcDbLine
 10
15.0
 20
17.766
 30
0.0
 11
15.9
 21
22.291
 31
0.0
  0
LINE
  5
96
330
1E
100
AcDbEntity
  8
0
100
AcDbLine
 10
15.9
 20
56.9397
 30
0.0
 11
18.3
 21
61.1824
 31
0.0
  0
LINE
  5
97
330
1E
100
AcDbEntity
  8
0
100
AcDbLine
 10
15.9
 20
13.241
 30
0.0
 11
18.3
 21
8.99799999999999
 31
0.0
  0
LINE
  5
98
330
1E
100
AcDbEntity
  8
0
100
AcDbLine
 10
17.0
 20
64.76600000000001
 30
0.0
 11
17.82799999999999
 21
64.76600000000001
 31
0.0
  0
LINE
  5
99
330
1E
100
AcDbEntity
  8
0
100
AcDbLine
 10
17.432
 20
62.2402
 30
0.0
 11
21.59199999999999
 21
66.1378
 31
0.0
  0
LINE
  5
9A
330
1E
100
AcDbEntity
  8
0
100
AcDbLine
 10
17.82799999999999
 20
64.76600000000001
 30
0.0
 11
20.0
 21
64.76600000000001
 31
0.0
  0
LINE
  5
9B
330
1E
100
AcDbEntity
  8
0
100
AcDbLine
 10
18.3
 20
26.534
 30
0.0
 11
22.29999999999999
 21
30.282
 31
0.0
  0
LINE
  5
9C
330
1E
100
AcDbEntity
  8
0
100
AcDbLine
 10
18.3
 20
61.1824
 30
0.0
 11
22.29999999999999
 21
64.93000000000001
 31
0.0
  0
LINE
  5
9D
330
1E
100
AcDbEntity
  8
0
100
AcDbLine
 10
19.3429
 20
21.64499999999999
 30
0.0
 11
21.4
 21
25.282
 31
0.0
  0
LINE
  5
9E
330
1E
100
AcDbEntity
  8
0
100
AcDbLine
 10
18.5714
 20
17.766
 30
0.0
 11
19.3429
 21
13.887
 31
0.0
  0
LINE
  5
9F
330
1E
100
AcDbEntity
  8
0
100
AcDbLine
 10
18.5714
 20
17.766
 30
0.0
 11
19.3429
 21
21.64499999999999
 31
0.0
  0
LINE
  5
A0
330
1E
100
AcDbEntity
  8
0
100
AcDbLine
 10
21.4
 20
25.282
 30
0.0
 11
24.8286
 21
28.494
 31
0.0
  0
LINE
  5
A1
330
1E
100
AcDbEntity
  8
0
100
AcDbLine
 10
20.0
 20
64.6462184615385
 30
0.0
 11
20.0
 21
102.6863
 31
0.0
  0
LINE
  5
A2
330
1E
100
AcDbEntity
  8
0
100
AcDbLine
 10
22.29999999999999
 20
64.93000000000001
 30
0.0
 11
27.6
 21
67.75839999999999
 31
0.0
  0
LINE
  5
A3
330
1E
100
AcDbEntity
  8
0
100
AcDbLine
 10
22.29999999999999
 20
30.282
 30
0.0
 11
27.6
 21
33.10999999999999
 31
0.0
  0
LINE
  5
A4
330
1E
100
AcDbEntity
  8
0
100
AcDbLine
 10
19.3429
 20
13.887
 30
0.0
 11
21.4
 21
10.25
 31
0.0
  0
LINE
  5
A5
330
1E
100
AcDbEntity
  8
0
100
AcDbLine
 10
21.4
 20
10.25
 30
0.0
 11
24.8286
 21
7.03799999999998
 31
0.0
  0
LINE
  5
A6
330
1E
100
AcDbEntity
  8
0
100
AcDbLine
 10
18.3
 20
8.99799999999999
 30
0.0
 11
22.29999999999999
 21
5.25
 31
0.0
  0
LINE
  5
A7
330
1E
100
AcDbEntity
  8
0
100
AcDbLine
 10
22.29999999999999
 20
5.25
 30
0.0
 11
27.6
 21
2.42199999999999
 31
0.0
  0
LINE
  5
A8
330
1E
100
AcDbEntity
  8
0
100
AcDbLine
 10
22.29999999999999
 20
5.25
 30
0.0
 11
27.6
 21
2.42199999999999
 31
0.0
  0
LINE
  5
A9
330
1E
100
AcDbEntity
  8
0
100
AcDbLine
 10
17.432
 20
61.5331
 30
0.0
 11
21.59199999999999
 21
65.4307
 31
0.0
  0
LINE
  5
AA
330
1E
100
AcDbEntity
  8
0
100
AcDbLine
 10
17.0
 20
78.766
 30
0.0
 11
17.82799999999999
 21
78.766
 31
0.0
  0
LINE
  5
AB
330
1E
100
AcDbEntity
  8
0
100
AcDbLine
 10
17.432
 20
78.766
 30
0.0
 11
20.0
 21
78.766
 31
0.0
  0
LINE
  5
AC
330
1E
100
AcDbEntity
  8
0
100
AcDbLine
 10
17.432
 20
78.766
 30
0.0
 11
20.0
 21
78.766
 31
0.0
  0
LINE
  5
AD
330
1E
100
AcDbEntity
  8
0
100
AcDbLine
 10
17.432
 20
80.766
 30
0.0
 11
20.0
 21
80.766
 31
0.0
  0
LINE
  5
AE
330
1E
100
AcDbEntity
  8
0
100
AcDbLine
 10
17.432
 20
80.766
 30
0.0
 11
20.0
 21
80.766
 31
0.0
  0
LINE
  5
AF
330
1E
100
AcDbEntity
  8
0
100
AcDbLine
 10
14.93599999999999
 20
80.766
 30
0.0
 11
17.432
 21
80.766
 31
0.0
  0
LINE
  5
B0
330
1E
100
AcDbEntity
  8
0
100
AcDbLine
 10
17.0
 20
82.766
 30
0.0
 11
17.82799999999999
 21
82.766
 31
0.0
  0
LINE
  5
B1
330
1E
100
AcDbEntity
  8
0
100
AcDbLine
 10
17.432
 20
82.766
 30
0.0
 11
20.0
 21
82.766
 31
0.0
  0
LINE
  5
B2
330
1E
100
AcDbEntity
  8
0
100
AcDbLine
 10
15.0
 20
84.76600000000001
 30
0.0
 11
15.0
 21
104.95
 31
0.0
  0
LINE
  5
B3
330
1E
100
AcDbEntity
  8
0
100
AcDbLine
 10
14.93599999999999
 20
82.766
 30
0.0
 11
17.432
 21
82.766
 31
0.0
  0
LINE
  5
B4
330
1E
100
AcDbEntity
  8
0
100
AcDbLine
 10
17.432
 20
84.76600000000001
 30
0.0
 11
20.0
 21
84.76600000000001
 31
0.0
  0
LINE
  5
B5
330
1E
100
AcDbEntity
  8
0
100
AcDbLine
 10
14.93599999999999
 20
84.76600000000001
 30
0.0
 11
17.432
 21
84.76600000000001
 31
0.0
  0
LINE
  5
B6
330
1E
100
AcDbEntity
  8
0
100
AcDbLine
 10
17.82799999999999
 20
78.766
 30
0.0
 11
20.0
 21
78.766
 31
0.0
  0
LINE
  5
B7
330
1E
100
AcDbEntity
  8
0
100
AcDbLine
 10
20.0
 20
102.6863
 30
0.0
 11
20.0
 21
107.6127999999999
 31
0.0
  0
LINE
  5
B8
330
1E
100
AcDbEntity
  8
0
100
AcDbLine
 10
17.82799999999999
 20
82.766
 30
0.0
 11
20.0
 21
82.766
 31
0.0
  0
LINE
  5
B9
330
1E
100
AcDbEntity
  8
0
100
AcDbLine
 10
17.432
 20
98.87
 30
0.0
 11
20.0
 21
95.46739999999999
 31
0.0
  0
LINE
  5
BB
330
1E
100
AcDbEntity
  8
0
100
AcDbLine
 10
17.140625
 20
110.766
 30
0.0
 11
17.82799999999999
 21
105.8779999999999
 31
0.0
  0
LINE
  5
BC
330
1E
100
AcDbEntity
  8
0
100
AcDbLine
 10
17.0
 20
112.766
 30
0.0
 11
17.82799999999999
 21
117.6539999999999
 31
0.0
  0
LINE
  5
BD
330
1E
100
AcDbEntity
  8
0
100
AcDbLine
 10
17.140625
 20
110.766
 30
0.0
 11
17.82799999999999
 21
105.8779999999999
 31
0.0
  0
LINE
  5
BE
330
1E
100
AcDbEntity
  8
0
100
AcDbLine
 10
15.0
 20
118.582
 30
0.0
 11
15.0
 21
129.766
 31
0.0
  0
LINE
  5
BF
330
1E
100
AcDbEntity
  8
0
100
AcDbLine
 10
15.0
 20
129.766
 30
0.0
 11
15.9
 21
129.766
 31
0.0
  0
LINE
  5
C0
330
1E
100
AcDbEntity
  8
0
100
AcDbLine
 10
15.9
 20
129.766
 30
0.0
 11
18.3
 21
129.766
 31
0.0
  0
LINE
  5
C1
330
1E
100
AcDbEntity
  8
0
100
AcDbLine
 10
14.93599999999999
 20
118.422
 30
0.0
 11
17.432
 21
124.662
 31
0.0
  0
LINE
  5
C2
330
1E
100
AcDbEntity
  8
0
100
AcDbLine
 10
17.5
 20
110.766
 30
0.0
 11
17.5
 21
112.766
 31
0.0
  0
LINE
  5
C3
330
1E
100
AcDbEntity
  8
0
100
AcDbLine
 10
17.5
 20
112.766
 30
0.0
 11
17.5
 21
110.766
 31
0.0
  0
LINE
  5
C4
330
1E
100
AcDbEntity
  8
0
100
AcDbLine
 10
20.0
 20
111.766
 30
0.0
 11
20.0
 21
110.7096999999999
 31
0.0
  0
LINE
  5
C5
330
1E
100
AcDbEntity
  8
0
100
AcDbLine
 10
20.0
 20
111.766
 30
0.0
 11
20.72
 21
116.886
 31
0.0
  0
LINE
  5
C6
330
1E
100
AcDbEntity
  8
0
100
AcDbLine
 10
20.0
 20
107.6127999999999
 30
0.0
 11
20.0
 21
110.7096999999999
 31
0.0
  0
LINE
  5
C7
330
1E
100
AcDbEntity
  8
0
100
AcDbLine
 10
20.0
 20
110.7096999999999
 30
0.0
 11
20.0
 21
107.6127999999999
 31
0.0
  0
LINE
  5
C8
330
1E
100
AcDbEntity
  8
0
100
AcDbLine
 10
20.0
 20
110.7096999999999
 30
0.0
 11
20.0
 21
111.766
 31
0.0
  0
LINE
  5
C9
330
1E
100
AcDbEntity
  8
0
100
AcDbLine
 10
21.15199999999999
 20
140.7659999999999
 30
0.0
 11
30.272
 21
140.7659999999999
 31
0.0
  0
LINE
  5
CA
330
1E
100
AcDbEntity
  8
0
100
AcDbLine
 10
21.15199999999999
 20
136.7659999999999
 30
0.0
 11
30.272
 21
136.7659999999999
 31
0.0
  0
LINE
  5
CB
330
1E
100
AcDbEntity
  8
0
100
AcDbLine
 10
18.76
 20
129.766
 30
0.0
 11
21.2840754716981
 21
129.766
 31
0.0
  0
LINE
  5
CC
330
1E
100
AcDbEntity
  8
0
100
AcDbLine
 10
18.3
 20
129.766
 30
0.0
 11
21.2840754716981
 21
129.766
 31
0.0
  0
LINE
  5
CD
330
1E
100
AcDbEntity
  8
0
100
AcDbLine
 10
20.036
 20
123.174
 30
0.0
 11
23.71599999999999
 21
128.05
 31
0.0
  0
LINE
  5
CE
330
1E
100
AcDbEntity
  8
0
100
AcDbLine
 10
17.82799999999999
 20
117.6539999999999
 30
0.0
 11
20.036
 21
123.174
 31
0.0
  0
LINE
  5
CF
330
1E
100
AcDbEntity
  8
0
100
AcDbLine
 10
17.82799999999999
 20
105.8779999999999
 30
0.0
 11
20.0
 21
100.448
 31
0.0
  0
LINE
  5
D0
330
1E
100
AcDbEntity
  8
0
100
AcDbLine
 10
17.432
 20
124.662
 30
0.0
 11
21.59199999999999
 21
130.174
 31
0.0
  0
LINE
  5
D1
330
1E
100
AcDbEntity
  8
0
100
AcDbLine
 10
14.93599999999999
 20
105.1099999999999
 30
0.0
 11
17.432
 21
98.87
 31
0.0
  0
LINE
  5
D2
330
1E
100
AcDbEntity
  8
0
100
AcDbLine
 10
21.59199999999999
 20
130.174
 30
0.0
 11
27.10399999999999
 21
134.3339999999999
 31
0.0
  0
LINE
  5
D3
330
1E
100
AcDbEntity
  8
0
100
AcDbLine
 10
21.59199999999999
 20
66.1378
 30
0.0
 11
27.10399999999999
 21
69.0793
 31
0.0
  0
LINE
  5
D4
330
1E
100
AcDbEntity
  8
0
100
AcDbLine
 10
21.59199999999999
 20
65.4307
 30
0.0
 11
27.10399999999999
 21
68.37220000000001
 31
0.0
  0
LINE
  5
D5
330
1E
100
AcDbEntity
  8
0
100
AcDbLine
 10
14.93599999999999
 20
47.7077
 30
0.0
 11
15.0
 21
47.59456410256411
 31
0.0
  0
LINE
  5
D6
330
1E
100
AcDbEntity
  8
0
100
AcDbLine
 10
13.0
 20
150.766
 30
0.0
 11
13.0
 21
140.7659999999999
 31
0.0
  0
LINE
  5
D7
330
1E
100
AcDbEntity
  8
0
100
AcDbLine
 10
13.0
 20
150.766
 30
0.0
 11
13.972
 21
150.766
 31
0.0
  0
LINE
  5
D8
330
1E
100
AcDbEntity
  8
0
100
AcDbLine
 10
13.972
 20
150.766
 30
0.0
 11
16.564
 21
150.766
 31
0.0
  0
LINE
  5
D9
330
1E
100
AcDbEntity
  8
0
100
AcDbLine
 10
15.22
 20
152.766
 30
0.0
 11
22.64
 21
152.766
 31
0.0
  0
LINE
  5
DA
330
1E
100
AcDbEntity
  8
0
100
AcDbLine
 10
16.564
 20
150.766
 30
0.0
 11
20.884
 21
150.766
 31
0.0
  0
LINE
  5
DB
330
1E
100
AcDbEntity
  8
0
100
AcDbLine
 10
20.0
 20
153.7659999999999
 30
0.0
 11
20.0
 21
152.766
 31
0.0
  0
LINE
  5
DC
330
1E
100
AcDbEntity
  8
0
100
AcDbLine
 10
20.0
 20
152.766
 30
0.0
 11
20.0
 21
153.7659999999999
 31
0.0
  0
LINE
  5
DD
330
1E
100
AcDbEntity
  8
0
100
AcDbLine
 10
20.884
 20
150.766
 30
0.0
 11
26.608
 21
150.766
 31
0.0
  0
LINE
  5
DE
330
1E
100
AcDbEntity
  8
0
100
AcDbLine
 10
15.22
 20
150.766
 30
0.0
 11
22.64
 21
150.766
 31
0.0
  0
LINE
  5
DF
330
1E
100
AcDbEntity
  8
0
100
AcDbLine
 10
13.0
 20
140.7659999999999
 30
0.0
 11
13.0
 21
150.766
 31
0.0
  0
LINE
  5
E0
330
1E
100
AcDbEntity
  8
0
100
AcDbLine
 10
22.64
 20
121.686
 30
0.0
 11
25.84
 21
125.926
 31
0.0
  0
LINE
  5
E1
330
1E
100
AcDbEntity
  8
0
100
AcDbLine
 10
23.71599999999999
 20
128.05
 30
0.0
 11
27.7054270539318
 21
131.0608883425899
 31
0.0
  0
LINE
  5
E2
330
1E
100
AcDbEntity
  8
0
100
AcDbLine
 10
23.71599999999999
 20
128.05
 30
0.0
 11
27.70542705393185
 21
131.06088834259
 31
0.0
  0
LINE
  5
E3
330
1E
100
AcDbEntity
  8
0
100
AcDbLine
 10
25.84
 20
125.926
 30
0.0
 11
30.08
 21
129.126
 31
0.0
  0
LINE
  5
E4
330
1E
100
AcDbEntity
  8
0
100
AcDbLine
 10
26.384
 20
133.3496
 30
0.0
 11
28.116
 21
134.3496
 31
0.0
  0
LINE
  5
E5
330
1E
100
AcDbEntity
  8
0
100
AcDbLine
 10
26.384
 20
133.3496
 30
0.0
 11
27.884
 21
130.7515999999999
 31
0.0
  0
LINE
  5
E6
330
1E
100
AcDbEntity
  8
0
100
AcDbLine
 10
24.8286
 20
28.494
 30
0.0
 11
29.3714
 21
30.918
 31
0.0
  0
LINE
  5
E7
330
1E
100
AcDbEntity
  8
0
100
AcDbLine
 10
24.8286
 20
7.03799999999998
 30
0.0
 11
29.3714
 21
4.613999999999969
 31
0.0
  0
LINE
  5
E8
330
1E
100
AcDbEntity
  8
0
100
AcDbLine
 10
27.6
 20
67.75839999999999
 30
0.0
 11
33.6
 21
69.4555
 31
0.0
  0
LINE
  5
E9
330
1E
100
AcDbEntity
  8
0
100
AcDbLine
 10
29.3714
 20
30.918
 30
0.0
 11
34.5143
 21
32.373
 31
0.0
  0
LINE
  5
EA
330
1E
100
AcDbEntity
  8
0
100
AcDbLine
 10
27.6
 20
33.10999999999999
 30
0.0
 11
33.6
 21
34.80699999999999
 31
0.0
  0
LINE
  5
EB
330
1E
100
AcDbEntity
  8
0
100
AcDbLine
 10
29.3714
 20
4.613999999999969
 30
0.0
 11
34.5143
 21
3.15899999999999
 31
0.0
  0
LINE
  5
EC
330
1E
100
AcDbEntity
  8
0
100
AcDbLine
 10
27.6
 20
2.42199999999999
 30
0.0
 11
33.6
 21
0.7249999999999909
 31
0.0
  0
LINE
  5
ED
330
1E
100
AcDbEntity
  8
0
100
AcDbLine
 10
27.884
 20
130.7515999999999
 30
0.0
 11
29.616
 21
131.7515999999999
 31
0.0
  0
LINE
  5
EE
330
1E
100
AcDbEntity
  8
0
100
AcDbLine
 10
29.43401125703564
 20
132.0668045028142
 30
0.0
 11
34.11199999999999
 21
133.938
 31
0.0
  0
LINE
  5
EF
330
1E
100
AcDbEntity
  8
0
100
AcDbLine
 10
30.08
 20
129.126
 30
0.0
 11
34.88
 21
131.0459999999999
 31
0.0
  0
LINE
  5
F0
330
1E
100
AcDbEntity
  8
0
100
AcDbLine
 10
29.4340112570356
 20
132.066804502814
 30
0.0
 11
34.11199999999999
 21
133.938
 31
0.0
  0
LINE
  5
F1
330
1E
100
AcDbEntity
  8
0
100
AcDbLine
 10
30.272
 20
140.7659999999999
 30
0.0
 11
40.0
 21
140.7659999999999
 31
0.0
  0
LINE
  5
F2
330
1E
100
AcDbEntity
  8
0
100
AcDbLine
 10
30.272
 20
136.7659999999999
 30
0.0
 11
33.184
 21
136.7659999999999
 31
0.0
  0
LINE
  5
F3
330
1E
100
AcDbEntity
  8
0
100
AcDbLine
 10
28.116
 20
134.3496
 30
0.0
 11
29.616
 21
131.7515999999999
 31
0.0
  0
LINE
  5
F4
330
1E
100
AcDbEntity
  8
0
100
AcDbLine
 10
27.10399999999999
 20
134.3339999999999
 30
0.0
 11
33.344
 21
136.83
 31
0.0
  0
LINE
  5
F5
330
1E
100
AcDbEntity
  8
0
100
AcDbLine
 10
27.10399999999999
 20
69.0793
 30
0.0
 11
33.344
 21
70.84430000000001
 31
0.0
  0
LINE
  5
F6
330
1E
100
AcDbEntity
  8
0
100
AcDbLine
 10
27.10399999999999
 20
68.37220000000001
 30
0.0
 11
33.344
 21
70.13720000000001
 31
0.0
  0
LINE
  5
F7
330
1E
100
AcDbEntity
  8
0
100
AcDbLine
 10
26.608
 20
150.766
 30
0.0
 11
33.088
 21
150.766
 31
0.0
  0
LINE
  5
F8
330
1E
100
AcDbEntity
  8
0
100
AcDbLine
 10
22.64
 20
152.766
 30
0.0
 11
31.04
 21
152.766
 31
0.0
  0
LINE
  5
F9
330
1E
100
AcDbEntity
  8
0
100
AcDbLine
 10
31.04
 20
152.766
 30
0.0
 11
40.0
 21
152.766
 31
0.0
  0
LINE
  5
FA
330
1E
100
AcDbEntity
  8
0
100
AcDbLine
 10
22.64
 20
150.766
 30
0.0
 11
31.04
 21
150.766
 31
0.0
  0
LINE
  5
FB
330
1E
100
AcDbEntity
  8
0
100
AcDbLine
 10
40.0
 20
0.0879999999999899
 30
0.0
 11
46.39999999999999
 21
0.72499999999999
 31
0.0
  0
LINE
  5
FC
330
1E
100
AcDbEntity
  8
0
100
AcDbLine
 10
40.0
 20
0.08799999999999
 30
0.0
 11
46.39999999999999
 21
0.72499999999999
 31
0.0
  0
LINE
  5
FD
330
1E
100
AcDbEntity
  8
0
100
AcDbLine
 10
40.0
 20
2.61399999999997
 30
0.0
 11
45.4857
 21
3.15899999999999
 31
0.0
  0
LINE
  5
FE
330
1E
100
AcDbEntity
  8
0
100
AcDbLine
 10
33.6
 20
69.4555
 30
0.0
 11
40.0
 21
70.0919
 31
0.0
  0
LINE
  5
FF
330
1E
100
AcDbEntity
  8
0
100
AcDbLine
 10
40.0
 20
32.918
 30
0.0
 11
45.4857
 21
32.373
 31
0.0
  0
LINE
  5
100
330
1E
100
AcDbEntity
  8
0
100
AcDbLine
 10
40.0
 20
70.0919
 30
0.0
 11
46.39999999999999
 21
69.4555
 31
0.0
  0
LINE
  5
101
330
1E
100
AcDbEntity
  8
0
100
AcDbLine
 10
40.0
 20
35.444
 30
0.0
 11
46.39999999999999
 21
34.80699999999999
 31
0.0
  0
LINE
  5
102
330
1E
100
AcDbEntity
  8
0
100
AcDbLine
 10
34.5143
 20
32.373
 30
0.0
 11
40.0
 21
32.918
 31
0.0
  0
LINE
  5
103
330
1E
100
AcDbEntity
  8
0
100
AcDbLine
 10
33.6
 20
34.80699999999999
 30
0.0
 11
40.0
 21
35.444
 31
0.0
  0
LINE
  5
104
330
1E
100
AcDbEntity
  8
0
100
AcDbLine
 10
34.5143
 20
3.15899999999999
 30
0.0
 11
40.0
 21
2.61399999999997
 31
0.0
  0
LINE
  5
105
330
1E
100
AcDbEntity
  8
0
100
AcDbLine
 10
33.6
 20
0.7249999999999909
 30
0.0
 11
40.0
 21
0.08799999999999
 31
0.0
  0
LINE
  5
106
330
1E
100
AcDbEntity
  8
0
100
AcDbLine
 10
33.6
 20
0.7249999999999909
 30
0.0
 11
40.0
 21
0.0879999999999899
 31
0.0
  0
LINE
  5
107
330
1E
100
AcDbEntity
  8
0
100
AcDbLine
 10
34.88
 20
131.0459999999999
 30
0.0
 11
40.0
 21
131.7659999999999
 31
0.0
  0
LINE
  5
108
330
1E
100
AcDbEntity
  8
0
100
AcDbLine
 10
34.11199999999999
 20
133.938
 30
0.0
 11
40.0
 21
134.7659999999999
 31
0.0
  0
LINE
  5
109
330
1E
100
AcDbEntity
  8
0
100
AcDbLine
 10
33.344
 20
136.83
 30
0.0
 11
40.0
 21
137.7659999999999
 31
0.0
  0
LINE
  5
10A
330
1E
100
AcDbEntity
  8
0
100
AcDbLine
 10
40.0
 20
131.7659999999999
 30
0.0
 11
45.11999999999999
 21
131.0459999999999
 31
0.0
  0
LINE
  5
10B
330
1E
100
AcDbEntity
  8
0
100
AcDbLine
 10
40.0
 20
134.7659999999999
 30
0.0
 11
45.888
 21
133.938
 31
0.0
  0
LINE
  5
10C
330
1E
100
AcDbEntity
  8
0
100
AcDbLine
 10
40.0
 20
140.7659999999999
 30
0.0
 11
49.728
 21
140.7659999999999
 31
0.0
  0
LINE
  5
10D
330
1E
100
AcDbEntity
  8
0
100
AcDbLine
 10
40.0
 20
137.7659999999999
 30
0.0
 11
46.656
 21
136.83
 31
0.0
  0
LINE
  5
10E
330
1E
100
AcDbEntity
  8
0
100
AcDbLine
 10
40.0
 20
71.5061
 30
0.0
 11
46.656
 21
70.84430000000001
 31
0.0
  0
LINE
  5
10F
330
1E
100
AcDbEntity
  8
0
100
AcDbLine
 10
40.0
 20
70.79899999999999
 30
0.0
 11
46.656
 21
70.13720000000001
 31
0.0
  0
LINE
  5
110
330
1E
100
AcDbEntity
  8
0
100
AcDbLine
 10
33.344
 20
70.84430000000001
 30
0.0
 11
40.0
 21
71.5061
 31
0.0
  0
LINE
  5
111
330
1E
100
AcDbEntity
  8
0
100
AcDbLine
 10
33.344
 20
70.13720000000001
 30
0.0
 11
40.0
 21
70.79899999999999
 31
0.0
  0
LINE
  5
112
330
1E
100
AcDbEntity
  8
0
100
AcDbLine
 10
45.4857
 20
3.15899999999999
 30
0.0
 11
50.6286
 21
4.613999999999969
 31
0.0
  0
LINE
  5
113
330
1E
100
AcDbEntity
  8
0
100
AcDbLine
 10
46.39999999999999
 20
0.72499999999999
 30
0.0
 11
52.4
 21
2.42199999999999
 31
0.0
  0
LINE
  5
114
330
1E
100
AcDbEntity
  8
0
100
AcDbLine
 10
45.4857
 20
32.373
 30
0.0
 11
50.6286
 21
30.918
 31
0.0
  0
LINE
  5
115
330
1E
100
AcDbEntity
  8
0
100
AcDbLine
 10
46.39999999999999
 20
69.4555
 30
0.0
 11
52.4
 21
67.75839999999999
 31
0.0
  0
LINE
  5
116
330
1E
100
AcDbEntity
  8
0
100
AcDbLine
 10
46.39999999999999
 20
34.80699999999999
 30
0.0
 11
52.4
 21
33.10999999999999
 31
0.0
  0
LINE
  5
117
330
1E
100
AcDbEntity
  8
0
100
AcDbLine
 10
45.11999999999999
 20
131.0459999999999
 30
0.0
 11
49.92
 21
129.126
 31
0.0
  0
LINE
  5
118
330
1E
100
AcDbEntity
  8
0
100
AcDbLine
 10
45.888
 20
133.938
 30
0.0
 11
50.5659887429643
 21
132.066804502814
 31
0.0
  0
LINE
  5
119
330
1E
100
AcDbEntity
  8
0
100
AcDbLine
 10
45.888
 20
133.938
 30
0.0
 11
50.56598874296434
 21
132.0668045028142
 31
0.0
  0
LINE
  5
11A
330
1E
100
AcDbEntity
  8
0
100
AcDbLine
 10
46.656
 20
70.84430000000001
 30
0.0
 11
52.896
 21
69.0793
 31
0.0
  0
LINE
  5
11B
330
1E
100
AcDbEntity
  8
0
100
AcDbLine
 10
46.816
 20
136.7659999999999
 30
0.0
 11
49.728
 21
136.7659999999999
 31
0.0
  0
LINE
  5
11C
330
1E
100
AcDbEntity
  8
0
100
AcDbLine
 10
46.656
 20
136.83
 30
0.0
 11
52.896
 21
134.3339999999999
 31
0.0
  0
LINE
  5
11D
330
1E
100
AcDbEntity
  8
0
100
AcDbLine
 10
46.656
 20
70.13720000000001
 30
0.0
 11
52.896
 21
68.37220000000001
 31
0.0
  0
LINE
  5
11E
330
1E
100
AcDbEntity
  8
0
100
AcDbLine
 10
46.912
 20
150.766
 30
0.0
 11
53.39199999999999
 21
150.766
 31
0.0
  0
LINE
  5
11F
330
1E
100
AcDbEntity
  8
0
100
AcDbLine
 10
40.0
 20
150.766
 30
0.0
 11
46.912
 21
150.766
 31
0.0
  0
LINE
  5
120
330
1E
100
AcDbEntity
  8
0
100
AcDbLine
 10
40.0
 20
150.766
 30
0.0
 11
48.96
 21
150.766
 31
0.0
  0
LINE
  5
121
330
1E
100
AcDbEntity
  8
0
100
AcDbLine
 10
40.0
 20
152.766
 30
0.0
 11
48.96
 21
152.766
 31
0.0
  0
LINE
  5
122
330
1E
100
AcDbEntity
  8
0
100
AcDbLine
 10
33.088
 20
150.766
 30
0.0
 11
40.0
 21
150.766
 31
0.0
  0
LINE
  5
123
330
1E
100
AcDbEntity
  8
0
100
AcDbLine
 10
31.04
 20
150.766
 30
0.0
 11
40.0
 21
150.766
 31
0.0
  0
LINE
  5
124
330
1E
100
AcDbEntity
  8
0
100
AcDbLine
 10
40.0
 20
153.7659999999999
 30
0.0
 11
48.9
 21
153.7659999999999
 31
0.0
  0
LINE
  5
125
330
1E
100
AcDbEntity
  8
0
100
AcDbLine
 10
50.6286
 20
4.613999999999969
 30
0.0
 11
55.1714
 21
7.03799999999998
 31
0.0
  0
LINE
  5
126
330
1E
100
AcDbEntity
  8
0
100
AcDbLine
 10
52.4
 20
2.42199999999999
 30
0.0
 11
57.7
 21
5.25
 31
0.0
  0
LINE
  5
127
330
1E
100
AcDbEntity
  8
0
100
AcDbLine
 10
50.6286
 20
30.918
 30
0.0
 11
55.1714
 21
28.494
 31
0.0
  0
LINE
  5
128
330
1E
100
AcDbEntity
  8
0
100
AcDbLine
 10
52.4
 20
67.75839999999999
 30
0.0
 11
57.7
 21
64.93000000000001
 31
0.0
  0
LINE
  5
129
330
1E
100
AcDbEntity
  8
0
100
AcDbLine
 10
55.1714
 20
7.03799999999998
 30
0.0
 11
58.6
 21
10.25
 31
0.0
  0
LINE
  5
12A
330
1E
100
AcDbEntity
  8
0
100
AcDbLine
 10
55.1714
 20
28.494
 30
0.0
 11
58.6
 21
25.282
 31
0.0
  0
LINE
  5
12B
330
1E
100
AcDbEntity
  8
0
100
AcDbLine
 10
52.4
 20
33.10999999999999
 30
0.0
 11
57.7
 21
30.282
 31
0.0
  0
LINE
  5
12C
330
1E
100
AcDbEntity
  8
0
100
AcDbLine
 10
49.92
 20
129.126
 30
0.0
 11
54.16
 21
125.926
 31
0.0
  0
LINE
  5
12D
330
1E
100
AcDbEntity
  8
0
100
AcDbLine
 10
52.116
 20
130.7515999999999
 30
0.0
 11
53.61600000000001
 21
133.3496
 31
0.0
  0
LINE
  5
12E
330
1E
100
AcDbEntity
  8
0
100
AcDbLine
 10
50.38399999999999
 20
131.7515999999999
 30
0.0
 11
51.88399999999999
 21
134.3496
 31
0.0
  0
LINE
  5
12F
330
1E
100
AcDbEntity
  8
0
100
AcDbLine
 10
50.38399999999999
 20
131.7515999999999
 30
0.0
 11
52.116
 21
130.7515999999999
 31
0.0
  0
LINE
  5
130
330
1E
100
AcDbEntity
  8
0
100
AcDbLine
 10
52.29457294606817
 20
131.06088834259
 30
0.0
 11
56.284
 21
128.05
 31
0.0
  0
LINE
  5
131
330
1E
100
AcDbEntity
  8
0
100
AcDbLine
 10
52.2945729460681
 20
131.0608883425899
 30
0.0
 11
56.284
 21
128.05
 31
0.0
  0
LINE
  5
132
330
1E
100
AcDbEntity
  8
0
100
AcDbLine
 10
49.728
 20
140.7659999999999
 30
0.0
 11
58.848
 21
140.7659999999999
 31
0.0
  0
LINE
  5
133
330
1E
100
AcDbEntity
  8
0
100
AcDbLine
 10
49.728
 20
136.7659999999999
 30
0.0
 11
58.848
 21
136.7659999999999
 31
0.0
  0
LINE
  5
134
330
1E
100
AcDbEntity
  8
0
100
AcDbLine
 10
51.88399999999999
 20
134.3496
 30
0.0
 11
53.61600000000001
 21
133.3496
 31
0.0
  0
LINE
  5
135
330
1E
100
AcDbEntity
  8
0
100
AcDbLine
 10
52.896
 20
134.3339999999999
 30
0.0
 11
58.408
 21
130.174
 31
0.0
  0
LINE
  5
136
330
1E
100
AcDbEntity
  8
0
100
AcDbLine
 10
54.16
 20
125.926
 30
0.0
 11
57.36
 21
121.686
 31
0.0
  0
LINE
  5
137
330
1E
100
AcDbEntity
  8
0
100
AcDbLine
 10
56.284
 20
128.05
 30
0.0
 11
59.964
 21
123.174
 31
0.0
  0
LINE
  5
138
330
1E
100
AcDbEntity
  8
0
100
AcDbLine
 10
52.896
 20
69.0793
 30
0.0
 11
58.408
 21
66.1378
 31
0.0
  0
LINE
  5
139
330
1E
100
AcDbEntity
  8
0
100
AcDbLine
 10
52.896
 20
68.37220000000001
 30
0.0
 11
58.408
 21
65.4307
 31
0.0
  0
LINE
  5
13A
330
1E
100
AcDbEntity
  8
0
100
AcDbLine
 10
57.7
 20
5.25
 30
0.0
 11
61.7
 21
8.99799999999999
 31
0.0
  0
LINE
  5
13B
330
1E
100
AcDbEntity
  8
0
100
AcDbLine
 10
57.7
 20
64.93000000000001
 30
0.0
 11
61.7
 21
61.1824
 31
0.0
  0
LINE
  5
13C
330
1E
100
AcDbEntity
  8
0
100
AcDbLine
 10
58.6
 20
10.25
 30
0.0
 11
60.6571
 21
13.887
 31
0.0
  0
LINE
  5
13D
330
1E
100
AcDbEntity
  8
0
100
AcDbLine
 10
58.6
 20
25.282
 30
0.0
 11
60.6571
 21
21.64499999999999
 31
0.0
  0
LINE
  5
13E
330
1E
100
AcDbEntity
  8
0
100
AcDbLine
 10
57.7
 20
30.282
 30
0.0
 11
61.7
 21
26.534
 31
0.0
  0
LINE
  5
13F
330
1E
100
AcDbEntity
  8
0
100
AcDbLine
 10
58.408
 20
130.174
 30
0.0
 11
62.56800000000001
 21
124.662
 31
0.0
  0
LINE
  5
140
330
1E
100
AcDbEntity
  8
0
100
AcDbLine
 10
58.848
 20
140.7659999999999
 30
0.0
 11
66.904
 21
140.7659999999999
 31
0.0
  0
LINE
  5
141
330
1E
100
AcDbEntity
  8
0
100
AcDbLine
 10
58.848
 20
136.7659999999999
 30
0.0
 11
66.904
 21
136.7659999999999
 31
0.0
  0
LINE
  5
142
330
1E
100
AcDbEntity
  8
0
100
AcDbLine
 10
58.71592452830189
 20
129.766
 30
0.0
 11
61.7
 21
129.766
 31
0.0
  0
LINE
  5
143
330
1E
100
AcDbEntity
  8
0
100
AcDbLine
 10
58.71592452830189
 20
129.766
 30
0.0
 11
61.24
 21
129.766
 31
0.0
  0
LINE
  5
144
330
1E
100
AcDbEntity
  8
0
100
AcDbLine
 10
58.408
 20
66.1378
 30
0.0
 11
62.56800000000001
 21
62.2402
 31
0.0
  0
LINE
  5
145
330
1E
100
AcDbEntity
  8
0
100
AcDbLine
 10
58.408
 20
65.4307
 30
0.0
 11
62.56800000000001
 21
61.5331
 31
0.0
  0
LINE
  5
146
330
1E
100
AcDbEntity
  8
0
100
AcDbLine
 10
57.36
 20
150.766
 30
0.0
 11
64.78
 21
150.766
 31
0.0
  0
LINE
  5
147
330
1E
100
AcDbEntity
  8
0
100
AcDbLine
 10
48.96
 20
150.766
 30
0.0
 11
57.36
 21
150.766
 31
0.0
  0
LINE
  5
148
330
1E
100
AcDbEntity
  8
0
100
AcDbLine
 10
60.6571
 20
13.887
 30
0.0
 11
61.4286
 21
17.766
 31
0.0
  0
LINE
  5
149
330
1E
100
AcDbEntity
  8
0
100
AcDbLine
 10
61.7
 20
8.99799999999999
 30
0.0
 11
64.1
 21
13.241
 31
0.0
  0
LINE
  5
14A
330
1E
100
AcDbEntity
  8
0
100
AcDbLine
 10
60.6571
 20
21.64499999999999
 30
0.0
 11
61.4286
 21
17.766
 31
0.0
  0
LINE
  5
14B
330
1E
100
AcDbEntity
  8
0
100
AcDbLine
 10
61.7
 20
61.1824
 30
0.0
 11
64.1
 21
56.9397
 31
0.0
  0
LINE
  5
14C
330
1E
100
AcDbEntity
  8
0
100
AcDbLine
 10
61.7
 20
26.534
 30
0.0
 11
64.1
 21
22.291
 31
0.0
  0
LINE
  5
14D
330
1E
100
AcDbEntity
  8
0
100
AcDbLine
 10
60.0
 20
64.6462184615385
 30
0.0
 11
60.0
 21
102.6863
 31
0.0
  0
LINE
  5
14E
330
1E
100
AcDbEntity
  8
0
100
AcDbLine
 10
60.0
 20
64.76600000000001
 30
0.0
 11
62.172
 21
64.76600000000001
 31
0.0
  0
LINE
  5
14F
330
1E
100
AcDbEntity
  8
0
100
AcDbLine
 10
62.172
 20
64.76600000000001
 30
0.0
 11
63.0
 21
64.76600000000001
 31
0.0
  0
LINE
  5
150
330
1E
100
AcDbEntity
  8
0
100
AcDbLine
 10
62.172
 20
78.766
 30
0.0
 11
63.0
 21
78.766
 31
0.0
  0
LINE
  5
151
330
1E
100
AcDbEntity
  8
0
100
AcDbLine
 10
60.0
 20
78.766
 30
0.0
 11
62.56800000000001
 21
78.766
 31
0.0
  0
LINE
  5
152
330
1E
100
AcDbEntity
  8
0
100
AcDbLine
 10
60.0
 20
78.766
 30
0.0
 11
62.172
 21
78.766
 31
0.0
  0
LINE
  5
153
330
1E
100
AcDbEntity
  8
0
100
AcDbLine
 10
60.0
 20
80.766
 30
0.0
 11
62.56800000000001
 21
80.766
 31
0.0
  0
LINE
  5
154
330
1E
100
AcDbEntity
  8
0
100
AcDbLine
 10
62.5
 20
64.76600000000001
 30
0.0
 11
65.5
 21
64.76600000000001
 31
0.0
  0
LINE
  5
155
330
1E
100
AcDbEntity
  8
0
100
AcDbLine
 10
62.56800000000001
 20
78.766
 30
0.0
 11
65.06399999999999
 21
78.766
 31
0.0
  0
LINE
  5
156
330
1E
100
AcDbEntity
  8
0
100
AcDbLine
 10
62.56800000000001
 20
80.766
 30
0.0
 11
65.06399999999999
 21
80.766
 31
0.0
  0
LINE
  5
157
330
1E
100
AcDbEntity
  8
0
100
AcDbLine
 10
62.172
 20
82.766
 30
0.0
 11
63.0
 21
82.766
 31
0.0
  0
LINE
  5
158
330
1E
100
AcDbEntity
  8
0
100
AcDbLine
 10
60.0
 20
82.766
 30
0.0
 11
62.56800000000001
 21
82.766
 31
0.0
  0
LINE
  5
159
330
1E
100
AcDbEntity
  8
0
100
AcDbLine
 10
60.0
 20
82.766
 30
0.0
 11
62.172
 21
82.766
 31
0.0
  0
LINE
  5
15A
330
1E
100
AcDbEntity
  8
0
100
AcDbLine
 10
62.56800000000001
 20
82.766
 30
0.0
 11
65.06399999999999
 21
82.766
 31
0.0
  0
LINE
  5
15B
330
1E
100
AcDbEntity
  8
0
100
AcDbLine
 10
60.0
 20
84.76600000000001
 30
0.0
 11
62.56800000000001
 21
84.76600000000001
 31
0.0
  0
LINE
  5
15C
330
1E
100
AcDbEntity
  8
0
100
AcDbLine
 10
62.56800000000001
 20
84.76600000000001
 30
0.0
 11
65.06399999999999
 21
84.76600000000001
 31
0.0
  0
LINE
  5
15D
330
1E
100
AcDbEntity
  8
0
100
AcDbLine
 10
60.0
 20
111.766
 30
0.0
 11
60.0
 21
110.7096999999999
 31
0.0
  0
LINE
  5
15E
330
1E
100
AcDbEntity
  8
0
100
AcDbLine
 10
59.28
 20
116.886
 30
0.0
 11
60.0
 21
111.766
 31
0.0
  0
LINE
  5
15F
330
1E
100
AcDbEntity
  8
0
100
AcDbLine
 10
60.0
 20
110.7096999999999
 30
0.0
 11
60.0
 21
107.6127999999999
 31
0.0
  0
LINE
  5
160
330
1E
100
AcDbEntity
  8
0
100
AcDbLine
 10
60.0
 20
110.7096999999999
 30
0.0
 11
60.0
 21
111.766
 31
0.0
  0
LINE
  5
161
330
1E
100
AcDbEntity
  8
0
100
AcDbLine
 10
60.0
 20
107.6127999999999
 30
0.0
 11
60.0
 21
110.7096999999999
 31
0.0
  0
LINE
  5
162
330
1E
100
AcDbEntity
  8
0
100
AcDbLine
 10
60.0
 20
107.6127999999999
 30
0.0
 11
60.0
 21
102.6863
 31
0.0
  0
LINE
  5
163
330
1E
100
AcDbEntity
  8
0
100
AcDbLine
 10
60.0
 20
102.6863
 30
0.0
 11
60.0
 21
64.6462184615385
 31
0.0
  0
LINE
  5
164
330
1E
100
AcDbEntity
  8
0
100
AcDbLine
 10
60.0
 20
102.6863
 30
0.0
 11
60.0
 21
107.6127999999999
 31
0.0
  0
LINE
  5
165
330
1E
100
AcDbEntity
  8
0
100
AcDbLine
 10
61.24
 20
129.766
 30
0.0
 11
66.04
 21
129.766
 31
0.0
  0
LINE
  5
166
330
1E
100
AcDbEntity
  8
0
100
AcDbLine
 10
61.7
 20
129.766
 30
0.0
 11
64.1
 21
129.766
 31
0.0
  0
LINE
  5
167
330
1E
100
AcDbEntity
  8
0
100
AcDbLine
 10
59.964
 20
123.174
 30
0.0
 11
62.172
 21
117.6539999999999
 31
0.0
  0
LINE
  5
169
330
1E
100
AcDbEntity
  8
0
100
AcDbLine
 10
62.172
 20
117.6539999999999
 30
0.0
 11
63.0
 21
112.766
 31
0.0
  0
LINE
  5
16A
330
1E
100
AcDbEntity
  8
0
100
AcDbLine
 10
60.0
 20
100.448
 30
0.0
 11
62.172
 21
105.8779999999999
 31
0.0
  0
LINE
  5
16B
330
1E
100
AcDbEntity
  8
0
100
AcDbLine
 10
62.5
 20
112.766
 30
0.0
 11
65.5
 21
112.766
 31
0.0
  0
LINE
  5
16C
330
1E
100
AcDbEntity
  8
0
100
AcDbLine
 10
62.5
 20
112.766
 30
0.0
 11
62.5
 21
110.766
 31
0.0
  0
LINE
  5
16D
330
1E
100
AcDbEntity
  8
0
100
AcDbLine
 10
62.5
 20
110.766
 30
0.0
 11
65.5
 21
110.766
 31
0.0
  0
LINE
  5
16E
330
1E
100
AcDbEntity
  8
0
100
AcDbLine
 10
62.5
 20
110.766
 30
0.0
 11
62.5
 21
112.766
 31
0.0
  0
LINE
  5
170
330
1E
100
AcDbEntity
  8
0
100
AcDbLine
 10
62.172
 20
105.8779999999999
 30
0.0
 11
63.0
 21
110.766
 31
0.0
  0
LINE
  5
171
330
1E
100
AcDbEntity
  8
0
100
AcDbLine
 10
60.0
 20
95.46739999999999
 30
0.0
 11
62.56800000000001
 21
98.87
 31
0.0
  0
LINE
  5
172
330
1E
100
AcDbEntity
  8
0
100
AcDbLine
 10
62.56800000000001
 20
98.87
 30
0.0
 11
65.06399999999999
 21
105.1099999999999
 31
0.0
  0
LINE
  5
173
330
1E
100
AcDbEntity
  8
0
100
AcDbLine
 10
62.56800000000001
 20
62.2402
 30
0.0
 11
65.06399999999999
 21
57.8278
 31
0.0
  0
LINE
  5
174
330
1E
100
AcDbEntity
  8
0
100
AcDbLine
 10
64.1
 20
13.241
 30
0.0
 11
65.0
 21
17.766
 31
0.0
  0
LINE
  5
175
330
1E
100
AcDbEntity
  8
0
100
AcDbLine
 10
63.0
 20
78.766
 30
0.0
 11
65.5
 21
78.766
 31
0.0
  0
LINE
  5
176
330
1E
100
AcDbEntity
  8
0
100
AcDbLine
 10
63.0
 20
82.766
 30
0.0
 11
65.5
 21
82.766
 31
0.0
  0
LINE
  5
177
330
1E
100
AcDbEntity
  8
0
100
AcDbLine
 10
62.859375
 20
110.766
 30
0.0
 11
65.5
 21
110.766
 31
0.0
  0
LINE
  5
178
330
1E
100
AcDbEntity
  8
0
100
AcDbLine
 10
64.1
 20
129.766
 30
0.0
 11
65.0
 21
129.766
 31
0.0
  0
LINE
  5
179
330
1E
100
AcDbEntity
  8
0
100
AcDbLine
 10
62.56800000000001
 20
124.662
 30
0.0
 11
65.06399999999999
 21
118.422
 31
0.0
  0
LINE
  5
17A
330
1E
100
AcDbEntity
  8
0
100
AcDbLine
 10
64.1
 20
56.9397
 30
0.0
 11
65.0
 21
52.4142
 31
0.0
  0
LINE
  5
17B
330
1E
100
AcDbEntity
  8
0
100
AcDbLine
 10
64.1
 20
22.291
 30
0.0
 11
65.0
 21
17.766
 31
0.0
  0
LINE
  5
17C
330
1E
100
AcDbEntity
  8
0
100
AcDbLine
 10
62.56800000000001
 20
61.5331
 30
0.0
 11
65.06399999999999
 21
57.1207
 31
0.0
  0
LINE
  5
17D
330
1E
100
AcDbEntity
  8
0
100
AcDbLine
 10
63.43600000000001
 20
150.766
 30
0.0
 11
66.02800000000001
 21
150.766
 31
0.0
  0
LINE
  5
17E
330
1E
100
AcDbEntity
  8
0
100
AcDbLine
 10
59.116
 20
150.766
 30
0.0
 11
63.43600000000001
 21
150.766
 31
0.0
  0
LINE
  5
17F
330
1E
100
AcDbEntity
  8
0
100
AcDbLine
 10
60.0
 20
152.766
 30
0.0
 11
60.0
 21
153.7659999999999
 31
0.0
  0
LINE
  5
180
330
1E
100
AcDbEntity
  8
0
100
AcDbLine
 10
60.0
 20
153.7659999999999
 30
0.0
 11
60.0
 21
152.766
 31
0.0
  0
LINE
  5
181
330
1E
100
AcDbEntity
  8
0
100
AcDbLine
 10
57.36
 20
152.766
 30
0.0
 11
64.78
 21
152.766
 31
0.0
  0
LINE
  5
182
330
1E
100
AcDbEntity
  8
0
100
AcDbLine
 10
48.96
 20
152.766
 30
0.0
 11
57.36
 21
152.766
 31
0.0
  0
LINE
  5
183
330
1E
100
AcDbEntity
  8
0
100
AcDbLine
 10
53.39199999999999
 20
150.766
 30
0.0
 11
59.116
 21
150.766
 31
0.0
  0
LINE
  5
184
330
1E
100
AcDbEntity
  8
0
100
AcDbLine
 10
48.9
 20
153.7659999999999
 30
0.0
 11
57.4
 21
153.7659999999999
 31
0.0
  0
LINE
  5
185
330
1E
100
AcDbEntity
  8
0
100
AcDbLine
 10
57.4
 20
153.7659999999999
 30
0.0
 11
64.7
 21
153.7659999999999
 31
0.0
  0
LINE
  5
187
330
1E
100
AcDbEntity
  8
0
100
AcDbLine
 10
65.0
 20
31.766
 30
0.0
 11
65.38
 21
31.766
 31
0.0
  0
LINE
  5
188
330
1E
100
AcDbEntity
  8
0
100
AcDbLine
 10
65.0
 20
17.766
 30
0.0
 11
65.0
 21
52.4142
 31
0.0
  0
LINE
  5
189
330
1E
100
AcDbEntity
  8
0
100
AcDbLine
 10
65.38
 20
31.766
 30
0.0
 11
66.35200000000001
 21
31.766
 31
0.0
  0
LINE
  5
18A
330
1E
100
AcDbEntity
  8
0
100
AcDbLine
 10
65.0
 20
17.766
 30
0.0
 11
65.0
 21
52.4142
 31
0.0
  0
LINE
  5
18B
330
1E
100
AcDbEntity
  8
0
100
AcDbLine
 10
65.38
 20
56.766
 30
0.0
 11
66.35200000000001
 21
56.766
 31
0.0
  0
LINE
  5
18C
330
1E
100
AcDbEntity
  8
0
100
AcDbLine
 10
65.27516430468501
 20
56.766
 30
0.0
 11
65.38
 21
56.766
 31
0.0
  0
LINE
  5
18E
330
1E
100
AcDbEntity
  8
0
100
AcDbLine
 10
66.0
 20
53.12129999999999
 30
0.0
 11
66.0
 21
52.4142
 31
0.0
  0
LINE
  5
18F
330
1E
100
AcDbEntity
  8
0
100
AcDbLine
 10
65.06399999999999
 20
47.7077
 30
0.0
 11
66.0
 21
52.4142
 31
0.0
  0
LINE
  5
190
330
1E
100
AcDbEntity
  8
0
100
AcDbLine
 10
65.0
 20
47.59456410256411
 30
0.0
 11
65.06399999999999
 21
47.7077
 31
0.0
  0
LINE
  5
191
330
1E
100
AcDbEntity
  8
0
100
AcDbLine
 10
67.0
 20
55.80449999999999
 30
0.0
 11
67.0
 21
32.728
 31
0.0
  0
LINE
  5
192
330
1E
100
AcDbEntity
  8
0
100
AcDbLine
 10
67.0
 20
32.728
 30
0.0
 11
67.0
 21
55.80449999999999
 31
0.0
  0
LINE
  5
193
330
1E
100
AcDbEntity
  8
0
100
AcDbLine
 10
66.0
 20
52.4142
 30
0.0
 11
66.0
 21
53.12129999999999
 31
0.0
  0
LINE
  5
194
330
1E
100
AcDbEntity
  8
0
100
AcDbLine
 10
65.0
 20
118.582
 30
0.0
 11
65.0
 21
129.766
 31
0.0
  0
LINE
  5
195
330
1E
100
AcDbEntity
  8
0
100
AcDbLine
 10
65.0
 20
84.76600000000001
 30
0.0
 11
65.0
 21
104.95
 31
0.0
  0
LINE
  5
196
330
1E
100
AcDbEntity
  8
0
100
AcDbLine
 10
65.0
 20
104.95
 30
0.0
 11
65.0
 21
84.76600000000001
 31
0.0
  0
LINE
  5
197
330
1E
100
AcDbEntity
  8
0
100
AcDbLine
 10
65.0
 20
129.766
 30
0.0
 11
65.0
 21
118.582
 31
0.0
  0
LINE
  5
198
330
1E
100
AcDbEntity
  8
0
100
AcDbLine
 10
65.0
 20
129.766
 30
0.0
 11
66.04
 21
129.766
 31
0.0
  0
LINE
  5
199
330
1E
100
AcDbEntity
  8
0
100
AcDbLine
 10
65.06399999999999
 20
78.766
 30
0.0
 11
66.0
 21
78.766
 31
0.0
  0
LINE
  5
19A
330
1E
100
AcDbEntity
  8
0
100
AcDbLine
 10
65.06399999999999
 20
80.766
 30
0.0
 11
66.0
 21
80.766
 31
0.0
  0
LINE
  5
19B
330
1E
100
AcDbEntity
  8
0
100
AcDbLine
 10
65.5
 20
64.76600000000001
 30
0.0
 11
65.5
 21
78.766
 31
0.0
  0
LINE
  5
19C
330
1E
100
AcDbEntity
  8
0
100
AcDbLine
 10
65.5
 20
78.766
 30
0.0
 11
66.0
 21
78.766
 31
0.0
  0
LINE
  5
19D
330
1E
100
AcDbEntity
  8
0
100
AcDbLine
 10
65.5
 20
78.766
 30
0.0
 11
65.5
 21
64.76600000000001
 31
0.0
  0
LINE
  5
19E
330
1E
100
AcDbEntity
  8
0
100
AcDbLine
 10
65.5
 20
80.766
 30
0.0
 11
65.5
 21
82.766
 31
0.0
  0
LINE
  5
19F
330
1E
100
AcDbEntity
  8
0
100
AcDbLine
 10
65.06399999999999
 20
82.766
 30
0.0
 11
66.0
 21
82.766
 31
0.0
  0
LINE
  5
1A0
330
1E
100
AcDbEntity
  8
0
100
AcDbLine
 10
65.06399999999999
 20
84.76600000000001
 30
0.0
 11
66.0
 21
84.76600000000001
 31
0.0
  0
LINE
  5
1A1
330
1E
100
AcDbEntity
  8
0
100
AcDbLine
 10
66.0
 20
78.766
 30
0.0
 11
66.0
 21
80.766
 31
0.0
  0
LINE
  5
1A2
330
1E
100
AcDbEntity
  8
0
100
AcDbLine
 10
66.0
 20
80.766
 30
0.0
 11
66.0
 21
78.766
 31
0.0
  0
LINE
  5
1A3
330
1E
100
AcDbEntity
  8
0
100
AcDbLine
 10
66.0
 20
82.766
 30
0.0
 11
66.0
 21
84.76600000000001
 31
0.0
  0
LINE
  5
1A4
330
1E
100
AcDbEntity
  8
0
100
AcDbLine
 10
66.0
 20
84.76600000000001
 30
0.0
 11
66.0
 21
82.766
 31
0.0
  0
LINE
  5
1A5
330
1E
100
AcDbEntity
  8
0
100
AcDbLine
 10
65.5
 20
82.766
 30
0.0
 11
66.0
 21
82.766
 31
0.0
  0
LINE
  5
1A6
330
1E
100
AcDbEntity
  8
0
100
AcDbLine
 10
65.5
 20
82.766
 30
0.0
 11
65.5
 21
80.766
 31
0.0
  0
LINE
  5
1A7
330
1E
100
AcDbEntity
  8
0
100
AcDbLine
 10
66.904
 20
140.7659999999999
 30
0.0
 11
72.98399999999999
 21
140.7659999999999
 31
0.0
  0
LINE
  5
1A8
330
1E
100
AcDbEntity
  8
0
100
AcDbLine
 10
66.904
 20
136.7659999999999
 30
0.0
 11
72.98399999999999
 21
136.7659999999999
 31
0.0
  0
LINE
  5
1A9
330
1E
100
AcDbEntity
  8
0
100
AcDbLine
 10
66.04
 20
129.766
 30
0.0
 11
68.92
 21
129.766
 31
0.0
  0
LINE
  5
1AA
330
1E
100
AcDbEntity
  8
0
100
AcDbLine
 10
65.5
 20
112.766
 30
0.0
 11
65.5
 21
110.766
 31
0.0
  0
LINE
  5
1AB
330
1E
100
AcDbEntity
  8
0
100
AcDbLine
 10
65.5
 20
110.766
 30
0.0
 11
65.5
 21
112.766
 31
0.0
  0
LINE
  5
1AC
330
1E
100
AcDbEntity
  8
0
100
AcDbLine
 10
65.06399999999999
 20
118.422
 30
0.0
 11
66.0
 21
111.766
 31
0.0
  0
LINE
  5
1AD
330
1E
100
AcDbEntity
  8
0
100
AcDbLine
 10
65.06399999999999
 20
105.1099999999999
 30
0.0
 11
66.0
 21
111.766
 31
0.0
  0
LINE
  5
1AE
330
1E
100
AcDbEntity
  8
0
100
AcDbLine
 10
65.06399999999999
 20
57.8278
 30
0.0
 11
66.0
 21
53.12129999999999
 31
0.0
  0
LINE
  5
1AF
330
1E
100
AcDbEntity
  8
0
100
AcDbLine
 10
65.06399999999999
 20
57.1207
 30
0.0
 11
66.0
 21
52.4142
 31
0.0
  0
LINE
  5
1B0
330
1E
100
AcDbEntity
  8
0
100
AcDbLine
 10
67.0
 20
150.766
 30
0.0
 11
67.0
 21
140.7659999999999
 31
0.0
  0
LINE
  5
1B1
330
1E
100
AcDbEntity
  8
0
100
AcDbLine
 10
67.0
 20
150.766
 30
0.0
 11
70.38
 21
150.766
 31
0.0
  0
LINE
  5
1B2
330
1E
100
AcDbEntity
  8
0
100
AcDbLine
 10
64.78
 20
150.766
 30
0.0
 11
70.38
 21
150.766
 31
0.0
  0
LINE
  5
1B3
330
1E
100
AcDbEntity
  8
0
100
AcDbLine
 10
72.98399999999999
 20
136.7659999999999
 30
0.0
 11
76.632
 21
136.7659999999999
 31
0.0
  0
LINE
  5
1B4
330
1E
100
AcDbEntity
  8
0
100
AcDbLine
 10
70.0
 20
129.766
 30
0.0
 11
70.0
 21
136.7659999999999
 31
0.0
  0
LINE
  5
1B5
330
1E
100
AcDbEntity
  8
0
100
AcDbLine
 10
72.98399999999999
 20
140.7659999999999
 30
0.0
 11
76.632
 21
140.7659999999999
 31
0.0
  0
LINE
  5
1B6
330
1E
100
AcDbEntity
  8
0
100
AcDbLine
 10
70.0
 20
136.7659999999999
 30
0.0
 11
70.0
 21
129.766
 31
0.0
  0
LINE
  5
1B7
330
1E
100
AcDbEntity
  8
0
100
AcDbLine
 10
70.0
 20
136.7659999999999
 30
0.0
 11
72.98399999999999
 21
136.7659999999999
 31
0.0
  0
LINE
  5
1B8
330
1E
100
AcDbEntity
  8
0
100
AcDbLine
 10
68.92
 20
129.766
 30
0.0
 11
70.0
 21
129.766
 31
0.0
  0
LINE
  5
1B9
330
1E
100
AcDbEntity
  8
0
100
AcDbLine
 10
70.38
 20
150.766
 30
0.0
 11
73.73999999999999
 21
150.766
 31
0.0
  0
LINE
  5
1BA
330
1E
100
AcDbEntity
  8
0
100
AcDbLine
 10
67.0
 20
140.7659999999999
 30
0.0
 11
67.0
 21
150.766
 31
0.0
  0
LINE
  5
1BB
330
1E
100
AcDbEntity
  8
0
100
AcDbLine
 10
70.38
 20
152.766
 30
0.0
 11
73.73999999999999
 21
152.766
 31
0.0
  0
LINE
  5
1BC
330
1E
100
AcDbEntity
  8
0
100
AcDbLine
 10
64.78
 20
152.766
 30
0.0
 11
70.38
 21
152.766
 31
0.0
  0
LINE
  5
1BD
330
1E
100
AcDbEntity
  8
0
100
AcDbLine
 10
66.02800000000001
 20
150.766
 30
0.0
 11
67.0
 21
150.766
 31
0.0
  0
LINE
  5
1BE
330
1E
100
AcDbEntity
  8
0
100
AcDbLine
 10
64.7
 20
153.7659999999999
 30
0.0
 11
70.3
 21
153.7659999999999
 31
0.0
  0
LINE
  5
1BF
330
1E
100
AcDbEntity
  8
0
100
AcDbLine
 10
70.3
 20
153.7659999999999
 30
0.0
 11
73.7
 21
153.7659999999999
 31
0.0
  0
LINE
  5
1C0
330
1E
100
AcDbEntity
  8
0
100
AcDbLine
 10
73.73999999999999
 20
150.766
 30
0.0
 11
75.0
 21
150.766
 31
0.0
  0
LINE
  5
1C1
330
1E
100
AcDbEntity
  8
0
100
AcDbLine
 10
76.632
 20
140.7659999999999
 30
0.0
 11
78.0
 21
140.7659999999999
 31
0.0
  0
LINE
  5
1C2
330
1E
100
AcDbEntity
  8
0
100
AcDbLine
 10
78.0
 20
140.7659999999999
 30
0.0
 11
78.0
 21
136.7659999999999
 31
0.0
  0
LINE
  5
1C3
330
1E
100
AcDbEntity
  8
0
100
AcDbLine
 10
78.0
 20
136.7659999999999
 30
0.0
 11
78.0
 21
140.7659999999999
 31
0.0
  0
LINE
  5
1C4
330
1E
100
AcDbEntity
  8
0
100
AcDbLine
 10
76.632
 20
136.7659999999999
 30
0.0
 11
78.0
 21
136.7659999999999
 31
0.0
  0
LINE
  5
1C5
330
1E
100
AcDbEntity
  8
0
100
AcDbLine
 10
75.0
 20
152.766
 30
0.0
 11
75.0
 21
150.766
 31
0.0
  0
LINE
  5
1C6
330
1E
100
AcDbEntity
  8
0
100
AcDbLine
 10
75.0
 20
150.766
 30
0.0
 11
75.0
 21
152.766
 31
0.0
  0
LINE
  5
1C7
330
1E
100
AcDbEntity
  8
0
100
AcDbLine
 10
73.73999999999999
 20
152.766
 30
0.0
 11
75.0
 21
152.766
 31
0.0
  0
LINE
  5
1C8
330
1E
100
AcDbEntity
  8
0
100
AcDbLine
 10
75.0
 20
153.7659999999999
 30
0.0
 11
75.0
 21
154.766
 31
0.0
  0
LINE
  5
1C9
330
1E
100
AcDbEntity
  8
0
100
AcDbLine
 10
73.7
 20
153.7659999999999
 30
0.0
 11
75.0
 21
153.7659999999999
 31
0.0
  0
LINE
  5
1CA
330
1E
100
AcDbEntity
  8
0
100
AcDbLine
 10
31.1
 20
153.7659999999999
 30
0.0
 11
40.0
 21
153.7659999999999
 31
0.0
  0
LINE
  5
1CB
330
1E
100
AcDbEntity
  8
0
100
AcDbLine
 10
22.6
 20
153.7659999999999
 30
0.0
 11
31.1
 21
153.7659999999999
 31
0.0
  0
LINE
  5
1CC
330
1E
100
AcDbEntity
  8
0
100
AcDbLine
 10
15.3
 20
153.7659999999999
 30
0.0
 11
22.6
 21
153.7659999999999
 31
0.0
  0
LINE
  5
1CD
330
1E
100
AcDbEntity
  8
0
100
AcDbLine
 10
9.69999999999997
 20
153.7659999999999
 30
0.0
 11
15.3
 21
153.7659999999999
 31
0.0
  0
LINE
  5
1CE
330
1E
100
AcDbEntity
  8
0
100
AcDbLine
 10
5.27999999999999
 20
558.6519999999999
 30
0.0
 11
11.67999999999999
 21
550.3009999999999
 31
0.0
  0
LINE
  5
1CF
330
1E
100
AcDbEntity
  8
0
100
AcDbLine
 10
5.27999999999999
 20
559.346
 30
0.0
 11
11.67999999999999
 21
550.9949999999999
 31
0.0
  0
LINE
  5
1D0
330
1E
100
AcDbEntity
  8
0
100
AcDbLine
 10
6.2
 20
566.056
 30
0.0
 11
12.5
 21
558.079
 31
0.0
  0
LINE
  5
1D1
330
1E
100
AcDbEntity
  8
0
100
AcDbLine
 10
5.4
 20
565.39
 30
0.0
 11
11.8
 21
557.216
 31
0.0
  0
LINE
  5
1D2
330
1E
100
AcDbEntity
  8
0
100
AcDbLine
 10
5.4
 20
561.83
 30
0.0
 11
11.8
 21
553.6559999999999
 31
0.0
  0
LINE
  5
1D3
330
1E
100
AcDbEntity
  8
0
100
AcDbLine
 10
6.2
 20
604.2659999999999
 30
0.0
 11
12.5
 21
612.243
 31
0.0
  0
LINE
  5
1D4
330
1E
100
AcDbEntity
  8
0
100
AcDbLine
 10
5.4
 20
604.585
 30
0.0
 11
11.8
 21
612.759
 31
0.0
  0
LINE
  5
1D5
330
1E
100
AcDbEntity
  8
0
100
AcDbLine
 10
40.0
 20
154.766
 30
0.0
 11
48.9
 21
154.766
 31
0.0
  0
LINE
  5
1D6
330
1E
100
AcDbEntity
  8
0
100
AcDbLine
 10
48.9
 20
154.766
 30
0.0
 11
57.4
 21
154.766
 31
0.0
  0
LINE
  5
1D7
330
1E
100
AcDbEntity
  8
0
100
AcDbLine
 10
57.4
 20
154.766
 30
0.0
 11
64.7
 21
154.766
 31
0.0
  0
LINE
  5
1D8
330
1E
100
AcDbEntity
  8
0
100
AcDbLine
 10
64.7
 20
154.766
 30
0.0
 11
70.3
 21
154.766
 31
0.0
  0
LINE
  5
1D9
330
1E
100
AcDbEntity
  8
0
100
AcDbLine
 10
75.0
 20
154.766
 30
0.0
 11
75.0
 21
153.7659999999999
 31
0.0
  0
LINE
  5
1DA
330
1E
100
AcDbEntity
  8
0
100
AcDbLine
 10
70.3
 20
154.766
 30
0.0
 11
73.7
 21
154.766
 31
0.0
  0
LINE
  5
1DB
330
1E
100
AcDbEntity
  8
0
100
AcDbLine
 10
73.7
 20
154.766
 30
0.0
 11
75.0
 21
154.766
 31
0.0
  0
LINE
  5
1DC
330
1E
100
AcDbEntity
  8
0
100
AcDbLine
 10
31.1
 20
154.766
 30
0.0
 11
40.0
 21
154.766
 31
0.0
  0
LINE
  5
1DD
330
1E
100
AcDbEntity
  8
0
100
AcDbLine
 10
22.6
 20
154.766
 30
0.0
 11
31.1
 21
154.766
 31
0.0
  0
LINE
  5
1DE
330
1E
100
AcDbEntity
  8
0
100
AcDbLine
 10
15.3
 20
154.766
 30
0.0
 11
22.6
 21
154.766
 31
0.0
  0
LINE
  5
1DF
330
1E
100
AcDbEntity
  8
0
100
AcDbLine
 10
11.67999999999999
 20
550.3009999999999
 30
0.0
 11
20.16
 21
543.998
 31
0.0
  0
LINE
  5
1E0
330
1E
100
AcDbEntity
  8
0
100
AcDbLine
 10
11.67999999999999
 20
550.9949999999999
 30
0.0
 11
20.16
 21
544.692
 31
0.0
  0
LINE
  5
1E1
330
1E
100
AcDbEntity
  8
0
100
AcDbLine
 10
12.5
 20
558.079
 30
0.0
 11
20.6
 21
551.874
 31
0.0
  0
LINE
  5
1E2
330
1E
100
AcDbEntity
  8
0
100
AcDbLine
 10
11.8
 20
557.216
 30
0.0
 11
20.1
 21
550.9129999999999
 31
0.0
  0
LINE
  5
1E3
330
1E
100
AcDbEntity
  8
0
100
AcDbLine
 10
11.8
 20
553.6559999999999
 30
0.0
 11
20.1
 21
547.3530000000001
 31
0.0
  0
LINE
  5
1E4
330
1E
100
AcDbEntity
  8
0
100
AcDbLine
 10
12.5792506120634
 20
553.0642389629109
 30
0.0
 11
13.09599999999999
 21
552.39
 31
0.0
  0
LINE
  5
1E5
330
1E
100
AcDbEntity
  8
0
100
AcDbLine
 10
13.09599999999999
 20
552.39
 30
0.0
 11
21.15199999999999
 21
546.4019999999999
 31
0.0
  0
LINE
  5
1E6
330
1E
100
AcDbEntity
  8
0
100
AcDbLine
 10
12.5
 20
612.243
 30
0.0
 11
20.6
 21
618.447
 31
0.0
  0
LINE
  5
1E7
330
1E
100
AcDbEntity
  8
0
100
AcDbLine
 10
11.8
 20
612.759
 30
0.0
 11
20.1
 21
619.062
 31
0.0
  0
LINE
  5
1E8
330
1E
100
AcDbEntity
  8
0
100
AcDbLine
 10
20.0
 20
155.919846153846
 30
0.0
 11
20.0
 21
170.6008999999999
 31
0.0
  0
LINE
  5
1E9
330
1E
100
AcDbEntity
  8
0
100
AcDbLine
 10
40.0
 20
156.2659999999999
 30
0.0
 11
42.8
 21
156.2659999999999
 31
0.0
  0
LINE
  5
1EA
330
1E
100
AcDbEntity
  8
0
100
AcDbLine
 10
42.8
 20
156.2659999999999
 30
0.0
 11
45.49999999999999
 21
156.2659999999999
 31
0.0
  0
LINE
  5
1EB
330
1E
100
AcDbEntity
  8
0
100
AcDbLine
 10
45.49999999999999
 20
156.2659999999999
 30
0.0
 11
47.8
 21
156.2659999999999
 31
0.0
  0
LINE
  5
1EC
330
1E
100
AcDbEntity
  8
0
100
AcDbLine
 10
47.8
 20
156.2659999999999
 30
0.0
 11
49.5
 21
156.2659999999999
 31
0.0
  0
LINE
  5
1ED
330
1E
100
AcDbEntity
  8
0
100
AcDbLine
 10
49.5
 20
156.2659999999999
 30
0.0
 11
50.6
 21
156.2659999999999
 31
0.0
  0
LINE
  5
1EE
330
1E
100
AcDbEntity
  8
0
100
AcDbLine
 10
60.0
 20
155.919846153846
 30
0.0
 11
60.0
 21
170.6008999999999
 31
0.0
  0
LINE
  5
1EF
330
1E
100
AcDbEntity
  8
0
100
AcDbLine
 10
51.0
 20
156.2659999999999
 30
0.0
 11
64.0
 21
155.766
 31
0.0
  0
LINE
  5
1F0
330
1E
100
AcDbEntity
  8
0
100
AcDbLine
 10
50.6
 20
156.2659999999999
 30
0.0
 11
51.0
 21
156.2659999999999
 31
0.0
  0
LINE
  5
1F1
330
1E
100
AcDbEntity
  8
0
100
AcDbLine
 10
64.0
 20
155.766
 30
0.0
 11
75.0
 21
154.766
 31
0.0
  0
LINE
  5
1F2
330
1E
100
AcDbEntity
  8
0
100
AcDbLine
 10
37.2
 20
156.2659999999999
 30
0.0
 11
40.0
 21
156.2659999999999
 31
0.0
  0
LINE
  5
1F3
330
1E
100
AcDbEntity
  8
0
100
AcDbLine
 10
34.5
 20
156.2659999999999
 30
0.0
 11
37.2
 21
156.2659999999999
 31
0.0
  0
LINE
  5
1F4
330
1E
100
AcDbEntity
  8
0
100
AcDbLine
 10
32.2
 20
156.2659999999999
 30
0.0
 11
34.5
 21
156.2659999999999
 31
0.0
  0
LINE
  5
1F5
330
1E
100
AcDbEntity
  8
0
100
AcDbLine
 10
30.5
 20
156.2659999999999
 30
0.0
 11
32.2
 21
156.2659999999999
 31
0.0
  0
LINE
  5
1F6
330
1E
100
AcDbEntity
  8
0
100
AcDbLine
 10
29.39999999999999
 20
156.2659999999999
 30
0.0
 11
30.5
 21
156.2659999999999
 31
0.0
  0
LINE
  5
1F7
330
1E
100
AcDbEntity
  8
0
100
AcDbLine
 10
20.0
 20
170.6008999999999
 30
0.0
 11
20.0
 21
155.919846153846
 31
0.0
  0
LINE
  5
1F9
330
1E
100
AcDbEntity
  8
0
100
AcDbLine
 10
20.0
 20
170.6008999999999
 30
0.0
 11
20.0
 21
544.116924528302
 31
0.0
  0
LINE
  5
1FB
330
1E
100
AcDbEntity
  8
0
100
AcDbLine
 10
20.1
 20
550.9129999999999
 30
0.0
 11
29.7
 21
546.974
 31
0.0
  0
LINE
  5
1FC
330
1E
100
AcDbEntity
  8
0
100
AcDbLine
 10
20.1
 20
547.3530000000001
 30
0.0
 11
29.7
 21
543.414
 31
0.0
  0
LINE
  5
1FD
330
1E
100
AcDbEntity
  8
0
100
AcDbLine
 10
20.16
 20
543.998
 30
0.0
 11
29.76
 21
540.216
 31
0.0
  0
LINE
  5
1FE
330
1E
100
AcDbEntity
  8
0
100
AcDbLine
 10
20.16
 20
544.692
 30
0.0
 11
29.76
 21
540.9109999999999
 31
0.0
  0
LINE
  5
1FF
330
1E
100
AcDbEntity
  8
0
100
AcDbLine
 10
20.6
 20
551.874
 30
0.0
 11
30.0
 21
548.1319999999999
 31
0.0
  0
LINE
  5
212
330
1E
100
AcDbEntity
  8
0
100
AcDbLine
 10
29.76
 20
540.216
 30
0.0
 11
34.88
 21
539.5069999999999
 31
0.0
  0
LINE
  5
213
330
1E
100
AcDbEntity
  8
0
100
AcDbLine
 10
29.76
 20
540.9109999999999
 30
0.0
 11
40.0
 21
539.493
 31
0.0
  0
LINE
  5
21A
330
1E
100
AcDbEntity
  8
0
100
AcDbLine
 10
50.24
 20
540.216
 30
0.0
 11
59.84
 21
543.998
 31
0.0
  0
LINE
  5
21B
330
1E
100
AcDbEntity
  8
0
100
AcDbLine
 10
45.7084862005987
 20
539.588491546138
 30
0.0
 11
50.24
 21
540.216
 31
0.0
  0
LINE
  5
21C
330
1E
100
AcDbEntity
  8
0
100
AcDbLine
 10
40.0
 20
541.462
 30
0.0
 11
49.728
 21
542.809
 31
0.0
  0
LINE
  5
21D
330
1E
100
AcDbEntity
  8
0
100
AcDbLine
 10
50.24
 20
540.9109999999999
 30
0.0
 11
59.84
 21
544.692
 31
0.0
  0
LINE
  5
21E
330
1E
100
AcDbEntity
  8
0
100
AcDbLine
 10
40.0
 20
539.493
 30
0.0
 11
50.24
 21
540.9109999999999
 31
0.0
  0
LINE
  5
21F
330
1E
100
AcDbEntity
  8
0
100
AcDbLine
 10
30.272
 20
542.809
 30
0.0
 11
40.0
 21
541.462
 31
0.0
  0
LINE
  5
220
330
1E
100
AcDbEntity
  8
0
100
AcDbLine
 10
49.728
 20
542.809
 30
0.0
 11
58.848
 21
546.4019999999999
 31
0.0
  0
LINE
  5
221
330
1E
100
AcDbEntity
  8
0
100
AcDbLine
 10
40.0
 20
542.035
 30
0.0
 11
50.3
 21
543.414
 31
0.0
  0
LINE
  5
228
330
1E
100
AcDbEntity
  8
0
100
AcDbLine
 10
60.0
 20
170.6008999999999
 30
0.0
 11
60.0
 21
155.919846153846
 31
0.0
  0
LINE
  5
22B
330
1E
100
AcDbEntity
  8
0
100
AcDbLine
 10
60.0
 20
170.6008999999999
 30
0.0
 11
60.0
 21
544.116924528302
 31
0.0
  0
LINE
  5
22C
330
1E
100
AcDbEntity
  8
0
100
AcDbLine
 10
50.3
 20
543.414
 30
0.0
 11
59.9
 21
547.3530000000001
 31
0.0
  0
LINE
  5
22D
330
1E
100
AcDbEntity
  8
0
100
AcDbLine
 10
21.15199999999999
 20
546.4019999999999
 30
0.0
 11
30.272
 21
542.809
 31
0.0
  0
LINE
  5
22E
330
1E
100
AcDbEntity
  8
0
100
AcDbLine
 10
40.0
 20
546.753
 30
0.0
 11
50.0
 21
548.1319999999999
 31
0.0
  0
LINE
  5
22F
330
1E
100
AcDbEntity
  8
0
100
AcDbLine
 10
59.84
 20
543.998
 30
0.0
 11
68.31999999999999
 21
550.3009999999999
 31
0.0
  0
LINE
  5
230
330
1E
100
AcDbEntity
  8
0
100
AcDbLine
 10
58.848
 20
546.4019999999999
 30
0.0
 11
66.904
 21
552.39
 31
0.0
  0
LINE
  5
231
330
1E
100
AcDbEntity
  8
0
100
AcDbLine
 10
59.84
 20
544.692
 30
0.0
 11
68.31999999999999
 21
550.9949999999999
 31
0.0
  0
LINE
  5
232
330
1E
100
AcDbEntity
  8
0
100
AcDbLine
 10
40.0
 20
545.595
 30
0.0
 11
50.3
 21
546.974
 31
0.0
  0
LINE
  5
233
330
1E
100
AcDbEntity
  8
0
100
AcDbLine
 10
50.0
 20
548.1319999999999
 30
0.0
 11
59.4
 21
551.874
 31
0.0
  0
LINE
  5
234
330
1E
100
AcDbEntity
  8
0
100
AcDbLine
 10
50.3
 20
546.974
 30
0.0
 11
59.9
 21
550.9129999999999
 31
0.0
  0
LINE
  5
235
330
1E
100
AcDbEntity
  8
0
100
AcDbLine
 10
59.9
 20
547.3530000000001
 30
0.0
 11
68.2
 21
553.6559999999999
 31
0.0
  0
LINE
  5
236
330
1E
100
AcDbEntity
  8
0
100
AcDbLine
 10
59.4
 20
551.874
 30
0.0
 11
67.5
 21
558.079
 31
0.0
  0
LINE
  5
237
330
1E
100
AcDbEntity
  8
0
100
AcDbLine
 10
68.31999999999999
 20
550.3009999999999
 30
0.0
 11
74.72
 21
558.6519999999999
 31
0.0
  0
LINE
  5
238
330
1E
100
AcDbEntity
  8
0
100
AcDbLine
 10
66.904
 20
552.39
 30
0.0
 11
67.4207493879366
 21
553.0642389629109
 31
0.0
  0
LINE
  5
239
330
1E
100
AcDbEntity
  8
0
100
AcDbLine
 10
68.31999999999999
 20
550.9949999999999
 30
0.0
 11
74.72
 21
559.346
 31
0.0
  0
LINE
  5
23A
330
1E
100
AcDbEntity
  8
0
100
AcDbLine
 10
59.9
 20
550.9129999999999
 30
0.0
 11
68.2
 21
557.216
 31
0.0
  0
LINE
  5
23B
330
1E
100
AcDbEntity
  8
0
100
AcDbLine
 10
67.5
 20
558.079
 30
0.0
 11
73.79999999999999
 21
566.056
 31
0.0
  0
LINE
  5
23C
330
1E
100
AcDbEntity
  8
0
100
AcDbLine
 10
73.79999999999999
 20
566.056
 30
0.0
 11
77.59999999999999
 21
575.3129999999999
 31
0.0
  0
LINE
  5
23D
330
1E
100
AcDbEntity
  8
0
100
AcDbLine
 10
68.2
 20
557.216
 30
0.0
 11
74.59999999999999
 21
565.39
 31
0.0
  0
LINE
  5
23E
330
1E
100
AcDbEntity
  8
0
100
AcDbLine
 10
74.59999999999999
 20
565.39
 30
0.0
 11
78.59999999999999
 21
574.844
 31
0.0
  0
LINE
  5
23F
330
1E
100
AcDbEntity
  8
0
100
AcDbLine
 10
68.2
 20
553.6559999999999
 30
0.0
 11
74.59999999999999
 21
561.83
 31
0.0
  0
LINE
  5
240
330
1E
100
AcDbEntity
  8
0
100
AcDbLine
 10
74.72
 20
558.6519999999999
 30
0.0
 11
78.56
 21
568.106
 31
0.0
  0
LINE
  5
241
330
1E
100
AcDbEntity
  8
0
100
AcDbLine
 10
74.72
 20
559.346
 30
0.0
 11
78.56
 21
568.7999999999999
 31
0.0
  0
LINE
  5
242
330
1E
100
AcDbEntity
  8
0
100
AcDbLine
 10
77.59999999999999
 20
575.3129999999999
 30
0.0
 11
79.0
 21
585.1609999999999
 31
0.0
  0
LINE
  5
243
330
1E
100
AcDbEntity
  8
0
100
AcDbLine
 10
74.59999999999999
 20
561.83
 30
0.0
 11
78.59999999999999
 21
571.2839999999999
 31
0.0
  0
LINE
  5
244
330
1E
100
AcDbEntity
  8
0
100
AcDbLine
 10
30.0
 20
548.1319999999999
 30
0.0
 11
40.0
 21
546.753
 31
0.0
  0
LINE
  5
245
330
1E
100
AcDbEntity
  8
0
100
AcDbLine
 10
29.7
 20
546.974
 30
0.0
 11
40.0
 21
545.595
 31
0.0
  0
LINE
  5
246
330
1E
100
AcDbEntity
  8
0
100
AcDbLine
 10
29.7
 20
543.414
 30
0.0
 11
40.0
 21
542.035
 31
0.0
  0
LINE
  5
247
330
1E
100
AcDbEntity
  8
0
100
AcDbLine
 10
78.56
 20
568.106
 30
0.0
 11
80.0
 21
578.19
 31
0.0
  0
LINE
  5
248
330
1E
100
AcDbEntity
  8
0
100
AcDbLine
 10
78.56
 20
568.7999999999999
 30
0.0
 11
80.0
 21
578.885
 31
0.0
  0
LINE
  5
249
330
1E
100
AcDbEntity
  8
0
100
AcDbLine
 10
80.0
 20
578.19
 30
0.0
 11
80.0
 21
578.885
 31
0.0
  0
LINE
  5
24A
330
1E
100
AcDbEntity
  8
0
100
AcDbLine
 10
80.0
 20
578.885
 30
0.0
 11
80.0
 21
578.19
 31
0.0
  0
LINE
  5
24B
330
1E
100
AcDbEntity
  8
0
100
AcDbLine
 10
79.82152497340291
 20
580.1348209501419
 30
0.0
 11
80.0
 21
578.885
 31
0.0
  0
LINE
  5
24C
330
1E
100
AcDbEntity
  8
0
100
AcDbLine
 10
80.0
 20
581.428
 30
0.0
 11
80.0
 21
584.987
 31
0.0
  0
LINE
  5
24D
330
1E
100
AcDbEntity
  8
0
100
AcDbLine
 10
78.59999999999999
 20
574.844
 30
0.0
 11
80.0
 21
584.987
 31
0.0
  0
LINE
  5
24E
330
1E
100
AcDbEntity
  8
0
100
AcDbLine
 10
78.59999999999999
 20
571.2839999999999
 30
0.0
 11
80.0
 21
581.428
 31
0.0
  0
LINE
  5
24F
330
1E
100
AcDbEntity
  8
0
100
AcDbLine
 10
77.59999999999999
 20
595.009
 30
0.0
 11
79.0
 21
585.1609999999999
 31
0.0
  0
LINE
  5
250
330
1E
100
AcDbEntity
  8
0
100
AcDbLine
 10
67.5
 20
612.243
 30
0.0
 11
73.79999999999999
 21
604.2659999999999
 31
0.0
  0
LINE
  5
251
330
1E
100
AcDbEntity
  8
0
100
AcDbLine
 10
73.79999999999999
 20
604.2659999999999
 30
0.0
 11
77.59999999999999
 21
595.009
 31
0.0
  0
LINE
  5
252
330
1E
100
AcDbEntity
  8
0
100
AcDbLine
 10
50.0
 20
622.19
 30
0.0
 11
59.4
 21
618.447
 31
0.0
  0
LINE
  5
253
330
1E
100
AcDbEntity
  8
0
100
AcDbLine
 10
59.4
 20
618.447
 30
0.0
 11
67.5
 21
612.243
 31
0.0
  0
LINE
  5
254
330
1E
100
AcDbEntity
  8
0
100
AcDbLine
 10
59.9
 20
619.062
 30
0.0
 11
68.2
 21
612.759
 31
0.0
  0
LINE
  5
255
330
1E
100
AcDbEntity
  8
0
100
AcDbLine
 10
68.2
 20
612.759
 30
0.0
 11
74.59999999999999
 21
604.585
 31
0.0
  0
LINE
  5
256
330
1E
100
AcDbEntity
  8
0
100
AcDbLine
 10
74.59999999999999
 20
604.585
 30
0.0
 11
78.59999999999999
 21
595.1309999999999
 31
0.0
  0
LINE
  5
257
330
1E
100
AcDbEntity
  8
0
100
AcDbLine
 10
78.59999999999999
 20
595.1309999999999
 30
0.0
 11
80.0
 21
584.987
 31
0.0
  0
LINE
  5
258
330
1E
100
AcDbEntity
  8
0
100
AcDbLine
 10
80.0
 20
584.987
 30
0.0
 11
80.0
 21
581.428
 31
0.0
  0
LINE
  5
259
330
1E
100
AcDbEntity
  8
0
100
AcDbLine
 10
34.0
 20
622.7412000000001
 30
0.0
 11
34.0
 21
634.0790000000001
 31
0.0
  0
LINE
  5
25A
330
1E
100
AcDbEntity
  8
0
100
AcDbLine
 10
46.0
 20
622.7412000000001
 30
0.0
 11
50.0
 21
622.19
 31
0.0
  0
LINE
  5
25B
330
1E
100
AcDbEntity
  8
0
100
AcDbLine
 10
46.0
 20
622.7412000000001
 30
0.0
 11
46.0
 21
634.0790000000001
 31
0.0
  0
LINE
  5
25C
330
1E
100
AcDbEntity
  8
0
100
AcDbLine
 10
50.3
 20
623.001
 30
0.0
 11
59.9
 21
619.062
 31
0.0
  0
LINE
  5
25D
330
1E
100
AcDbEntity
  8
0
100
AcDbLine
 10
30.0
 20
622.19
 30
0.0
 11
34.0
 21
622.7412000000001
 31
0.0
  0
LINE
  5
25E
330
1E
100
AcDbEntity
  8
0
100
AcDbLine
 10
20.6
 20
618.447
 30
0.0
 11
30.0
 21
622.19
 31
0.0
  0
LINE
  5
25F
330
1E
100
AcDbEntity
  8
0
100
AcDbLine
 10
40.0
 20
633.556
 30
0.0
 11
41.545
 21
633.575
 31
0.0
  0
LINE
  5
260
330
1E
100
AcDbEntity
  8
0
100
AcDbLine
 10
41.545
 20
633.575
 30
0.0
 11
42.98499999999999
 21
633.6269999999999
 31
0.0
  0
LINE
  5
261
330
1E
100
AcDbEntity
  8
0
100
AcDbLine
 10
42.98499999999999
 20
633.6269999999999
 30
0.0
 11
44.23
 21
633.711
 31
0.0
  0
LINE
  5
262
330
1E
100
AcDbEntity
  8
0
100
AcDbLine
 10
38.45499999999999
 20
633.575
 30
0.0
 11
40.0
 21
633.556
 31
0.0
  0
LINE
  5
265
330
1E
100
AcDbEntity
  8
0
100
AcDbLine
 10
44.23
 20
633.711
 30
0.0
 11
45.19
 21
633.8189999999999
 31
0.0
  0
LINE
  5
266
330
1E
100
AcDbEntity
  8
0
100
AcDbLine
 10
45.19
 20
633.8189999999999
 30
0.0
 11
45.78999999999999
 21
633.945
 31
0.0
  0
LINE
  5
268
330
1E
100
AcDbEntity
  8
0
100
AcDbLine
 10
37.015
 20
633.6269999999999
 30
0.0
 11
38.45499999999999
 21
633.575
 31
0.0
  0
LINE
  5
269
330
1E
100
AcDbEntity
  8
0
100
AcDbLine
 10
35.77
 20
633.711
 30
0.0
 11
37.015
 21
633.6269999999999
 31
0.0
  0
LINE
  5
26C
330
1E
100
AcDbEntity
  8
0
100
AcDbLine
 10
45.78999999999999
 20
633.945
 30
0.0
 11
46.0
 21
634.0790000000001
 31
0.0
  0
LINE
  5
26F
330
1E
100
AcDbEntity
  8
0
100
AcDbLine
 10
34.81
 20
633.8189999999999
 30
0.0
 11
35.77
 21
633.711
 31
0.0
  0
LINE
  5
270
330
1E
100
AcDbEntity
  8
0
100
AcDbLine
 10
34.21
 20
633.945
 30
0.0
 11
34.81
 21
633.8189999999999
 31
0.0
  0
LINE
  5
272
330
1E
100
AcDbEntity
  8
0
100
AcDbLine
 10
45.84999999999999
 20
634.221
 30
0.0
 11
46.0
 21
634.0790000000001
 31
0.0
  0
LINE
  5
273
330
1E
100
AcDbEntity
  8
0
100
AcDbLine
 10
46.0
 20
634.0790000000001
 30
0.0
 11
46.0
 21
622.7412000000001
 31
0.0
  0
LINE
  5
274
330
1E
100
AcDbEntity
  8
0
100
AcDbLine
 10
34.0
 20
634.0790000000001
 30
0.0
 11
34.15
 21
634.221
 31
0.0
  0
LINE
  5
275
330
1E
100
AcDbEntity
  8
0
100
AcDbLine
 10
34.0
 20
634.0790000000001
 30
0.0
 11
34.0
 21
622.7412000000001
 31
0.0
  0
LINE
  5
276
330
1E
100
AcDbEntity
  8
0
100
AcDbLine
 10
34.0
 20
634.0790000000001
 30
0.0
 11
34.21
 21
633.945
 31
0.0
  0
LINE
  5
277
330
1E
100
AcDbEntity
  8
0
100
AcDbLine
 10
45.07
 20
634.474
 30
0.0
 11
45.64
 21
634.3519999999999
 31
0.0
  0
LINE
  5
278
330
1E
100
AcDbEntity
  8
0
100
AcDbLine
 10
45.64
 20
634.3519999999999
 30
0.0
 11
45.84999999999999
 21
634.221
 31
0.0
  0
LINE
  5
279
330
1E
100
AcDbEntity
  8
0
100
AcDbLine
 10
42.85
 20
634.7519999999999
 30
0.0
 11
43.50999999999999
 21
634.6789999999999
 31
0.0
  0
LINE
  5
27A
330
1E
100
AcDbEntity
  8
0
100
AcDbLine
 10
43.50999999999999
 20
634.6789999999999
 30
0.0
 11
45.07
 21
634.474
 31
0.0
  0
LINE
  5
27C
330
1E
100
AcDbEntity
  8
0
100
AcDbLine
 10
41.12499999999999
 20
634.886
 30
0.0
 11
41.59
 21
634.855
 31
0.0
  0
LINE
  5
27D
330
1E
100
AcDbEntity
  8
0
100
AcDbLine
 10
41.59
 20
634.855
 30
0.0
 11
42.85
 21
634.7519999999999
 31
0.0
  0
LINE
  5
27E
330
1E
100
AcDbEntity
  8
0
100
AcDbLine
 10
40.0
 20
634.9119999999999
 30
0.0
 11
40.585
 21
634.9059999999999
 31
0.0
  0
LINE
  5
27F
330
1E
100
AcDbEntity
  8
0
100
AcDbLine
 10
40.585
 20
634.9059999999999
 30
0.0
 11
41.12499999999999
 21
634.886
 31
0.0
  0
LINE
  5
280
330
1E
100
AcDbEntity
  8
0
100
AcDbLine
 10
39.41499999999999
 20
634.9059999999999
 30
0.0
 11
40.0
 21
634.9119999999999
 31
0.0
  0
LINE
  5
281
330
1E
100
AcDbEntity
  8
0
100
AcDbLine
 10
38.875
 20
634.886
 30
0.0
 11
39.41499999999999
 21
634.9059999999999
 31
0.0
  0
LINE
  5
282
330
1E
100
AcDbEntity
  8
0
100
AcDbLine
 10
38.40999999999999
 20
634.855
 30
0.0
 11
38.875
 21
634.886
 31
0.0
  0
LINE
  5
283
330
1E
100
AcDbEntity
  8
0
100
AcDbLine
 10
37.14999999999999
 20
634.7519999999999
 30
0.0
 11
38.40999999999999
 21
634.855
 31
0.0
  0
LINE
  5
284
330
1E
100
AcDbEntity
  8
0
100
AcDbLine
 10
36.49
 20
634.6789999999999
 30
0.0
 11
37.14999999999999
 21
634.7519999999999
 31
0.0
  0
LINE
  5
286
330
1E
100
AcDbEntity
  8
0
100
AcDbLine
 10
34.93
 20
634.474
 30
0.0
 11
36.49
 21
634.6789999999999
 31
0.0
  0
LINE
  5
287
330
1E
100
AcDbEntity
  8
0
100
AcDbLine
 10
34.35999999999999
 20
634.3519999999999
 30
0.0
 11
34.93
 21
634.474
 31
0.0
  0
LINE
  5
288
330
1E
100
AcDbEntity
  8
0
100
AcDbLine
 10
34.15
 20
634.221
 30
0.0
 11
34.35999999999999
 21
634.3519999999999
 31
0.0
  0
LINE
  5
289
330
1E
100
AcDbEntity
  8
0
100
AcDbLine
 10
46.0
 20
623.5766990291259
 30
0.0
 11
50.3
 21
623.001
 31
0.0
  0
LINE
  5
28A
330
1E
100
AcDbEntity
  8
0
100
AcDbLine
 10
29.7
 20
623.001
 30
0.0
 11
34.0
 21
623.5766990291259
 31
0.0
  0
LINE
  5
28B
330
1E
100
AcDbEntity
  8
0
100
AcDbLine
 10
20.1
 20
619.062
 30
0.0
 11
29.7
 21
623.001
 31
0.0
  0
LINE
  5
28C
330
1E
100
AcDbEntity
  8
0
100
AcDbLine
 10
29.0
 20
156.2659999999999
 30
0.0
 11
29.39999999999999
 21
156.2659999999999
 31
0.0
  0
LINE
  5
28D
330
1E
100
AcDbEntity
  8
0
100
AcDbLine
 10
16.0
 20
155.766
 30
0.0
 11
29.0
 21
156.2659999999999
 31
0.0
  0
LINE
  5
28E
330
1E
100
AcDbEntity
  8
0
100
AcDbLine
 10
9.69999999999997
 20
154.766
 30
0.0
 11
15.3
 21
154.766
 31
0.0
  0
LINE
  5
28F
330
1E
100
AcDbEntity
  8
0
100
AcDbLine
 10
6.29999999999997
 20
154.766
 30
0.0
 11
9.69999999999997
 21
154.766
 31
0.0
  0
LINE
  5
290
330
1E
100
AcDbEntity
  8
0
100
AcDbLine
 10
6.29999999999997
 20
153.7659999999999
 30
0.0
 11
9.69999999999997
 21
153.7659999999999
 31
0.0
  0
LINE
  5
291
330
1E
100
AcDbEntity
  8
0
100
AcDbLine
 10
4.999999999999969
 20
153.7659999999999
 30
0.0
 11
6.29999999999997
 21
153.7659999999999
 31
0.0
  0
LINE
  5
292
330
1E
100
AcDbEntity
  8
0
100
AcDbLine
 10
4.999999999999969
 20
153.7659999999999
 30
0.0
 11
4.999999999999969
 21
154.766
 31
0.0
  0
LINE
  5
297
330
1E
100
AcDbEntity
  8
0
100
AcDbLine
 10
34.88
 20
539.5069999999999
 30
0.0
 11
39.89531769142877
 21
539.0510136446082
 31
0.0
  0
LINE
  5
298
330
1E
100
AcDbEntity
  8
0
100
AcDbLine
 10
39.89531769142877
 20
539.0510136446082
 30
0.0
 11
45.7084862005987
 21
539.588491546138
 31
0.0
  0
LINE
  5
299
330
1E
100
AcDbEntity
  8
0
100
AcDbLine
 10
20.72
 20
116.886
 30
0.0
 11
22.64
 21
121.686
 31
0.0
  0
LINE
  5
29A
330
1E
100
AcDbEntity
  8
0
100
AcDbLine
 10
57.36
 20
121.686
 30
0.0
 11
59.28
 21
116.886
 31
0.0
  0
LINE
  5
29B
330
1E
100
AcDbEntity
  8
0
100
AcDbLine
 10
66.35200000000001
 20
31.766
 30
0.0
 11
67.0
 21
32.728
 31
0.0
  0
LINE
  5
29C
330
1E
100
AcDbEntity
  8
0
100
AcDbLine
 10
66.35200000000001
 20
56.766
 30
0.0
 11
67.0
 21
55.80449999999999
 31
0.0
  0
ENDSEC
  0
SECTION
  2
OBJECTS
  0
DICTIONARY
  5
C
330
0
100
AcDbDictionary
281
     1
  3
ACAD_GROUP
350
D
  3
ACAD_LAYOUT
350
19
  3
ACAD_MLINESTYLE
350
16
  3
ACAD_PLOTSETTINGS
350
18
  3
ACAD_PLOTSTYLENAME
350
E
  3
AcDbVariableDictionary
350
29D
  0
DICTIONARY
  5
D
102
{ACAD_REACTORS
330
C
102
}
330
C
100
AcDbDictionary
281
     1
  0
DICTIONARY
  5
19
102
{ACAD_REACTORS
330
C
102
}
330
C
100
AcDbDictionary
281
     1
  3
Layout1
350
1D
  3
Model
350
21
  0
DICTIONARY
  5
16
102
{ACAD_REACTORS
330
C
102
}
330
C
100
AcDbDictionary
281
     1
  3
Standard
350
17
  0
DICTIONARY
  5
18
102
{ACAD_REACTORS
330
C
102
}
330
C
100
AcDbDictionary
281
     1
  0
ACDBDICTIONARYWDFLT
  5
E
102
{ACAD_REACTORS
330
C
102
}
330
C
100
AcDbDictionary
281
     1
  3
Normal
350
F
100
AcDbDictionaryWithDefault
340
F
  0
DICTIONARY
  5
29D
102
{ACAD_REACTORS
330
C
102
}
330
C
100
AcDbDictionary
281
     1
  3
DIMASSOC
350
29E
  0
LAYOUT
  5
1D
102
{ACAD_REACTORS
330
19
102
}
330
19
100
AcDbPlotSettings
  1

  2
hp deskjet 980c series
  4

  6

 40
0.0
 41
0.0
 42
0.0
 43
0.0
 44
0.0
 45
0.0
 46
0.0
 47
0.0
 48
0.0
 49
0.0
140
0.0
141
0.0
142
1.0
143
1.0
 70
   688
 72
     0
 73
     0
 74
     5
  7

 75
    16
147
1.0
148
0.0
149
0.0
100
AcDbLayout
  1
Layout1
 70
     1
 71
     1
 10
0.0
 20
0.0
 11
12.0
 21
9.0
 12
0.0
 22
0.0
 32
0.0
 14
1.000000000000000E+20
 24
1.000000000000000E+20
 34
1.000000000000000E+20
 15
-1.000000000000000E+20
 25
-1.000000000000000E+20
 35
-1.000000000000000E+20
146
0.0
 13
0.0
 23
0.0
 33
0.0
 16
1.0
 26
0.0
 36
0.0
 17
0.0
 27
1.0
 37
0.0
 76
     0
330
1A
  0
LAYOUT
  5
21
102
{ACAD_REACTORS
330
19
102
}
330
19
100
AcDbPlotSettings
  1

  2
hp deskjet 980c series
  4

  6

 40
0.0
 41
0.0
 42
0.0
 43
0.0
 44
0.0
 45
0.0
 46
0.0
 47
0.0
 48
0.0
 49
0.0
140
0.0
141
0.0
142
1.0
143
1.0
 70
  1712
 72
     0
 73
     0
 74
     0
  7

 75
     0
147
1.0
148
0.0
149
0.0
100
AcDbLayout
  1
Model
 70
     1
 71
     0
 10
0.0
 20
0.0
 11
12.0
 21
9.0
 12
0.0
 22
0.0
 32
0.0
 14
0.0
 24
0.0
 34
0.0
 15
0.0
 25
0.0
 35
0.0
146
0.0
 13
0.0
 23
0.0
 33
0.0
 16
1.0
 26
0.0
 36
0.0
 17
0.0
 27
1.0
 37
0.0
 76
     0
330
1E
  0
MLINESTYLE
  5
17
102
{ACAD_REACTORS
330
16
102
}
330
16
100
AcDbMlineStyle
  2
STANDARD
 70
     0
  3

 62
   256
 51
90.0
 52
90.0
 71
     2
 49
0.5
 62
   256
  6
BYLAYER
 49
-0.5
 62
   256
  6
BYLAYER
  0
ACDBPLACEHOLDER
  5
F
102
{ACAD_REACTORS
330
E
102
}
330
E
  0
DICTIONARYVAR
  5
29E
102
{ACAD_REACTORS
330
29D
102
}
330
29D
100
DictionaryVariables
280
     0
  1
1
  0
ENDSEC
  0
EOF
