  0
SECTION
  2
HEADER
  9
$ACADVER
  1
AC1014
  9
$ACADMAINTVER
 70
     9
  9
$DWGCODEPAGE
  3
ANSI_1252
  9
$INSBASE
 10
0.0
 20
0.0
 30
0.0
  9
$EXTMIN
 10
0.0479999999999894
 20
-0.000000000000016
 30
0.0
  9
$EXTMAX
 10
92.95200000000001
 20
265.0
 30
0.0
  9
$LIMMIN
 10
0.0
 20
0.0
  9
$LIMMAX
 10
12.0
 20
9.0
  9
$ORTHOMODE
 70
     0
  9
$REGENMODE
 70
     1
  9
$FILLMODE
 70
     1
  9
$QTEXTMODE
 70
     0
  9
$MIRRTEXT
 70
     1
  9
$DRAGMODE
 70
     2
  9
$LTSCALE
 40
1.0
  9
$OSMODE
 70
    37
  9
$ATTMODE
 70
     1
  9
$TEXTSIZE
 40
0.2
  9
$TRACEWID
 40
0.05
  9
$TEXTSTYLE
  7
STANDARD
  9
$CLAYER
  8
0
  9
$CELTYPE
  6
CONTINUOUS
  9
$CECOLOR
 62
   256
  9
$CELTSCALE
 40
1.0
  9
$DELOBJ
 70
     1
  9
$DISPSILH
 70
     0
  9
$DIMSCALE
 40
1.0
  9
$DIMASZ
 40
0.18
  9
$DIMEXO
 40
0.0625
  9
$DIMDLI
 40
0.38
  9
$DIMRND
 40
0.0
  9
$DIMDLE
 40
0.0
  9
$DIMEXE
 40
0.18
  9
$DIMTP
 40
0.0
  9
$DIMTM
 40
0.0
  9
$DIMTXT
 40
0.18
  9
$DIMCEN
 40
0.09
  9
$DIMTSZ
 40
0.0
  9
$DIMTOL
 70
     0
  9
$DIMLIM
 70
     0
  9
$DIMTIH
 70
     1
  9
$DIMTOH
 70
     1
  9
$DIMSE1
 70
     0
  9
$DIMSE2
 70
     0
  9
$DIMTAD
 70
     0
  9
$DIMZIN
 70
     0
  9
$DIMBLK
  1

  9
$DIMASO
 70
     1
  9
$DIMSHO
 70
     1
  9
$DIMPOST
  1

  9
$DIMAPOST
  1

  9
$DIMALT
 70
     0
  9
$DIMALTD
 70
     2
  9
$DIMALTF
 40
25.4
  9
$DIMLFAC
 40
1.0
  9
$DIMTOFL
 70
     0
  9
$DIMTVP
 40
0.0
  9
$DIMTIX
 70
     0
  9
$DIMSOXD
 70
     0
  9
$DIMSAH
 70
     0
  9
$DIMBLK1
  1

  9
$DIMBLK2
  1

  9
$DIMSTYLE
  2
STANDARD
  9
$DIMCLRD
 70
     0
  9
$DIMCLRE
 70
     0
  9
$DIMCLRT
 70
     0
  9
$DIMTFAC
 40
1.0
  9
$DIMGAP
 40
0.09
  9
$DIMJUST
 70
     0
  9
$DIMSD1
 70
     0
  9
$DIMSD2
 70
     0
  9
$DIMTOLJ
 70
     1
  9
$DIMTZIN
 70
     0
  9
$DIMALTZ
 70
     0
  9
$DIMALTTZ
 70
     0
  9
$DIMFIT
 70
     3
  9
$DIMUPT
 70
     0
  9
$DIMUNIT
 70
     2
  9
$DIMDEC
 70
     4
  9
$DIMTDEC
 70
     4
  9
$DIMALTU
 70
     2
  9
$DIMALTTD
 70
     2
  9
$DIMTXSTY
  7
STANDARD
  9
$DIMAUNIT
 70
     0
  9
$LUNITS
 70
     2
  9
$LUPREC
 70
     4
  9
$SKETCHINC
 40
0.1
  9
$FILLETRAD
 40
0.0
  9
$AUNITS
 70
     0
  9
$AUPREC
 70
     0
  9
$MENU
  1
.
  9
$ELEVATION
 40
0.0
  9
$PELEVATION
 40
0.0
  9
$THICKNESS
 40
0.0
  9
$LIMCHECK
 70
     0
  9
$BLIPMODE
 70
     0
  9
$CHAMFERA
 40
0.0
  9
$CHAMFERB
 40
0.0
  9
$CHAMFERC
 40
0.0
  9
$CHAMFERD
 40
0.0
  9
$SKPOLY
 70
     0
  9
$TDCREATE
 40
2455233.481506979
  9
$TDUPDATE
 40
2455233.484412245
  9
$TDINDWG
 40
0.0029054514
  9
$TDUSRTIMER
 40
0.0029054514
  9
$USRTIMER
 70
     1
  9
$ANGBASE
 50
0.0
  9
$ANGDIR
 70
     0
  9
$PDMODE
 70
     0
  9
$PDSIZE
 40
0.0
  9
$PLINEWID
 40
0.0
  9
$COORDS
 70
     1
  9
$SPLFRAME
 70
     0
  9
$SPLINETYPE
 70
     6
  9
$SPLINESEGS
 70
     8
  9
$ATTDIA
 70
     0
  9
$ATTREQ
 70
     1
  9
$HANDLING
 70
 22529
  9
$HANDSEED
  5
1C2
  9
$SURFTAB1
 70
     6
  9
$SURFTAB2
 70
     6
  9
$SURFTYPE
 70
     6
  9
$SURFU
 70
     6
  9
$SURFV
 70
     6
  9
$UCSNAME
  2

  9
$UCSORG
 10
0.0
 20
0.0
 30
0.0
  9
$UCSXDIR
 10
1.0
 20
0.0
 30
0.0
  9
$UCSYDIR
 10
0.0
 20
1.0
 30
0.0
  9
$PUCSNAME
  2

  9
$PUCSORG
 10
0.0
 20
0.0
 30
0.0
  9
$PUCSXDIR
 10
1.0
 20
0.0
 30
0.0
  9
$PUCSYDIR
 10
0.0
 20
1.0
 30
0.0
  9
$USERI1
 70
     0
  9
$USERI2
 70
     0
  9
$USERI3
 70
     0
  9
$USERI4
 70
     0
  9
$USERI5
 70
     0
  9
$USERR1
 40
0.0
  9
$USERR2
 40
0.0
  9
$USERR3
 40
0.0
  9
$USERR4
 40
0.0
  9
$USERR5
 40
0.0
  9
$WORLDVIEW
 70
     1
  9
$SHADEDGE
 70
     3
  9
$SHADEDIF
 70
    70
  9
$TILEMODE
 70
     1
  9
$MAXACTVP
 70
    64
  9
$PINSBASE
 10
0.0
 20
0.0
 30
0.0
  9
$PLIMCHECK
 70
     0
  9
$PEXTMIN
 10
1.000000000000000E+20
 20
1.000000000000000E+20
 30
1.000000000000000E+20
  9
$PEXTMAX
 10
-1.000000000000000E+20
 20
-1.000000000000000E+20
 30
-1.000000000000000E+20
  9
$PLIMMIN
 10
0.0
 20
0.0
  9
$PLIMMAX
 10
12.0
 20
9.0
  9
$UNITMODE
 70
     0
  9
$VISRETAIN
 70
     1
  9
$PLINEGEN
 70
     0
  9
$PSLTSCALE
 70
     1
  9
$TREEDEPTH
 70
  3020
  9
$PICKSTYLE
 70
     1
  9
$CMLSTYLE
  2
STANDARD
  9
$CMLJUST
 70
     0
  9
$CMLSCALE
 40
1.0
  9
$PROXYGRAPHICS
 70
     1
  9
$MEASUREMENT
 70
     0
  0
ENDSEC
  0
SECTION
  2
CLASSES
  0
CLASS
  1
ACDBDICTIONARYWDFLT
  2
AcDbDictionaryWithDefault
  3
AutoCAD 2000
 90
        0
280
     0
281
     0
  0
CLASS
  1
ACDBPLACEHOLDER
  2
AcDbPlaceHolder
  3
AutoCAD 2000
 90
        0
280
     0
281
     0
  0
CLASS
  1
LAYOUT
  2
AcDbLayout
  3
AutoCAD 2000
 90
        0
280
     0
281
     0
  0
CLASS
  1
DICTIONARYVAR
  2
AcDbDictionaryVar
  3
AutoCAD 2000
 90
        0
280
     0
281
     0
  0
CLASS
  1
LONG_TRANSACTION
  2
AcDbLongTransaction
  3
AutoCAD 2000
 90
        0
280
     0
281
     0
  0
CLASS
  1
LWPOLYLINE
  2
AcDbPolyline
  3
AutoCAD 2000
 90
        0
280
     0
281
     1
  0
CLASS
  1
HATCH
  2
AcDbHatch
  3
AutoCAD 2000
 90
        0
280
     0
281
     1
  0
CLASS
  1
XRECORD
  2
AcDbXrecord
  3
AutoCAD 2000
 90
        0
280
     0
281
     0
  0
ENDSEC
  0
SECTION
  2
TABLES
  0
TABLE
  2
VPORT
  5
8
330
0
100
AcDbSymbolTable
 70
     3
  0
VPORT
  5
19D
330
8
100
AcDbSymbolTableRecord
100
AcDbViewportTableRecord
  2
*ACTIVE
 70
     0
 10
0.0
 20
0.0
 11
1.0
 21
1.0
 12
46.5
 22
132.4999999999999
 13
0.0
 23
0.0
 14
1.0
 24
1.0
 15
0.0
 25
0.0
 16
0.0
 26
0.0
 36
1.0
 17
0.0
 27
0.0
 37
0.0
 40
266.7396061269146
 41
2.041621029572836
 42
50.0
 43
0.0
 44
0.0
 50
0.0
 51
0.0
 71
     0
 72
   100
 73
     1
 74
     3
 75
     0
 76
     0
 77
     0
 78
     0
  0
ENDTAB
  0
TABLE
  2
LTYPE
  5
5
330
0
100
AcDbSymbolTable
 70
     1
  0
LTYPE
  5
13
330
5
100
AcDbSymbolTableRecord
100
AcDbLinetypeTableRecord
  2
BYBLOCK
 70
     0
  3

 72
    65
 73
     0
 40
0.0
  0
LTYPE
  5
14
330
5
100
AcDbSymbolTableRecord
100
AcDbLinetypeTableRecord
  2
BYLAYER
 70
     0
  3

 72
    65
 73
     0
 40
0.0
  0
LTYPE
  5
15
330
5
100
AcDbSymbolTableRecord
100
AcDbLinetypeTableRecord
  2
CONTINUOUS
 70
     0
  3
Solid line
 72
    65
 73
     0
 40
0.0
  0
ENDTAB
  0
TABLE
  2
LAYER
  5
2
330
0
100
AcDbSymbolTable
 70
     1
  0
LAYER
  5
10
330
2
100
AcDbSymbolTableRecord
100
AcDbLayerTableRecord
  2
0
 70
     0
 62
     7
  6
CONTINUOUS
  0
ENDTAB
  0
TABLE
  2
STYLE
  5
3
330
0
100
AcDbSymbolTable
 70
     1
  0
STYLE
  5
11
330
3
100
AcDbSymbolTableRecord
100
AcDbTextStyleTableRecord
  2
STANDARD
 70
     0
 40
0.0
 41
1.0
 50
0.0
 71
     0
 42
0.2
  3
txt
  4

  0
ENDTAB
  0
TABLE
  2
VIEW
  5
6
330
0
100
AcDbSymbolTable
 70
     0
  0
ENDTAB
  0
TABLE
  2
UCS
  5
7
330
0
100
AcDbSymbolTable
 70
     0
  0
ENDTAB
  0
TABLE
  2
APPID
  5
9
330
0
100
AcDbSymbolTable
 70
     1
  0
APPID
  5
12
330
9
100
AcDbSymbolTableRecord
100
AcDbRegAppTableRecord
  2
ACAD
 70
     0
  0
ENDTAB
  0
TABLE
  2
DIMSTYLE
  5
A
330
0
100
AcDbSymbolTable
 70
     1
  0
DIMSTYLE
105
18F
330
A
100
AcDbSymbolTableRecord
100
AcDbDimStyleTableRecord
  2
STANDARD
 70
     0
  3

  4

  5

  6

  7

 40
1.0
 41
0.18
 42
0.0625
 43
0.38
 44
0.18
 45
0.0
 46
0.0
 47
0.0
 48
0.0
140
0.18
141
0.09
142
0.0
143
25.4
144
1.0
145
0.0
146
1.0
147
0.09
 71
     0
 72
     0
 73
     1
 74
     1
 75
     0
 76
     0
 77
     0
 78
     0
170
     0
171
     2
172
     0
173
     0
174
     0
175
     0
176
     0
177
     0
178
     0
270
     2
271
     4
272
     4
273
     2
274
     2
340
11
275
     0
280
     0
281
     0
282
     0
283
     1
284
     0
285
     0
286
     0
287
     3
288
     0
  0
ENDTAB
  0
TABLE
  2
BLOCK_RECORD
  5
1
330
0
100
AcDbSymbolTable
 70
     0
  0
BLOCK_RECORD
  5
1E
102
{ACAD_XDICTIONARY
360
1C0
102
}
330
1
100
AcDbSymbolTableRecord
100
AcDbBlockTableRecord
  2
*MODEL_SPACE
  0
BLOCK_RECORD
  5
1A
102
{ACAD_XDICTIONARY
360
1BE
102
}
330
1
100
AcDbSymbolTableRecord
100
AcDbBlockTableRecord
  2
*PAPER_SPACE
  0
ENDTAB
  0
ENDSEC
  0
SECTION
  2
BLOCKS
  0
BLOCK
  5
1F
330
1E
100
AcDbEntity
  8
0
100
AcDbBlockBegin
  2
*MODEL_SPACE
 70
     0
 10
0.0
 20
0.0
 30
0.0
  3
*MODEL_SPACE
  1

  0
ENDBLK
  5
20
330
1E
100
AcDbEntity
  8
0
100
AcDbBlockEnd
  0
BLOCK
  5
1B
330
1A
100
AcDbEntity
 67
     1
  8
0
100
AcDbBlockBegin
  2
*PAPER_SPACE
 70
     0
 10
0.0
 20
0.0
 30
0.0
  3
*PAPER_SPACE
  1

  0
ENDBLK
  5
1C
330
1A
100
AcDbEntity
 67
     1
  8
0
100
AcDbBlockEnd
  0
ENDSEC
  0
SECTION
  2
ENTITIES
  0
LINE
  5
22
330
1E
100
AcDbEntity
  8
0
100
AcDbLine
 10
0.0479999999999894
 20
48.55769999999999
 30
0.0
 11
0.0479999999999894
 21
-0.0000000000000147
 31
0.0
  0
LINE
  5
23
330
1E
100
AcDbEntity
  8
0
100
AcDbLine
 10
0.0479999999999894
 20
48.55769999999999
 30
0.0
 11
0.4450589999999891
 21
49.5192
 31
0.0
  0
LINE
  5
24
330
1E
100
AcDbEntity
  8
0
100
AcDbLine
 10
1.00094099999999
 20
-0.0000000000000148
 30
0.0
 11
3.70093999999999
 21
-0.0000000000000152
 31
0.0
  0
LINE
  5
25
330
1E
100
AcDbEntity
  8
0
100
AcDbLine
 10
1.397999999999989
 20
49.5192
 30
0.0
 11
4.01858999999999
 21
49.5192
 31
0.0
  0
LINE
  5
26
330
1E
100
AcDbEntity
  8
0
100
AcDbLine
 10
0.4450589999999891
 20
49.5192
 30
0.0
 11
1.397999999999989
 21
49.5192
 31
0.0
  0
LINE
  5
27
330
1E
100
AcDbEntity
  8
0
100
AcDbLine
 10
0.4450589999999891
 20
49.5192
 30
0.0
 11
1.239179999999989
 21
50.0
 31
0.0
  0
LINE
  5
28
330
1E
100
AcDbEntity
  8
0
100
AcDbLine
 10
1.00094099999999
 20
-0.000000000000014
 30
0.0
 11
3.70093999999999
 21
-0.0000000000000136
 31
0.0
  0
LINE
  5
29
330
1E
100
AcDbEntity
  8
0
100
AcDbLine
 10
0.0479999999999894
 20
-0.0000000000000144
 30
0.0
 11
1.00094099999999
 21
-0.000000000000014
 31
0.0
  0
LINE
  5
2A
330
1E
100
AcDbEntity
  8
0
100
AcDbLine
 10
0.0479999999999894
 20
-0.0000000000000144
 30
0.0
 11
1.00094099999999
 21
-0.0000000000000148
 31
0.0
  0
LINE
  5
2B
330
1E
100
AcDbEntity
  8
0
100
AcDbLine
 10
0.0479999999999894
 20
-0.0000000000000144
 30
0.0
 11
0.0479999999999894
 21
48.55769999999999
 31
0.0
  0
LINE
  5
2C
330
1E
100
AcDbEntity
  8
0
100
AcDbLine
 10
1.547999999999989
 20
248.6779999999999
 30
0.0
 11
5.02529999999999
 21
262.88
 31
0.0
  0
LINE
  5
2D
330
1E
100
AcDbEntity
  8
0
100
AcDbLine
 10
1.547999999999989
 20
248.6779999999999
 30
0.0
 11
1.737319999999989
 21
242.052
 31
0.0
  0
LINE
  5
2F
330
1E
100
AcDbEntity
  8
0
100
AcDbLine
 10
1.547999999999989
 20
50.0
 30
0.0
 11
1.547999999999989
 21
207.4
 31
0.0
  0
LINE
  5
30
330
1E
100
AcDbEntity
  8
0
100
AcDbLine
 10
3.70093999999999
 20
-0.0000000000000152
 30
0.0
 11
7.98917999999999
 21
-0.0000000000000156
 31
0.0
  0
LINE
  5
31
330
1E
100
AcDbEntity
  8
0
100
AcDbLine
 10
1.239179999999989
 20
50.0
 30
0.0
 11
8.78328999999999
 21
50.0
 31
0.0
  0
LINE
  5
32
330
1E
100
AcDbEntity
  8
0
100
AcDbLine
 10
4.01858999999999
 20
49.5192
 30
0.0
 11
8.22740999999999
 21
49.5192
 31
0.0
  0
LINE
  5
33
330
1E
100
AcDbEntity
  8
0
100
AcDbLine
 10
3.70093999999999
 20
-0.0000000000000136
 30
0.0
 11
7.98917999999999
 21
-0.0000000000000132
 31
0.0
  0
LINE
  5
34
330
1E
100
AcDbEntity
  8
0
100
AcDbLine
 10
7.98917999999999
 20
-0.0000000000000156
 30
0.0
 11
13.6274
 21
-0.0000000000000158
 31
0.0
  0
LINE
  5
35
330
1E
100
AcDbEntity
  8
0
100
AcDbLine
 10
8.78328999999999
 20
50.0
 30
0.0
 11
14.1833
 21
50.0
 31
0.0
  0
LINE
  5
36
330
1E
100
AcDbEntity
  8
0
100
AcDbLine
 10
8.22740999999999
 20
49.5192
 30
0.0
 11
13.78619999999999
 21
49.5192
 31
0.0
  0
LINE
  5
37
330
1E
100
AcDbEntity
  8
0
100
AcDbLine
 10
7.98917999999999
 20
-0.0000000000000132
 30
0.0
 11
13.6274
 21
-0.000000000000013
 31
0.0
  0
LINE
  5
38
330
1E
100
AcDbEntity
  8
0
100
AcDbLine
 10
13.048
 20
173.13
 30
0.0
 11
13.048
 21
183.9209999999999
 31
0.0
  0
LINE
  5
39
330
1E
100
AcDbEntity
  8
0
100
AcDbLine
 10
13.6274
 20
-0.0000000000000158
 30
0.0
 11
20.1392
 21
-0.000000000000016
 31
0.0
  0
LINE
  5
3A
330
1E
100
AcDbEntity
  8
0
100
AcDbLine
 10
20.1392
 20
-0.000000000000016
 30
0.0
 11
27.048
 21
-0.000000000000016
 31
0.0
  0
LINE
  5
3B
330
1E
100
AcDbEntity
  8
0
100
AcDbLine
 10
40.4686
 20
-0.0000000000000158
 30
0.0
 11
46.1068
 21
-0.0000000000000156
 31
0.0
  0
LINE
  5
3C
330
1E
100
AcDbEntity
  8
0
100
AcDbLine
 10
33.9568
 20
-0.000000000000016
 30
0.0
 11
40.4686
 21
-0.0000000000000158
 31
0.0
  0
LINE
  5
3D
330
1E
100
AcDbEntity
  8
0
100
AcDbLine
 10
27.048
 20
-0.000000000000016
 30
0.0
 11
33.9568
 21
-0.000000000000016
 31
0.0
  0
LINE
  5
3E
330
1E
100
AcDbEntity
  8
0
100
AcDbLine
 10
40.4686
 20
-0.000000000000013
 30
0.0
 11
46.1068
 21
-0.0000000000000132
 31
0.0
  0
LINE
  5
3F
330
1E
100
AcDbEntity
  8
0
100
AcDbLine
 10
33.9568
 20
-0.0000000000000128
 30
0.0
 11
40.4686
 21
-0.000000000000013
 31
0.0
  0
LINE
  5
40
330
1E
100
AcDbEntity
  8
0
100
AcDbLine
 10
13.6274
 20
-0.000000000000013
 30
0.0
 11
20.1392
 21
-0.0000000000000128
 31
0.0
  0
LINE
  5
41
330
1E
100
AcDbEntity
  8
0
100
AcDbLine
 10
14.1833
 20
50.0
 30
0.0
 11
20.3774
 21
50.0
 31
0.0
  0
LINE
  5
42
330
1E
100
AcDbEntity
  8
0
100
AcDbLine
 10
13.78619999999999
 20
49.5192
 30
0.0
 11
20.21859999999999
 21
49.5192
 31
0.0
  0
LINE
  5
43
330
1E
100
AcDbEntity
  8
0
100
AcDbLine
 10
27.048
 20
50.0
 30
0.0
 11
33.7186
 21
50.0
 31
0.0
  0
LINE
  5
44
330
1E
100
AcDbEntity
  8
0
100
AcDbLine
 10
27.048
 20
49.5192
 30
0.0
 11
33.8774
 21
49.5192
 31
0.0
  0
LINE
  5
45
330
1E
100
AcDbEntity
  8
0
100
AcDbLine
 10
40.3098
 20
49.5192
 30
0.0
 11
45.8686
 21
49.5192
 31
0.0
  0
LINE
  5
46
330
1E
100
AcDbEntity
  8
0
100
AcDbLine
 10
33.7186
 20
50.0
 30
0.0
 11
45.3127
 21
50.0
 31
0.0
  0
LINE
  5
47
330
1E
100
AcDbEntity
  8
0
100
AcDbLine
 10
33.8774
 20
49.5192
 30
0.0
 11
40.3098
 21
49.5192
 31
0.0
  0
LINE
  5
48
330
1E
100
AcDbEntity
  8
0
100
AcDbLine
 10
27.048
 20
-0.0000000000000127
 30
0.0
 11
33.9568
 21
-0.0000000000000128
 31
0.0
  0
LINE
  5
49
330
1E
100
AcDbEntity
  8
0
100
AcDbLine
 10
20.3774
 20
50.0
 30
0.0
 11
27.048
 21
50.0
 31
0.0
  0
LINE
  5
4A
330
1E
100
AcDbEntity
  8
0
100
AcDbLine
 10
20.21859999999999
 20
49.5192
 30
0.0
 11
27.048
 21
49.5192
 31
0.0
  0
LINE
  5
4B
330
1E
100
AcDbEntity
  8
0
100
AcDbLine
 10
20.1392
 20
-0.0000000000000128
 30
0.0
 11
27.048
 21
-0.0000000000000127
 31
0.0
  0
LINE
  5
4C
330
1E
100
AcDbEntity
  8
0
100
AcDbLine
 10
13.048
 20
183.9209999999999
 30
0.0
 11
13.048
 21
196.0829999999999
 31
0.0
  0
LINE
  5
4D
330
1E
100
AcDbEntity
  8
0
100
AcDbLine
 10
13.048
 20
183.9209999999999
 30
0.0
 11
13.048
 21
173.13
 31
0.0
  0
LINE
  5
4E
330
1E
100
AcDbEntity
  8
0
100
AcDbLine
 10
13.048
 20
196.0829999999999
 30
0.0
 11
13.048
 21
207.79
 31
0.0
  0
LINE
  5
4F
330
1E
100
AcDbEntity
  8
0
100
AcDbLine
 10
13.048
 20
196.0829999999999
 30
0.0
 11
13.048
 21
183.9209999999999
 31
0.0
  0
LINE
  5
50
330
1E
100
AcDbEntity
  8
0
100
AcDbLine
 10
46.1068
 20
-0.0000000000000156
 30
0.0
 11
50.39509999999999
 21
-0.0000000000000152
 31
0.0
  0
LINE
  5
51
330
1E
100
AcDbEntity
  8
0
100
AcDbLine
 10
50.39509999999999
 20
-0.0000000000000152
 30
0.0
 11
53.0951
 21
-0.0000000000000148
 31
0.0
  0
LINE
  5
52
330
1E
100
AcDbEntity
  8
0
100
AcDbLine
 10
45.3127
 20
50.0
 30
0.0
 11
49.3627
 21
50.0
 31
0.0
  0
LINE
  5
53
330
1E
100
AcDbEntity
  8
0
100
AcDbLine
 10
49.3627
 20
50.0
 30
0.0
 11
51.9039
 21
50.0
 31
0.0
  0
LINE
  5
54
330
1E
100
AcDbEntity
  8
0
100
AcDbLine
 10
45.8686
 20
49.5192
 30
0.0
 11
50.0774
 21
49.5192
 31
0.0
  0
LINE
  5
55
330
1E
100
AcDbEntity
  8
0
100
AcDbLine
 10
50.0774
 20
49.5192
 30
0.0
 11
52.698
 21
49.5192
 31
0.0
  0
LINE
  5
56
330
1E
100
AcDbEntity
  8
0
100
AcDbLine
 10
46.1068
 20
-0.0000000000000132
 30
0.0
 11
50.39509999999999
 21
-0.0000000000000136
 31
0.0
  0
LINE
  5
57
330
1E
100
AcDbEntity
  8
0
100
AcDbLine
 10
51.9039
 20
50.0
 30
0.0
 11
52.8568
 21
50.0
 31
0.0
  0
LINE
  5
58
330
1E
100
AcDbEntity
  8
0
100
AcDbLine
 10
50.39509999999999
 20
-0.0000000000000136
 30
0.0
 11
53.0951
 21
-0.000000000000014
 31
0.0
  0
LINE
  5
59
330
1E
100
AcDbEntity
  8
0
100
AcDbLine
 10
51.63
 20
207.4
 30
0.0
 11
52.548
 21
207.4
 31
0.0
  0
LINE
  5
5A
330
1E
100
AcDbEntity
  8
0
100
AcDbLine
 10
52.548
 20
50.0
 30
0.0
 11
52.548
 21
207.4
 31
0.0
  0
LINE
  5
5B
330
1E
100
AcDbEntity
  8
0
100
AcDbLine
 10
49.18199999999999
 20
207.4
 30
0.0
 11
51.63
 21
207.4
 31
0.0
  0
LINE
  5
5C
330
1E
100
AcDbEntity
  8
0
100
AcDbLine
 10
45.102
 20
207.4
 30
0.0
 11
49.18199999999999
 21
207.4
 31
0.0
  0
LINE
  5
5D
330
1E
100
AcDbEntity
  8
0
100
AcDbLine
 10
41.048
 20
207.4
 30
0.0
 11
45.102
 21
207.4
 31
0.0
  0
LINE
  5
5E
330
1E
100
AcDbEntity
  8
0
100
AcDbLine
 10
53.0951
 20
-0.0000000000000148
 30
0.0
 11
54.048
 21
-0.0000000000000144
 31
0.0
  0
LINE
  5
5F
330
1E
100
AcDbEntity
  8
0
100
AcDbLine
 10
54.048
 20
-0.0000000000000144
 30
0.0
 11
54.048
 21
15.8618
 31
0.0
  0
LINE
  5
60
330
1E
100
AcDbEntity
  8
0
100
AcDbLine
 10
54.048
 20
15.8618
 30
0.0
 11
67.952
 21
15.8618
 31
0.0
  0
LINE
  5
61
330
1E
100
AcDbEntity
  8
0
100
AcDbLine
 10
54.048
 20
15.8618
 30
0.0
 11
54.048
 21
-0.0000000000000147
 31
0.0
  0
LINE
  5
62
330
1E
100
AcDbEntity
  8
0
100
AcDbLine
 10
54.048
 20
48.55769999999999
 30
0.0
 11
54.048
 21
43.8618
 31
0.0
  0
LINE
  5
63
330
1E
100
AcDbEntity
  8
0
100
AcDbLine
 10
53.6509
 20
49.5192
 30
0.0
 11
54.048
 21
48.55769999999999
 31
0.0
  0
LINE
  5
64
330
1E
100
AcDbEntity
  8
0
100
AcDbLine
 10
52.8568
 20
50.0
 30
0.0
 11
53.6509
 21
49.5192
 31
0.0
  0
LINE
  5
65
330
1E
100
AcDbEntity
  8
0
100
AcDbLine
 10
52.698
 20
49.5192
 30
0.0
 11
53.6509
 21
49.5192
 31
0.0
  0
LINE
  5
66
330
1E
100
AcDbEntity
  8
0
100
AcDbLine
 10
67.952
 20
17.86179999999999
 30
0.0
 11
75.952
 21
17.86179999999999
 31
0.0
  0
LINE
  5
67
330
1E
100
AcDbEntity
  8
0
100
AcDbLine
 10
67.952
 20
17.7098
 30
0.0
 11
67.952
 21
19.94979999999999
 31
0.0
  0
LINE
  5
68
330
1E
100
AcDbEntity
  8
0
100
AcDbLine
 10
67.952
 20
17.7098
 30
0.0
 11
67.952
 21
16.3658
 31
0.0
  0
LINE
  5
69
330
1E
100
AcDbEntity
  8
0
100
AcDbLine
 10
67.952
 20
16.3658
 30
0.0
 11
67.952
 21
17.7098
 31
0.0
  0
LINE
  5
6A
330
1E
100
AcDbEntity
  8
0
100
AcDbLine
 10
67.952
 20
16.3658
 30
0.0
 11
67.952
 21
15.8618
 31
0.0
  0
LINE
  5
6B
330
1E
100
AcDbEntity
  8
0
100
AcDbLine
 10
67.952
 20
15.8618
 30
0.0
 11
67.952
 21
16.3658
 31
0.0
  0
LINE
  5
6C
330
1E
100
AcDbEntity
  8
0
100
AcDbLine
 10
75.952
 20
18.2938
 30
0.0
 11
75.952
 21
19.4458
 31
0.0
  0
LINE
  5
6D
330
1E
100
AcDbEntity
  8
0
100
AcDbLine
 10
75.952
 20
17.86179999999999
 30
0.0
 11
75.952
 21
18.3118
 31
0.0
  0
LINE
  5
6E
330
1E
100
AcDbEntity
  8
0
100
AcDbLine
 10
75.952
 20
17.86179999999999
 30
0.0
 11
79.702
 21
18.4618
 31
0.0
  0
LINE
  5
6F
330
1E
100
AcDbEntity
  8
0
100
AcDbLine
 10
75.952
 20
17.86179999999999
 30
0.0
 11
75.952
 21
18.2938
 31
0.0
  0
LINE
  5
70
330
1E
100
AcDbEntity
  8
0
100
AcDbLine
 10
75.952
 20
18.3118
 30
0.0
 11
75.952
 21
19.4458
 31
0.0
  0
LINE
  5
71
330
1E
100
AcDbEntity
  8
0
100
AcDbLine
 10
67.952
 20
22.9178
 30
0.0
 11
67.952
 21
26.2778
 31
0.0
  0
LINE
  5
72
330
1E
100
AcDbEntity
  8
0
100
AcDbLine
 10
67.952
 20
22.9178
 30
0.0
 11
67.952
 21
19.94979999999999
 31
0.0
  0
LINE
  5
73
330
1E
100
AcDbEntity
  8
0
100
AcDbLine
 10
75.952
 20
21.36579999999999
 30
0.0
 11
75.952
 21
23.9098
 31
0.0
  0
LINE
  5
74
330
1E
100
AcDbEntity
  8
0
100
AcDbLine
 10
75.952
 20
19.4458
 30
0.0
 11
75.952
 21
21.36579999999999
 31
0.0
  0
LINE
  5
75
330
1E
100
AcDbEntity
  8
0
100
AcDbLine
 10
67.952
 20
19.94979999999999
 30
0.0
 11
67.952
 21
22.9178
 31
0.0
  0
LINE
  5
76
330
1E
100
AcDbEntity
  8
0
100
AcDbLine
 10
67.952
 20
19.94979999999999
 30
0.0
 11
67.952
 21
17.7098
 31
0.0
  0
LINE
  5
77
330
1E
100
AcDbEntity
  8
0
100
AcDbLine
 10
67.952
 20
26.2778
 30
0.0
 11
67.952
 21
29.8618
 31
0.0
  0
LINE
  5
78
330
1E
100
AcDbEntity
  8
0
100
AcDbLine
 10
67.952
 20
26.2778
 30
0.0
 11
67.952
 21
22.9178
 31
0.0
  0
LINE
  5
79
330
1E
100
AcDbEntity
  8
0
100
AcDbLine
 10
75.952
 20
26.7898
 30
0.0
 11
75.952
 21
29.8618
 31
0.0
  0
LINE
  5
7A
330
1E
100
AcDbEntity
  8
0
100
AcDbLine
 10
67.952
 20
29.8618
 30
0.0
 11
67.952
 21
33.4458
 31
0.0
  0
LINE
  5
7B
330
1E
100
AcDbEntity
  8
0
100
AcDbLine
 10
67.952
 20
29.8618
 30
0.0
 11
67.952
 21
26.2778
 31
0.0
  0
LINE
  5
7C
330
1E
100
AcDbEntity
  8
0
100
AcDbLine
 10
67.952
 20
33.4458
 30
0.0
 11
67.952
 21
36.80579999999999
 31
0.0
  0
LINE
  5
7D
330
1E
100
AcDbEntity
  8
0
100
AcDbLine
 10
67.952
 20
33.4458
 30
0.0
 11
67.952
 21
29.8618
 31
0.0
  0
LINE
  5
7E
330
1E
100
AcDbEntity
  8
0
100
AcDbLine
 10
67.952
 20
36.80579999999999
 30
0.0
 11
67.952
 21
39.7738
 31
0.0
  0
LINE
  5
7F
330
1E
100
AcDbEntity
  8
0
100
AcDbLine
 10
67.952
 20
36.80579999999999
 30
0.0
 11
67.952
 21
33.4458
 31
0.0
  0
LINE
  5
80
330
1E
100
AcDbEntity
  8
0
100
AcDbLine
 10
75.952
 20
32.93379999999999
 30
0.0
 11
75.952
 21
35.8138
 31
0.0
  0
LINE
  5
81
330
1E
100
AcDbEntity
  8
0
100
AcDbLine
 10
75.952
 20
35.8138
 30
0.0
 11
75.952
 21
38.35779999999999
 31
0.0
  0
LINE
  5
82
330
1E
100
AcDbEntity
  8
0
100
AcDbLine
 10
75.952
 20
38.35779999999999
 30
0.0
 11
75.952
 21
40.27779999999999
 31
0.0
  0
LINE
  5
83
330
1E
100
AcDbEntity
  8
0
100
AcDbLine
 10
67.952
 20
39.7738
 30
0.0
 11
67.952
 21
42.0138
 31
0.0
  0
LINE
  5
84
330
1E
100
AcDbEntity
  8
0
100
AcDbLine
 10
67.952
 20
39.7738
 30
0.0
 11
67.952
 21
36.80579999999999
 31
0.0
  0
LINE
  5
85
330
1E
100
AcDbEntity
  8
0
100
AcDbLine
 10
67.952
 20
41.8618
 30
0.0
 11
75.952
 21
41.8618
 31
0.0
  0
LINE
  5
86
330
1E
100
AcDbEntity
  8
0
100
AcDbLine
 10
75.952
 20
41.4298
 30
0.0
 11
75.952
 21
41.8618
 31
0.0
  0
LINE
  5
87
330
1E
100
AcDbEntity
  8
0
100
AcDbLine
 10
67.952
 20
42.0138
 30
0.0
 11
67.952
 21
43.35779999999999
 31
0.0
  0
LINE
  5
88
330
1E
100
AcDbEntity
  8
0
100
AcDbLine
 10
67.952
 20
42.0138
 30
0.0
 11
67.952
 21
39.7738
 31
0.0
  0
LINE
  5
89
330
1E
100
AcDbEntity
  8
0
100
AcDbLine
 10
67.952
 20
43.8618
 30
0.0
 11
67.952
 21
43.35779999999999
 31
0.0
  0
LINE
  5
8A
330
1E
100
AcDbEntity
  8
0
100
AcDbLine
 10
67.952
 20
43.35779999999999
 30
0.0
 11
67.952
 21
43.8618
 31
0.0
  0
LINE
  5
8B
330
1E
100
AcDbEntity
  8
0
100
AcDbLine
 10
67.952
 20
43.35779999999999
 30
0.0
 11
67.952
 21
42.0138
 31
0.0
  0
LINE
  5
8C
330
1E
100
AcDbEntity
  8
0
100
AcDbLine
 10
75.952
 20
41.4118
 30
0.0
 11
75.952
 21
41.8618
 31
0.0
  0
LINE
  5
8D
330
1E
100
AcDbEntity
  8
0
100
AcDbLine
 10
75.952
 20
40.27779999999999
 30
0.0
 11
75.952
 21
41.4118
 31
0.0
  0
LINE
  5
8E
330
1E
100
AcDbEntity
  8
0
100
AcDbLine
 10
75.952
 20
40.27779999999999
 30
0.0
 11
75.952
 21
41.4298
 31
0.0
  0
LINE
  5
8F
330
1E
100
AcDbEntity
  8
0
100
AcDbLine
 10
75.952
 20
33.0118
 30
0.0
 11
75.952
 21
35.8138
 31
0.0
  0
LINE
  5
90
330
1E
100
AcDbEntity
  8
0
100
AcDbLine
 10
75.952
 20
29.8618
 30
0.0
 11
75.952
 21
33.0118
 31
0.0
  0
LINE
  5
91
330
1E
100
AcDbEntity
  8
0
100
AcDbLine
 10
75.952
 20
29.8618
 30
0.0
 11
75.952
 21
32.93379999999999
 31
0.0
  0
LINE
  5
92
330
1E
100
AcDbEntity
  8
0
100
AcDbLine
 10
75.952
 20
41.8618
 30
0.0
 11
79.702
 21
41.2618
 31
0.0
  0
LINE
  5
93
330
1E
100
AcDbEntity
  8
0
100
AcDbLine
 10
75.952
 20
23.9098
 30
0.0
 11
75.952
 21
26.7118
 31
0.0
  0
LINE
  5
94
330
1E
100
AcDbEntity
  8
0
100
AcDbLine
 10
75.952
 20
23.9098
 30
0.0
 11
75.952
 21
26.7898
 31
0.0
  0
LINE
  5
95
330
1E
100
AcDbEntity
  8
0
100
AcDbLine
 10
92.95200000000001
 20
19.8618
 30
0.0
 11
92.95200000000001
 21
19.9338
 31
0.0
  0
LINE
  5
96
330
1E
100
AcDbEntity
  8
0
100
AcDbLine
 10
92.95200000000001
 20
19.9338
 30
0.0
 11
92.95200000000001
 21
20.1258
 31
0.0
  0
LINE
  5
97
330
1E
100
AcDbEntity
  8
0
100
AcDbLine
 10
92.95200000000001
 20
19.9338
 30
0.0
 11
92.95200000000001
 21
19.8618
 31
0.0
  0
LINE
  5
98
330
1E
100
AcDbEntity
  8
0
100
AcDbLine
 10
92.95200000000001
 20
20.1258
 30
0.0
 11
92.95200000000001
 21
20.44579999999999
 31
0.0
  0
LINE
  5
99
330
1E
100
AcDbEntity
  8
0
100
AcDbLine
 10
92.95200000000001
 20
20.1258
 30
0.0
 11
92.95200000000001
 21
19.9338
 31
0.0
  0
LINE
  5
9A
330
1E
100
AcDbEntity
  8
0
100
AcDbLine
 10
92.95200000000001
 20
20.44579999999999
 30
0.0
 11
92.95200000000001
 21
20.8698
 31
0.0
  0
LINE
  5
9B
330
1E
100
AcDbEntity
  8
0
100
AcDbLine
 10
92.95200000000001
 20
20.44579999999999
 30
0.0
 11
92.95200000000001
 21
20.1258
 31
0.0
  0
LINE
  5
9C
330
1E
100
AcDbEntity
  8
0
100
AcDbLine
 10
92.95200000000001
 20
20.8698
 30
0.0
 11
92.95200000000001
 21
21.3498
 31
0.0
  0
LINE
  5
9D
330
1E
100
AcDbEntity
  8
0
100
AcDbLine
 10
92.95200000000001
 20
20.8698
 30
0.0
 11
92.95200000000001
 21
20.44579999999999
 31
0.0
  0
LINE
  5
9E
330
1E
100
AcDbEntity
  8
0
100
AcDbLine
 10
92.95200000000001
 20
21.86179999999999
 30
0.0
 11
92.95200000000001
 21
21.3498
 31
0.0
  0
LINE
  5
9F
330
1E
100
AcDbEntity
  8
0
100
AcDbLine
 10
92.95200000000001
 20
21.86179999999999
 30
0.0
 11
92.95200000000001
 21
37.8618
 31
0.0
  0
LINE
  5
A0
330
1E
100
AcDbEntity
  8
0
100
AcDbLine
 10
92.95200000000001
 20
21.3498
 30
0.0
 11
92.95200000000001
 21
21.86179999999999
 31
0.0
  0
LINE
  5
A1
330
1E
100
AcDbEntity
  8
0
100
AcDbLine
 10
92.95200000000001
 20
21.3498
 30
0.0
 11
92.95200000000001
 21
20.8698
 31
0.0
  0
LINE
  5
A2
330
1E
100
AcDbEntity
  8
0
100
AcDbLine
 10
81.97700000000001
 20
19.8618
 30
0.0
 11
92.95200000000001
 21
19.8618
 31
0.0
  0
LINE
  5
A3
330
1E
100
AcDbEntity
  8
0
100
AcDbLine
 10
92.95200000000001
 20
39.8618
 30
0.0
 11
92.95200000000001
 21
39.78979999999999
 31
0.0
  0
LINE
  5
A4
330
1E
100
AcDbEntity
  8
0
100
AcDbLine
 10
92.95200000000001
 20
39.78979999999999
 30
0.0
 11
92.95200000000001
 21
39.8618
 31
0.0
  0
LINE
  5
A5
330
1E
100
AcDbEntity
  8
0
100
AcDbLine
 10
92.95200000000001
 20
39.78979999999999
 30
0.0
 11
92.95200000000001
 21
39.5978
 31
0.0
  0
LINE
  5
A6
330
1E
100
AcDbEntity
  8
0
100
AcDbLine
 10
92.95200000000001
 20
39.5978
 30
0.0
 11
92.95200000000001
 21
39.78979999999999
 31
0.0
  0
LINE
  5
A7
330
1E
100
AcDbEntity
  8
0
100
AcDbLine
 10
92.95200000000001
 20
39.5978
 30
0.0
 11
92.95200000000001
 21
39.2778
 31
0.0
  0
LINE
  5
A8
330
1E
100
AcDbEntity
  8
0
100
AcDbLine
 10
92.95200000000001
 20
39.2778
 30
0.0
 11
92.95200000000001
 21
39.5978
 31
0.0
  0
LINE
  5
A9
330
1E
100
AcDbEntity
  8
0
100
AcDbLine
 10
92.95200000000001
 20
39.2778
 30
0.0
 11
92.95200000000001
 21
38.85379999999999
 31
0.0
  0
LINE
  5
AA
330
1E
100
AcDbEntity
  8
0
100
AcDbLine
 10
92.95200000000001
 20
38.85379999999999
 30
0.0
 11
92.95200000000001
 21
39.2778
 31
0.0
  0
LINE
  5
AB
330
1E
100
AcDbEntity
  8
0
100
AcDbLine
 10
92.95200000000001
 20
38.85379999999999
 30
0.0
 11
92.95200000000001
 21
38.3738
 31
0.0
  0
LINE
  5
AC
330
1E
100
AcDbEntity
  8
0
100
AcDbLine
 10
92.95200000000001
 20
38.3738
 30
0.0
 11
92.95200000000001
 21
38.85379999999999
 31
0.0
  0
LINE
  5
AD
330
1E
100
AcDbEntity
  8
0
100
AcDbLine
 10
92.95200000000001
 20
38.3738
 30
0.0
 11
92.95200000000001
 21
37.8618
 31
0.0
  0
LINE
  5
AE
330
1E
100
AcDbEntity
  8
0
100
AcDbLine
 10
92.95200000000001
 20
37.8618
 30
0.0
 11
92.95200000000001
 21
38.3738
 31
0.0
  0
LINE
  5
AF
330
1E
100
AcDbEntity
  8
0
100
AcDbLine
 10
92.95200000000001
 20
37.8618
 30
0.0
 11
92.95200000000001
 21
21.86179999999999
 31
0.0
  0
LINE
  5
B0
330
1E
100
AcDbEntity
  8
0
100
AcDbLine
 10
81.97700000000001
 20
39.8618
 30
0.0
 11
92.95200000000001
 21
39.8618
 31
0.0
  0
LINE
  5
B1
330
1E
100
AcDbEntity
  8
0
100
AcDbLine
 10
79.702
 20
41.2618
 30
0.0
 11
81.97700000000001
 21
39.8618
 31
0.0
  0
LINE
  5
B2
330
1E
100
AcDbEntity
  8
0
100
AcDbLine
 10
75.952
 20
26.7118
 30
0.0
 11
75.952
 21
29.8618
 31
0.0
  0
LINE
  5
B3
330
1E
100
AcDbEntity
  8
0
100
AcDbLine
 10
79.702
 20
18.4618
 30
0.0
 11
81.98709214844729
 21
19.8680105528907
 31
0.0
  0
LINE
  5
B4
330
1E
100
AcDbEntity
  8
0
100
AcDbLine
 10
54.048
 20
43.8618
 30
0.0
 11
54.048
 21
48.55769999999999
 31
0.0
  0
LINE
  5
B5
330
1E
100
AcDbEntity
  8
0
100
AcDbLine
 10
54.048
 20
43.8618
 30
0.0
 11
67.952
 21
43.8618
 31
0.0
  0
LINE
  5
B6
330
1E
100
AcDbEntity
  8
0
100
AcDbLine
 10
53.0951
 20
-0.000000000000014
 30
0.0
 11
54.048
 21
-0.0000000000000144
 31
0.0
  0
LINE
  5
B7
330
1E
100
AcDbEntity
  8
0
100
AcDbLine
 10
52.548
 20
207.4
 30
0.0
 11
52.548
 21
50.0
 31
0.0
  0
LINE
  5
B8
330
1E
100
AcDbEntity
  8
0
100
AcDbLine
 10
8.99399999999999
 20
207.4
 30
0.0
 11
13.048
 21
207.4
 31
0.0
  0
LINE
  5
B9
330
1E
100
AcDbEntity
  8
0
100
AcDbLine
 10
4.91399999999999
 20
207.4
 30
0.0
 11
8.99399999999999
 21
207.4
 31
0.0
  0
LINE
  5
BB
330
1E
100
AcDbEntity
  8
0
100
AcDbLine
 10
1.737319999999989
 20
242.052
 30
0.0
 11
1.755759999999989
 21
239.901
 31
0.0
  0
LINE
  5
BC
330
1E
100
AcDbEntity
  8
0
100
AcDbLine
 10
1.755759999999989
 20
239.901
 30
0.0
 11
2.177009999999989
 21
210.0
 31
0.0
  0
LINE
  5
BD
330
1E
100
AcDbEntity
  8
0
100
AcDbLine
 10
2.54799999999999
 20
208.0
 30
0.0
 11
2.54799999999999
 21
210.0
 31
0.0
  0
LINE
  5
BE
330
1E
100
AcDbEntity
  8
0
100
AcDbLine
 10
13.048
 20
207.79
 30
0.0
 11
13.048
 21
217.3899999999999
 31
0.0
  0
LINE
  5
BF
330
1E
100
AcDbEntity
  8
0
100
AcDbLine
 10
13.048
 20
207.79
 30
0.0
 11
13.048
 21
196.0829999999999
 31
0.0
  0
LINE
  5
C0
330
1E
100
AcDbEntity
  8
0
100
AcDbLine
 10
51.548
 20
208.0
 30
0.0
 11
51.548
 21
210.0
 31
0.0
  0
LINE
  5
C1
330
1E
100
AcDbEntity
  8
0
100
AcDbLine
 10
51.018
 20
208.0
 30
0.0
 11
51.936
 21
208.0
 31
0.0
  0
LINE
  5
C2
330
1E
100
AcDbEntity
  8
0
100
AcDbLine
 10
48.57
 20
208.0
 30
0.0
 11
51.018
 21
208.0
 31
0.0
  0
LINE
  5
C3
330
1E
100
AcDbEntity
  8
0
100
AcDbLine
 10
44.592
 20
208.0
 30
0.0
 11
48.57
 21
208.0
 31
0.0
  0
LINE
  5
C4
330
1E
100
AcDbEntity
  8
0
100
AcDbLine
 10
41.048
 20
208.0
 30
0.0
 11
44.592
 21
208.0
 31
0.0
  0
LINE
  5
C5
330
1E
100
AcDbEntity
  8
0
100
AcDbLine
 10
51.936
 20
208.0
 30
0.0
 11
52.548
 21
207.4
 31
0.0
  0
LINE
  5
C6
330
1E
100
AcDbEntity
  8
0
100
AcDbLine
 10
9.50399999999999
 20
208.0
 30
0.0
 11
13.048
 21
208.0
 31
0.0
  0
LINE
  5
C7
330
1E
100
AcDbEntity
  8
0
100
AcDbLine
 10
5.52599999999999
 20
208.0
 30
0.0
 11
9.50399999999999
 21
208.0
 31
0.0
  0
LINE
  5
C8
330
1E
100
AcDbEntity
  8
0
100
AcDbLine
 10
2.47545999999999
 20
210.0
 30
0.0
 11
3.07236999999999
 21
210.0
 31
0.0
  0
LINE
  5
C9
330
1E
100
AcDbEntity
  8
0
100
AcDbLine
 10
2.177009999999989
 20
210.0
 30
0.0
 11
2.47545999999999
 21
210.0
 31
0.0
  0
LINE
  5
CA
330
1E
100
AcDbEntity
  8
0
100
AcDbLine
 10
46.7458
 20
210.0
 30
0.0
 11
48.636
 21
210.0
 31
0.0
  0
LINE
  5
CB
330
1E
100
AcDbEntity
  8
0
100
AcDbLine
 10
42.1696
 20
210.0
 30
0.0
 11
44.5572
 21
210.0
 31
0.0
  0
LINE
  5
CC
330
1E
100
AcDbEntity
  8
0
100
AcDbLine
 10
41.048
 20
210.0
 30
0.0
 11
42.1696
 21
210.0
 31
0.0
  0
LINE
  5
CD
330
1E
100
AcDbEntity
  8
0
100
AcDbLine
 10
44.5572
 20
210.0
 30
0.0
 11
46.7458
 21
210.0
 31
0.0
  0
LINE
  5
CE
330
1E
100
AcDbEntity
  8
0
100
AcDbLine
 10
51.6205
 20
210.0
 30
0.0
 11
51.919
 21
210.0
 31
0.0
  0
LINE
  5
CF
330
1E
100
AcDbEntity
  8
0
100
AcDbLine
 10
51.919
 20
210.0
 30
0.0
 11
52.34020000000001
 21
239.901
 31
0.0
  0
LINE
  5
D0
330
1E
100
AcDbEntity
  8
0
100
AcDbLine
 10
51.0236
 20
210.0
 30
0.0
 11
51.6205
 21
210.0
 31
0.0
  0
LINE
  5
D1
330
1E
100
AcDbEntity
  8
0
100
AcDbLine
 10
49.9293
 20
210.0
 30
0.0
 11
51.0236
 21
210.0
 31
0.0
  0
LINE
  5
D2
330
1E
100
AcDbEntity
  8
0
100
AcDbLine
 10
48.636
 20
210.0
 30
0.0
 11
49.9293
 21
210.0
 31
0.0
  0
LINE
  5
D3
330
1E
100
AcDbEntity
  8
0
100
AcDbLine
 10
11.92639999999999
 20
210.0
 30
0.0
 11
13.048
 21
210.0
 31
0.0
  0
LINE
  5
D4
330
1E
100
AcDbEntity
  8
0
100
AcDbLine
 10
9.53881999999999
 20
210.0
 30
0.0
 11
11.92639999999999
 21
210.0
 31
0.0
  0
LINE
  5
D5
330
1E
100
AcDbEntity
  8
0
100
AcDbLine
 10
7.35017999999999
 20
210.0
 30
0.0
 11
9.53881999999999
 21
210.0
 31
0.0
  0
LINE
  5
D6
330
1E
100
AcDbEntity
  8
0
100
AcDbLine
 10
5.45997999999999
 20
210.0
 30
0.0
 11
7.35017999999999
 21
210.0
 31
0.0
  0
LINE
  5
D7
330
1E
100
AcDbEntity
  8
0
100
AcDbLine
 10
4.16668999999999
 20
210.0
 30
0.0
 11
5.45997999999999
 21
210.0
 31
0.0
  0
LINE
  5
D8
330
1E
100
AcDbEntity
  8
0
100
AcDbLine
 10
3.07236999999999
 20
210.0
 30
0.0
 11
4.16668999999999
 21
210.0
 31
0.0
  0
LINE
  5
D9
330
1E
100
AcDbEntity
  8
0
100
AcDbLine
 10
27.048
 20
213.979
 30
0.0
 11
30.072
 21
214.0169999999999
 31
0.0
  0
LINE
  5
DA
330
1E
100
AcDbEntity
  8
0
100
AcDbLine
 10
30.072
 20
214.0169999999999
 30
0.0
 11
32.856
 21
214.117
 31
0.0
  0
LINE
  5
DB
330
1E
100
AcDbEntity
  8
0
100
AcDbLine
 10
32.856
 20
214.117
 30
0.0
 11
35.304
 21
214.28
 31
0.0
  0
LINE
  5
DC
330
1E
100
AcDbEntity
  8
0
100
AcDbLine
 10
24.024
 20
214.0169999999999
 30
0.0
 11
27.048
 21
213.979
 31
0.0
  0
LINE
  5
DD
330
1E
100
AcDbEntity
  8
0
100
AcDbLine
 10
35.304
 20
214.28
 30
0.0
 11
37.176
 21
214.494
 31
0.0
  0
LINE
  5
DE
330
1E
100
AcDbEntity
  8
0
100
AcDbLine
 10
37.176
 20
214.494
 30
0.0
 11
38.328
 21
214.7359999999999
 31
0.0
  0
LINE
  5
DF
330
1E
100
AcDbEntity
  8
0
100
AcDbLine
 10
21.24
 20
214.117
 30
0.0
 11
24.024
 21
214.0169999999999
 31
0.0
  0
LINE
  5
E0
330
1E
100
AcDbEntity
  8
0
100
AcDbLine
 10
18.792
 20
214.28
 30
0.0
 11
21.24
 21
214.117
 31
0.0
  0
LINE
  5
E1
330
1E
100
AcDbEntity
  8
0
100
AcDbLine
 10
38.328
 20
214.7359999999999
 30
0.0
 11
38.75999999999999
 21
215.0
 31
0.0
  0
LINE
  5
E2
330
1E
100
AcDbEntity
  8
0
100
AcDbLine
 10
16.92
 20
214.494
 30
0.0
 11
18.792
 21
214.28
 31
0.0
  0
LINE
  5
E3
330
1E
100
AcDbEntity
  8
0
100
AcDbLine
 10
15.76799999999999
 20
214.7359999999999
 30
0.0
 11
16.92
 21
214.494
 31
0.0
  0
LINE
  5
E4
330
1E
100
AcDbEntity
  8
0
100
AcDbLine
 10
15.76799999999999
 20
215.264
 30
0.0
 11
16.92
 21
215.5059999999999
 31
0.0
  0
LINE
  5
E5
330
1E
100
AcDbEntity
  8
0
100
AcDbLine
 10
15.33599999999999
 20
215.0
 30
0.0
 11
15.76799999999999
 21
215.264
 31
0.0
  0
LINE
  5
E6
330
1E
100
AcDbEntity
  8
0
100
AcDbLine
 10
15.33599999999999
 20
215.0
 30
0.0
 11
15.76799999999999
 21
214.7359999999999
 31
0.0
  0
LINE
  5
E7
330
1E
100
AcDbEntity
  8
0
100
AcDbLine
 10
38.75999999999999
 20
215.0
 30
0.0
 11
39.048
 21
215.598
 31
0.0
  0
LINE
  5
E8
330
1E
100
AcDbEntity
  8
0
100
AcDbLine
 10
18.792
 20
215.72
 30
0.0
 11
21.24
 21
215.883
 31
0.0
  0
LINE
  5
E9
330
1E
100
AcDbEntity
  8
0
100
AcDbLine
 10
16.92
 20
215.5059999999999
 30
0.0
 11
18.792
 21
215.72
 31
0.0
  0
LINE
  5
EA
330
1E
100
AcDbEntity
  8
0
100
AcDbLine
 10
15.048
 20
215.598
 30
0.0
 11
15.33599999999999
 21
215.0
 31
0.0
  0
LINE
  5
EB
330
1E
100
AcDbEntity
  8
0
100
AcDbLine
 10
15.048
 20
215.598
 30
0.0
 11
15.048
 21
219.9809999999999
 31
0.0
  0
LINE
  5
EC
330
1E
100
AcDbEntity
  8
0
100
AcDbLine
 10
24.024
 20
215.9829999999999
 30
0.0
 11
27.048
 21
216.0209999999999
 31
0.0
  0
LINE
  5
ED
330
1E
100
AcDbEntity
  8
0
100
AcDbLine
 10
21.24
 20
215.883
 30
0.0
 11
24.024
 21
215.9829999999999
 31
0.0
  0
LINE
  5
EE
330
1E
100
AcDbEntity
  8
0
100
AcDbLine
 10
13.048
 20
217.3899999999999
 30
0.0
 11
13.048
 21
224.8299999999999
 31
0.0
  0
LINE
  5
EF
330
1E
100
AcDbEntity
  8
0
100
AcDbLine
 10
13.048
 20
217.3899999999999
 30
0.0
 11
13.048
 21
207.79
 31
0.0
  0
LINE
  5
F0
330
1E
100
AcDbEntity
  8
0
100
AcDbLine
 10
14.548
 20
219.693
 30
0.0
 11
15.048
 21
219.57675
 31
0.0
  0
LINE
  5
F1
330
1E
100
AcDbEntity
  8
0
100
AcDbLine
 10
14.048
 20
219.9809999999999
 30
0.0
 11
14.548
 21
220.269
 31
0.0
  0
LINE
  5
F2
330
1E
100
AcDbEntity
  8
0
100
AcDbLine
 10
14.048
 20
219.9809999999999
 30
0.0
 11
14.548
 21
219.693
 31
0.0
  0
LINE
  5
F3
330
1E
100
AcDbEntity
  8
0
100
AcDbLine
 10
13.048
 20
224.8299999999999
 30
0.0
 11
13.048
 21
230.5959999999999
 31
0.0
  0
LINE
  5
F4
330
1E
100
AcDbEntity
  8
0
100
AcDbLine
 10
13.048
 20
224.8299999999999
 30
0.0
 11
13.048
 21
217.3899999999999
 31
0.0
  0
LINE
  5
F5
330
1E
100
AcDbEntity
  8
0
100
AcDbLine
 10
13.048
 20
230.5959999999999
 30
0.0
 11
13.048
 21
234.8199999999999
 31
0.0
  0
LINE
  5
F6
330
1E
100
AcDbEntity
  8
0
100
AcDbLine
 10
13.048
 20
230.5959999999999
 30
0.0
 11
13.048
 21
224.8299999999999
 31
0.0
  0
LINE
  5
F7
330
1E
100
AcDbEntity
  8
0
100
AcDbLine
 10
13.048
 20
234.8199999999999
 30
0.0
 11
13.048
 21
237.9119999999999
 31
0.0
  0
LINE
  5
F8
330
1E
100
AcDbEntity
  8
0
100
AcDbLine
 10
13.048
 20
234.8199999999999
 30
0.0
 11
13.048
 21
230.5959999999999
 31
0.0
  0
LINE
  5
F9
330
1E
100
AcDbEntity
  8
0
100
AcDbLine
 10
13.048
 20
233.835
 30
0.0
 11
13.048
 21
236.9159999999999
 31
0.0
  0
LINE
  5
FC
330
1E
100
AcDbEntity
  8
0
100
AcDbLine
 10
5.25716999999999
 20
263.1459999999999
 30
0.0
 11
5.83665999999999
 21
263.4009999999999
 31
0.0
  0
LINE
  5
FE
330
1E
100
AcDbEntity
  8
0
100
AcDbLine
 10
9.89345999999999
 20
264.2139999999999
 30
0.0
 11
11.748
 21
264.4159999999999
 31
0.0
  0
LINE
  5
100
330
1E
100
AcDbEntity
  8
0
100
AcDbLine
 10
8.270739999999991
 20
264.002
 30
0.0
 11
9.89345999999999
 21
264.2139999999999
 31
0.0
  0
LINE
  5
102
330
1E
100
AcDbEntity
  8
0
100
AcDbLine
 10
7.11163999999999
 20
263.7679999999999
 30
0.0
 11
8.270739999999991
 21
264.002
 31
0.0
  0
LINE
  5
104
330
1E
100
AcDbEntity
  8
0
100
AcDbLine
 10
6.18439999999999
 20
263.524
 30
0.0
 11
7.11163999999999
 21
263.7679999999999
 31
0.0
  0
LINE
  5
105
330
1E
100
AcDbEntity
  8
0
100
AcDbLine
 10
5.83665999999999
 20
263.4009999999999
 30
0.0
 11
6.18439999999999
 21
263.524
 31
0.0
  0
LINE
  5
107
330
1E
100
AcDbEntity
  8
0
100
AcDbLine
 10
5.02529999999999
 20
262.88
 30
0.0
 11
5.25716999999999
 21
263.1459999999999
 31
0.0
  0
LINE
  5
108
330
1E
100
AcDbEntity
  8
0
100
AcDbLine
 10
11.748
 20
264.4159999999999
 30
0.0
 11
13.9503
 21
264.586
 31
0.0
  0
LINE
  5
10A
330
1E
100
AcDbEntity
  8
0
100
AcDbLine
 10
13.548
 20
238.909
 30
0.0
 11
15.048
 21
239.9049999999999
 31
0.0
  0
LINE
  5
10B
330
1E
100
AcDbEntity
  8
0
100
AcDbLine
 10
13.048
 20
237.9119999999999
 30
0.0
 11
13.548
 21
238.909
 31
0.0
  0
LINE
  5
10C
330
1E
100
AcDbEntity
  8
0
100
AcDbLine
 10
13.048
 20
237.9119999999999
 30
0.0
 11
13.048
 21
236.9159999999999
 31
0.0
  0
LINE
  5
10D
330
1E
100
AcDbEntity
  8
0
100
AcDbLine
 10
13.048
 20
237.9119999999999
 30
0.0
 11
13.048
 21
234.8199999999999
 31
0.0
  0
LINE
  5
10E
330
1E
100
AcDbEntity
  8
0
100
AcDbLine
 10
13.048
 20
236.9159999999999
 30
0.0
 11
13.048
 21
237.9119999999999
 31
0.0
  0
LINE
  5
10F
330
1E
100
AcDbEntity
  8
0
100
AcDbLine
 10
13.048
 20
236.9159999999999
 30
0.0
 11
13.048
 21
220.977
 31
0.0
  0
LINE
  5
110
330
1E
100
AcDbEntity
  8
0
100
AcDbLine
 10
13.048
 20
236.9159999999999
 30
0.0
 11
13.048
 21
233.835
 31
0.0
  0
LINE
  5
112
330
1E
100
AcDbEntity
  8
0
100
AcDbLine
 10
13.9503
 20
264.586
 30
0.0
 11
16.2685
 21
264.734
 31
0.0
  0
LINE
  5
114
330
1E
100
AcDbEntity
  8
0
100
AcDbLine
 10
13.548
 20
221.2909999999999
 30
0.0
 11
14.948
 21
221.587
 31
0.0
  0
LINE
  5
115
330
1E
100
AcDbEntity
  8
0
100
AcDbLine
 10
13.048
 20
220.977
 30
0.0
 11
13.548
 21
221.2909999999999
 31
0.0
  0
LINE
  5
116
330
1E
100
AcDbEntity
  8
0
100
AcDbLine
 10
13.048
 20
220.977
 30
0.0
 11
14.048
 21
219.9809999999999
 31
0.0
  0
LINE
  5
117
330
1E
100
AcDbEntity
  8
0
100
AcDbLine
 10
13.048
 20
220.977
 30
0.0
 11
13.048
 21
236.9159999999999
 31
0.0
  0
LINE
  5
118
330
1E
100
AcDbEntity
  8
0
100
AcDbLine
 10
17.84799999999999
 20
220.7829999999999
 30
0.0
 11
20.548
 21
220.9659999999999
 31
0.0
  0
LINE
  5
119
330
1E
100
AcDbEntity
  8
0
100
AcDbLine
 10
17.148
 20
221.8399999999999
 30
0.0
 11
20.04799999999999
 21
222.032
 31
0.0
  0
LINE
  5
11A
330
1E
100
AcDbEntity
  8
0
100
AcDbLine
 10
20.04799999999999
 20
222.032
 30
0.0
 11
23.448
 21
222.154
 31
0.0
  0
LINE
  5
11B
330
1E
100
AcDbEntity
  8
0
100
AcDbLine
 10
23.448
 20
222.154
 30
0.0
 11
27.048
 21
222.197
 31
0.0
  0
LINE
  5
11C
330
1E
100
AcDbEntity
  8
0
100
AcDbLine
 10
20.548
 20
220.9659999999999
 30
0.0
 11
23.748
 21
221.07
 31
0.0
  0
LINE
  5
11D
330
1E
100
AcDbEntity
  8
0
100
AcDbLine
 10
27.048
 20
222.197
 30
0.0
 11
30.648
 21
222.154
 31
0.0
  0
LINE
  5
11E
330
1E
100
AcDbEntity
  8
0
100
AcDbLine
 10
27.048
 20
221.1139999999999
 30
0.0
 11
30.348
 21
221.07
 31
0.0
  0
LINE
  5
11F
330
1E
100
AcDbEntity
  8
0
100
AcDbLine
 10
23.748
 20
221.07
 30
0.0
 11
27.048
 21
221.1139999999999
 31
0.0
  0
LINE
  5
120
330
1E
100
AcDbEntity
  8
0
100
AcDbLine
 10
16.0367
 20
260.2629999999999
 30
0.0
 11
18.5867
 21
260.1409999999999
 31
0.0
  0
LINE
  5
123
330
1E
100
AcDbEntity
  8
0
100
AcDbLine
 10
18.5867
 20
260.153
 30
0.0
 11
21.3685
 21
260.043
 31
0.0
  0
LINE
  5
126
330
1E
100
AcDbEntity
  8
0
100
AcDbLine
 10
16.2685
 20
264.734
 30
0.0
 11
18.8184
 21
264.841
 31
0.0
  0
LINE
  5
128
330
1E
100
AcDbEntity
  8
0
100
AcDbLine
 10
18.8184
 20
264.841
 30
0.0
 11
21.4844
 21
264.9259999999999
 31
0.0
  0
LINE
  5
12A
330
1E
100
AcDbEntity
  8
0
100
AcDbLine
 10
23.548
 20
241.9309999999999
 30
0.0
 11
26.048
 21
242.0449999999999
 31
0.0
  0
LINE
  5
12D
330
1E
100
AcDbEntity
  8
0
100
AcDbLine
 10
21.4844
 20
264.9259999999999
 30
0.0
 11
24.2662
 21
264.979
 31
0.0
  0
LINE
  5
12F
330
1E
100
AcDbEntity
  8
0
100
AcDbLine
 10
24.2662
 20
264.979
 30
0.0
 11
27.048
 21
265.0
 31
0.0
  0
LINE
  5
131
330
1E
100
AcDbEntity
  8
0
100
AcDbLine
 10
26.048
 20
242.0449999999999
 30
0.0
 11
26.548
 21
242.063
 31
0.0
  0
LINE
  5
132
330
1E
100
AcDbEntity
  8
0
100
AcDbLine
 10
27.048
 20
265.0
 30
0.0
 11
29.82979999999999
 21
264.979
 31
0.0
  0
LINE
  5
135
330
1E
100
AcDbEntity
  8
0
100
AcDbLine
 10
27.048
 20
242.072
 30
0.0
 11
27.548
 21
242.063
 31
0.0
  0
LINE
  5
136
330
1E
100
AcDbEntity
  8
0
100
AcDbLine
 10
26.548
 20
242.063
 30
0.0
 11
27.048
 21
242.072
 31
0.0
  0
LINE
  5
137
330
1E
100
AcDbEntity
  8
0
100
AcDbLine
 10
22.148
 20
241.826
 30
0.0
 11
23.548
 21
241.9309999999999
 31
0.0
  0
LINE
  5
138
330
1E
100
AcDbEntity
  8
0
100
AcDbLine
 10
20.948
 20
241.704
 30
0.0
 11
22.148
 21
241.826
 31
0.0
  0
LINE
  5
139
330
1E
100
AcDbEntity
  8
0
100
AcDbLine
 10
20.348
 20
241.5559999999999
 30
0.0
 11
20.948
 21
241.704
 31
0.0
  0
LINE
  5
13A
330
1E
100
AcDbEntity
  8
0
100
AcDbLine
 10
15.448
 20
240.175
 30
0.0
 11
20.348
 21
241.5559999999999
 31
0.0
  0
LINE
  5
13B
330
1E
100
AcDbEntity
  8
0
100
AcDbLine
 10
15.048
 20
239.9049999999999
 30
0.0
 11
15.448
 21
240.175
 31
0.0
  0
LINE
  5
13C
330
1E
100
AcDbEntity
  8
0
100
AcDbLine
 10
14.948
 20
221.587
 30
0.0
 11
17.148
 21
221.8399999999999
 31
0.0
  0
LINE
  5
13D
330
1E
100
AcDbEntity
  8
0
100
AcDbLine
 10
15.74799999999999
 20
220.547
 30
0.0
 11
17.84799999999999
 21
220.7829999999999
 31
0.0
  0
LINE
  5
13E
330
1E
100
AcDbEntity
  8
0
100
AcDbLine
 10
14.548
 20
220.269
 30
0.0
 11
15.74799999999999
 21
220.547
 31
0.0
  0
LINE
  5
13F
330
1E
100
AcDbEntity
  8
0
100
AcDbLine
 10
15.048
 20
219.9809999999999
 30
0.0
 11
15.048
 21
215.598
 31
0.0
  0
LINE
  5
140
330
1E
100
AcDbEntity
  8
0
100
AcDbLine
 10
30.648
 20
222.154
 30
0.0
 11
34.048
 21
222.032
 31
0.0
  0
LINE
  5
141
330
1E
100
AcDbEntity
  8
0
100
AcDbLine
 10
30.348
 20
221.07
 30
0.0
 11
33.548
 21
220.9659999999999
 31
0.0
  0
LINE
  5
144
330
1E
100
AcDbEntity
  8
0
100
AcDbLine
 10
29.82979999999999
 20
264.979
 30
0.0
 11
32.6116
 21
264.9259999999999
 31
0.0
  0
LINE
  5
145
330
1E
100
AcDbEntity
  8
0
100
AcDbLine
 10
27.548
 20
242.063
 30
0.0
 11
28.048
 21
242.0449999999999
 31
0.0
  0
LINE
  5
146
330
1E
100
AcDbEntity
  8
0
100
AcDbLine
 10
28.048
 20
242.0449999999999
 30
0.0
 11
30.548
 21
241.9309999999999
 31
0.0
  0
LINE
  5
147
330
1E
100
AcDbEntity
  8
0
100
AcDbLine
 10
32.6116
 20
264.9259999999999
 30
0.0
 11
35.2776
 21
264.841
 31
0.0
  0
LINE
  5
14A
330
1E
100
AcDbEntity
  8
0
100
AcDbLine
 10
32.7275
 20
260.043
 30
0.0
 11
35.5093
 21
260.1409999999999
 31
0.0
  0
LINE
  5
14C
330
1E
100
AcDbEntity
  8
0
100
AcDbLine
 10
30.548
 20
241.9309999999999
 30
0.0
 11
31.948
 21
241.826
 31
0.0
  0
LINE
  5
14D
330
1E
100
AcDbEntity
  8
0
100
AcDbLine
 10
31.948
 20
241.826
 30
0.0
 11
33.148
 21
241.704
 31
0.0
  0
LINE
  5
14E
330
1E
100
AcDbEntity
  8
0
100
AcDbLine
 10
27.048
 20
216.0209999999999
 30
0.0
 11
30.072
 21
215.9829999999999
 31
0.0
  0
LINE
  5
14F
330
1E
100
AcDbEntity
  8
0
100
AcDbLine
 10
30.072
 20
215.9829999999999
 30
0.0
 11
32.856
 21
215.883
 31
0.0
  0
LINE
  5
150
330
1E
100
AcDbEntity
  8
0
100
AcDbLine
 10
34.048
 20
222.032
 30
0.0
 11
36.948
 21
221.8399999999999
 31
0.0
  0
LINE
  5
151
330
1E
100
AcDbEntity
  8
0
100
AcDbLine
 10
33.548
 20
220.9659999999999
 30
0.0
 11
36.248
 21
220.7829999999999
 31
0.0
  0
LINE
  5
152
330
1E
100
AcDbEntity
  8
0
100
AcDbLine
 10
36.948
 20
221.8399999999999
 30
0.0
 11
39.148
 21
221.587
 31
0.0
  0
LINE
  5
153
330
1E
100
AcDbEntity
  8
0
100
AcDbLine
 10
36.248
 20
220.7829999999999
 30
0.0
 11
38.34799999999999
 21
220.547
 31
0.0
  0
LINE
  5
154
330
1E
100
AcDbEntity
  8
0
100
AcDbLine
 10
35.2776
 20
264.841
 30
0.0
 11
37.8275
 21
264.734
 31
0.0
  0
LINE
  5
156
330
1E
100
AcDbEntity
  8
0
100
AcDbLine
 10
35.53607165354329
 20
260.154154855643
 30
0.0
 11
38.0593
 21
260.2629999999999
 31
0.0
  0
LINE
  5
159
330
1E
100
AcDbEntity
  8
0
100
AcDbLine
 10
33.148
 20
241.704
 30
0.0
 11
33.748
 21
241.5559999999999
 31
0.0
  0
LINE
  5
15A
330
1E
100
AcDbEntity
  8
0
100
AcDbLine
 10
33.748
 20
241.5559999999999
 30
0.0
 11
38.648
 21
240.175
 31
0.0
  0
LINE
  5
15B
330
1E
100
AcDbEntity
  8
0
100
AcDbLine
 10
32.856
 20
215.883
 30
0.0
 11
35.304
 21
215.72
 31
0.0
  0
LINE
  5
15C
330
1E
100
AcDbEntity
  8
0
100
AcDbLine
 10
35.304
 20
215.72
 30
0.0
 11
37.176
 21
215.5059999999999
 31
0.0
  0
LINE
  5
15D
330
1E
100
AcDbEntity
  8
0
100
AcDbLine
 10
39.048
 20
219.57675
 30
0.0
 11
39.548
 21
219.693
 31
0.0
  0
LINE
  5
15E
330
1E
100
AcDbEntity
  8
0
100
AcDbLine
 10
38.34799999999999
 20
220.547
 30
0.0
 11
39.548
 21
220.269
 31
0.0
  0
LINE
  5
161
330
1E
100
AcDbEntity
  8
0
100
AcDbLine
 10
37.8275
 20
264.734
 30
0.0
 11
40.14569999999999
 21
264.586
 31
0.0
  0
LINE
  5
162
330
1E
100
AcDbEntity
  8
0
100
AcDbLine
 10
38.648
 20
240.175
 30
0.0
 11
39.048
 21
239.9049999999999
 31
0.0
  0
LINE
  5
163
330
1E
100
AcDbEntity
  8
0
100
AcDbLine
 10
39.048
 20
239.9049999999999
 30
0.0
 11
40.548
 21
238.909
 31
0.0
  0
LINE
  5
164
330
1E
100
AcDbEntity
  8
0
100
AcDbLine
 10
39.048
 20
219.9809999999999
 30
0.0
 11
39.048
 21
215.598
 31
0.0
  0
LINE
  5
165
330
1E
100
AcDbEntity
  8
0
100
AcDbLine
 10
37.176
 20
215.5059999999999
 30
0.0
 11
38.328
 21
215.264
 31
0.0
  0
LINE
  5
166
330
1E
100
AcDbEntity
  8
0
100
AcDbLine
 10
38.328
 20
215.264
 30
0.0
 11
38.75999999999999
 21
215.0
 31
0.0
  0
LINE
  5
167
330
1E
100
AcDbEntity
  8
0
100
AcDbLine
 10
39.548
 20
219.693
 30
0.0
 11
40.048
 21
219.9809999999999
 31
0.0
  0
LINE
  5
168
330
1E
100
AcDbEntity
  8
0
100
AcDbLine
 10
39.148
 20
221.587
 30
0.0
 11
40.548
 21
221.2909999999999
 31
0.0
  0
LINE
  5
169
330
1E
100
AcDbEntity
  8
0
100
AcDbLine
 10
41.048
 20
220.977
 30
0.0
 11
41.048
 21
236.9159999999999
 31
0.0
  0
LINE
  5
16A
330
1E
100
AcDbEntity
  8
0
100
AcDbLine
 10
40.048
 20
219.9809999999999
 30
0.0
 11
41.048
 21
220.977
 31
0.0
  0
LINE
  5
16B
330
1E
100
AcDbEntity
  8
0
100
AcDbLine
 10
41.048
 20
237.9119999999999
 30
0.0
 11
41.048
 21
236.9159999999999
 31
0.0
  0
LINE
  5
16C
330
1E
100
AcDbEntity
  8
0
100
AcDbLine
 10
41.048
 20
236.9159999999999
 30
0.0
 11
41.048
 21
220.977
 31
0.0
  0
LINE
  5
16D
330
1E
100
AcDbEntity
  8
0
100
AcDbLine
 10
41.048
 20
236.9159999999999
 30
0.0
 11
41.048
 21
237.9119999999999
 31
0.0
  0
LINE
  5
16E
330
1E
100
AcDbEntity
  8
0
100
AcDbLine
 10
40.548
 20
221.2909999999999
 30
0.0
 11
41.048
 21
220.977
 31
0.0
  0
LINE
  5
16F
330
1E
100
AcDbEntity
  8
0
100
AcDbLine
 10
39.548
 20
220.269
 30
0.0
 11
40.048
 21
219.9809999999999
 31
0.0
  0
LINE
  5
171
330
1E
100
AcDbEntity
  8
0
100
AcDbLine
 10
42.34799999999999
 20
264.4159999999999
 30
0.0
 11
44.2025
 21
264.2139999999999
 31
0.0
  0
LINE
  5
175
330
1E
100
AcDbEntity
  8
0
100
AcDbLine
 10
44.2025
 20
264.2139999999999
 30
0.0
 11
45.8253
 21
264.002
 31
0.0
  0
LINE
  5
176
330
1E
100
AcDbEntity
  8
0
100
AcDbLine
 10
45.8253
 20
264.002
 30
0.0
 11
46.9844
 21
263.7679999999999
 31
0.0
  0
LINE
  5
177
330
1E
100
AcDbEntity
  8
0
100
AcDbLine
 10
48.8388
 20
263.1459999999999
 30
0.0
 11
49.0707
 21
262.88
 31
0.0
  0
LINE
  5
178
330
1E
100
AcDbEntity
  8
0
100
AcDbLine
 10
46.9844
 20
263.7679999999999
 30
0.0
 11
47.9116
 21
263.524
 31
0.0
  0
LINE
  5
17A
330
1E
100
AcDbEntity
  8
0
100
AcDbLine
 10
47.9116
 20
263.524
 30
0.0
 11
48.2593
 21
263.4009999999999
 31
0.0
  0
LINE
  5
17B
330
1E
100
AcDbEntity
  8
0
100
AcDbLine
 10
48.2593
 20
263.4009999999999
 30
0.0
 11
48.8388
 21
263.1459999999999
 31
0.0
  0
LINE
  5
17D
330
1E
100
AcDbEntity
  8
0
100
AcDbLine
 10
40.14569999999999
 20
264.586
 30
0.0
 11
42.34799999999999
 21
264.4159999999999
 31
0.0
  0
LINE
  5
181
330
1E
100
AcDbEntity
  8
0
100
AcDbLine
 10
52.3587
 20
242.052
 30
0.0
 11
52.548
 21
248.6779999999999
 31
0.0
  0
LINE
  5
183
330
1E
100
AcDbEntity
  8
0
100
AcDbLine
 10
52.34020000000001
 20
239.901
 30
0.0
 11
52.3587
 21
242.052
 31
0.0
  0
LINE
  5
184
330
1E
100
AcDbEntity
  8
0
100
AcDbLine
 10
49.0707
 20
262.88
 30
0.0
 11
52.548
 21
248.6779999999999
 31
0.0
  0
LINE
  5
185
330
1E
100
AcDbEntity
  8
0
100
AcDbLine
 10
40.548
 20
238.909
 30
0.0
 11
41.048
 21
237.9119999999999
 31
0.0
  0
LINE
  5
186
330
1E
100
AcDbEntity
  8
0
100
AcDbLine
 10
39.048
 20
215.598
 30
0.0
 11
39.048
 21
219.9809999999999
 31
0.0
  0
LINE
  5
187
330
1E
100
AcDbEntity
  8
0
100
AcDbLine
 10
51.548
 20
210.0
 30
0.0
 11
51.548
 21
208.0
 31
0.0
  0
LINE
  5
188
330
1E
100
AcDbEntity
  8
0
100
AcDbLine
 10
2.54799999999999
 20
210.0
 30
0.0
 11
2.54799999999999
 21
208.0
 31
0.0
  0
LINE
  5
189
330
1E
100
AcDbEntity
  8
0
100
AcDbLine
 10
3.07799999999999
 20
208.0
 30
0.0
 11
5.52599999999999
 21
208.0
 31
0.0
  0
LINE
  5
18A
330
1E
100
AcDbEntity
  8
0
100
AcDbLine
 10
2.159999999999989
 20
208.0
 30
0.0
 11
3.07799999999999
 21
208.0
 31
0.0
  0
LINE
  5
18B
330
1E
100
AcDbEntity
  8
0
100
AcDbLine
 10
2.465999999999989
 20
207.4
 30
0.0
 11
4.91399999999999
 21
207.4
 31
0.0
  0
LINE
  5
18C
330
1E
100
AcDbEntity
  8
0
100
AcDbLine
 10
1.547999999999989
 20
207.4
 30
0.0
 11
1.547999999999989
 21
50.0
 31
0.0
  0
LINE
  5
18D
330
1E
100
AcDbEntity
  8
0
100
AcDbLine
 10
1.547999999999989
 20
207.4
 30
0.0
 11
2.465999999999989
 21
207.4
 31
0.0
  0
LINE
  5
18E
330
1E
100
AcDbEntity
  8
0
100
AcDbLine
 10
1.547999999999989
 20
207.4
 30
0.0
 11
2.159999999999989
 21
208.0
 31
0.0
  0
LINE
  5
193
330
1E
100
AcDbEntity
  8
0
100
AcDbLine
 10
21.3685
 20
260.043
 30
0.0
 11
32.7275
 21
260.043
 31
0.0
  0
LINE
  5
194
330
1E
100
AcDbEntity
  8
0
100
AcDbLine
 10
16.0367
 20
260.2629999999999
 30
0.0
 11
9.759447568538007
 21
260.7572706832976
 31
0.0
  0
LINE
  5
195
330
1E
100
AcDbEntity
  8
0
100
AcDbLine
 10
9.759447568538007
 20
260.7572706832976
 30
0.0
 11
5.945982092909389
 21
261.7437340480142
 31
0.0
  0
LINE
  5
196
330
1E
100
AcDbEntity
  8
0
100
AcDbLine
 10
38.0593
 20
260.2629999999999
 30
0.0
 11
43.63199870011544
 21
261.026305864106
 31
0.0
  0
LINE
  5
197
330
1E
100
AcDbEntity
  8
0
100
AcDbLine
 10
43.63199870011544
 20
261.026305864106
 30
0.0
 11
47.31087108268229
 21
262.1472877508042
 31
0.0
  0
LINE
  5
198
330
1E
100
AcDbEntity
  8
0
100
AcDbLine
 10
41.048
 20
220.977
 30
0.0
 11
41.048
 21
173.6041699499863
 31
0.0
  0
LINE
  5
199
330
1E
100
AcDbEntity
  8
0
100
AcDbLine
 10
54.048
 20
43.8618
 30
0.0
 11
54.048
 21
15.8618
 31
0.0
  0
ENDSEC
  0
SECTION
  2
OBJECTS
  0
DICTIONARY
  5
C
330
0
100
AcDbDictionary
  3
ACAD_GROUP
350
D
  3
ACAD_LAYOUT
350
19
  3
ACAD_MLINESTYLE
350
16
  3
ACAD_PLOTSETTINGS
350
18
  3
ACAD_PLOTSTYLENAME
350
E
  3
ACDBHEADERROUNDTRIPXREC
350
19E
  3
ACDBVARIABLEDICTIONARY
350
19B
  0
DICTIONARY
  5
1C0
330
1E
100
AcDbDictionary
280
     1
  3
ACAD_LAYOUTSELFREF
360
1C1
  0
DICTIONARY
  5
1BE
330
1A
100
AcDbDictionary
280
     1
  3
ACAD_LAYOUTSELFREF
360
1BF
  0
DICTIONARY
  5
D
102
{ACAD_REACTORS
330
C
102
}
330
C
100
AcDbDictionary
  0
DICTIONARY
  5
19
102
{ACAD_REACTORS
330
C
102
}
330
C
100
AcDbDictionary
  0
DICTIONARY
  5
16
102
{ACAD_REACTORS
330
C
102
}
330
C
100
AcDbDictionary
  3
STANDARD
350
17
  0
DICTIONARY
  5
18
102
{ACAD_REACTORS
330
C
102
}
330
C
100
AcDbDictionary
  0
ACDBDICTIONARYWDFLT
  5
E
102
{ACAD_REACTORS
330
C
102
}
330
C
100
AcDbDictionary
281
     1
  3
Normal
350
F
100
AcDbDictionaryWithDefault
340
F
  0
DICTIONARY
  5
19E
102
{ACAD_REACTORS
330
C
102
}
330
C
100
AcDbDictionary
  3
CEPSNTYPE
350
1A8
  3
FINGERPRINTGUID
350
1A9
  3
HYPERLINKBASE
350
1A1
  3
INSUNITS
350
1A7
  3
LAYOUTDICT
350
1A3
  3
LWETCUNION
350
1A6
  3
PLOTSETDICT
350
1A4
  3
PLOTSTYLNAMDICT
350
1A5
  3
PSVPSCALE
350
1AB
  3
PUCSBASE
350
1AE
  3
PUCSORGBACK
350
1B4
  3
PUCSORGBOTTOM
350
1B0
  3
PUCSORGFRONT
350
1B3
  3
PUCSORGLEFT
350
1B1
  3
PUCSORGRIGHT
350
1B2
  3
PUCSORGTOP
350
1AF
  3
PUCSORTHOREF
350
1AC
  3
PUCSORTHOVIEW
350
1AD
  3
STYLESHEET
350
1A2
  3
TSTACKALIGN
350
19F
  3
TSTACKSIZE
350
1A0
  3
UCSBASE
350
1B7
  3
UCSORGBACK
350
1BD
  3
UCSORGBOTTOM
350
1B9
  3
UCSORGFRONT
350
1BC
  3
UCSORGLEFT
350
1BA
  3
UCSORGRIGHT
350
1BB
  3
UCSORGTOP
350
1B8
  3
UCSORTHOREF
350
1B5
  3
UCSORTHOVIEW
350
1B6
  3
VERSIONGUID
350
1AA
  0
DICTIONARY
  5
19B
102
{ACAD_REACTORS
330
C
102
}
330
C
100
AcDbDictionary
  3
DIMASSOC
350
19C
  0
XRECORD
  5
1C1
102
{ACAD_REACTORS
330
1C0
102
}
330
1C0
100
AcDbXrecord
340
1E
  0
XRECORD
  5
1BF
102
{ACAD_REACTORS
330
1BE
102
}
330
1BE
100
AcDbXrecord
340
1A
  0
MLINESTYLE
  5
17
102
{ACAD_REACTORS
330
16
102
}
330
16
100
AcDbMlineStyle
  2
STANDARD
 70
     0
  3

 62
   256
 51
90.0
 52
90.0
 71
     2
 49
0.5
 62
   256
  6
BYLAYER
 49
-0.5
 62
   256
  6
BYLAYER
  0
ACDBPLACEHOLDER
  5
F
102
{ACAD_REACTORS
330
E
102
}
330
E
100
AcDbPlaceHolder
280
     0
  0
XRECORD
  5
1A8
102
{ACAD_REACTORS
330
19E
102
}
330
19E
100
AcDbXrecord
 90
        0
  0
XRECORD
  5
1A9
102
{ACAD_REACTORS
330
19E
102
}
330
19E
100
AcDbXrecord
  1
{4E9DAF37-3F39-4830-8CEC-79B6258C8F61}
  0
XRECORD
  5
1A1
102
{ACAD_REACTORS
330
19E
102
}
330
19E
100
AcDbXrecord
  1

  0
XRECORD
  5
1A7
102
{ACAD_REACTORS
330
19E
102
}
330
19E
100
AcDbXrecord
 90
        0
  0
XRECORD
  5
1A3
102
{ACAD_REACTORS
330
19E
102
}
330
19E
100
AcDbXrecord
340
19
  0
XRECORD
  5
1A6
102
{ACAD_REACTORS
330
19E
102
}
330
19E
100
AcDbXrecord
 90
    10781
  0
XRECORD
  5
1A4
102
{ACAD_REACTORS
330
19E
102
}
330
19E
100
AcDbXrecord
340
18
  0
XRECORD
  5
1A5
102
{ACAD_REACTORS
330
19E
102
}
330
19E
100
AcDbXrecord
340
E
  0
XRECORD
  5
1AB
102
{ACAD_REACTORS
330
19E
102
}
330
19E
100
AcDbXrecord
 40
0.0
  0
XRECORD
  5
1AE
102
{ACAD_REACTORS
330
19E
102
}
330
19E
100
AcDbXrecord
340
0
  0
XRECORD
  5
1B4
102
{ACAD_REACTORS
330
19E
102
}
330
19E
100
AcDbXrecord
 10
0.0
 20
0.0
 30
0.0
  0
XRECORD
  5
1B0
102
{ACAD_REACTORS
330
19E
102
}
330
19E
100
AcDbXrecord
 10
0.0
 20
0.0
 30
0.0
  0
XRECORD
  5
1B3
102
{ACAD_REACTORS
330
19E
102
}
330
19E
100
AcDbXrecord
 10
0.0
 20
0.0
 30
0.0
  0
XRECORD
  5
1B1
102
{ACAD_REACTORS
330
19E
102
}
330
19E
100
AcDbXrecord
 10
0.0
 20
0.0
 30
0.0
  0
XRECORD
  5
1B2
102
{ACAD_REACTORS
330
19E
102
}
330
19E
100
AcDbXrecord
 10
0.0
 20
0.0
 30
0.0
  0
XRECORD
  5
1AF
102
{ACAD_REACTORS
330
19E
102
}
330
19E
100
AcDbXrecord
 10
0.0
 20
0.0
 30
0.0
  0
XRECORD
  5
1AC
102
{ACAD_REACTORS
330
19E
102
}
330
19E
100
AcDbXrecord
340
0
  0
XRECORD
  5
1AD
102
{ACAD_REACTORS
330
19E
102
}
330
19E
100
AcDbXrecord
 70
     0
  0
XRECORD
  5
1A2
102
{ACAD_REACTORS
330
19E
102
}
330
19E
100
AcDbXrecord
  1

  0
XRECORD
  5
19F
102
{ACAD_REACTORS
330
19E
102
}
330
19E
100
AcDbXrecord
 90
        1
  0
XRECORD
  5
1A0
102
{ACAD_REACTORS
330
19E
102
}
330
19E
100
AcDbXrecord
 90
       70
  0
XRECORD
  5
1B7
102
{ACAD_REACTORS
330
19E
102
}
330
19E
100
AcDbXrecord
340
0
  0
XRECORD
  5
1BD
102
{ACAD_REACTORS
330
19E
102
}
330
19E
100
AcDbXrecord
 10
0.0
 20
0.0
 30
0.0
  0
XRECORD
  5
1B9
102
{ACAD_REACTORS
330
19E
102
}
330
19E
100
AcDbXrecord
 10
0.0
 20
0.0
 30
0.0
  0
XRECORD
  5
1BC
102
{ACAD_REACTORS
330
19E
102
}
330
19E
100
AcDbXrecord
 10
0.0
 20
0.0
 30
0.0
  0
XRECORD
  5
1BA
102
{ACAD_REACTORS
330
19E
102
}
330
19E
100
AcDbXrecord
 10
0.0
 20
0.0
 30
0.0
  0
XRECORD
  5
1BB
102
{ACAD_REACTORS
330
19E
102
}
330
19E
100
AcDbXrecord
 10
0.0
 20
0.0
 30
0.0
  0
XRECORD
  5
1B8
102
{ACAD_REACTORS
330
19E
102
}
330
19E
100
AcDbXrecord
 10
0.0
 20
0.0
 30
0.0
  0
XRECORD
  5
1B5
102
{ACAD_REACTORS
330
19E
102
}
330
19E
100
AcDbXrecord
340
0
  0
XRECORD
  5
1B6
102
{ACAD_REACTORS
330
19E
102
}
330
19E
100
AcDbXrecord
 70
     1
  0
XRECORD
  5
1AA
102
{ACAD_REACTORS
330
19E
102
}
330
19E
100
AcDbXrecord
  1
{A1B62492-D639-4DBF-8393-85F1DF0D3A92}
  0
DICTIONARYVAR
  5
19C
102
{ACAD_REACTORS
330
19B
102
}
330
19B
100
DictionaryVariables
280
     0
  1
1
  0
ENDSEC
  0
EOF
