  0
SECTION
  2
HEADER
  9
$ACADVER
  1
AC1014
  9
$ACADMAINTVER
 70
     9
  9
$DWGCODEPAGE
  3
ANSI_1252
  9
$INSBASE
 10
0.0
 20
0.0
 30
0.0
  9
$EXTMIN
 10
-0.211894999999997
 20
-0.000000000000016
 30
0.0
  9
$EXTMAX
 10
260.211895
 20
265.0
 30
0.0
  9
$LIMMIN
 10
0.0
 20
0.0
  9
$LIMMAX
 10
12.0
 20
9.0
  9
$ORTHOMODE
 70
     0
  9
$REGENMODE
 70
     1
  9
$FILLMODE
 70
     1
  9
$QTEXTMODE
 70
     0
  9
$MIRRTEXT
 70
     1
  9
$DRAGMODE
 70
     2
  9
$LTSCALE
 40
1.0
  9
$OSMODE
 70
    37
  9
$ATTMODE
 70
     1
  9
$TEXTSIZE
 40
0.2
  9
$TRACEWID
 40
0.05
  9
$TEXTSTYLE
  7
STANDARD
  9
$CLAYER
  8
0
  9
$CELTYPE
  6
CONTINUOUS
  9
$CECOLOR
 62
   256
  9
$CELTSCALE
 40
1.0
  9
$DELOBJ
 70
     1
  9
$DISPSILH
 70
     0
  9
$DIMSCALE
 40
1.0
  9
$DIMASZ
 40
0.18
  9
$DIMEXO
 40
0.0625
  9
$DIMDLI
 40
0.38
  9
$DIMRND
 40
0.0
  9
$DIMDLE
 40
0.0
  9
$DIMEXE
 40
0.18
  9
$DIMTP
 40
0.0
  9
$DIMTM
 40
0.0
  9
$DIMTXT
 40
0.18
  9
$DIMCEN
 40
0.09
  9
$DIMTSZ
 40
0.0
  9
$DIMTOL
 70
     0
  9
$DIMLIM
 70
     0
  9
$DIMTIH
 70
     1
  9
$DIMTOH
 70
     1
  9
$DIMSE1
 70
     0
  9
$DIMSE2
 70
     0
  9
$DIMTAD
 70
     0
  9
$DIMZIN
 70
     0
  9
$DIMBLK
  1

  9
$DIMASO
 70
     1
  9
$DIMSHO
 70
     1
  9
$DIMPOST
  1

  9
$DIMAPOST
  1

  9
$DIMALT
 70
     0
  9
$DIMALTD
 70
     2
  9
$DIMALTF
 40
25.4
  9
$DIMLFAC
 40
1.0
  9
$DIMTOFL
 70
     0
  9
$DIMTVP
 40
0.0
  9
$DIMTIX
 70
     0
  9
$DIMSOXD
 70
     0
  9
$DIMSAH
 70
     0
  9
$DIMBLK1
  1

  9
$DIMBLK2
  1

  9
$DIMSTYLE
  2
STANDARD
  9
$DIMCLRD
 70
     0
  9
$DIMCLRE
 70
     0
  9
$DIMCLRT
 70
     0
  9
$DIMTFAC
 40
1.0
  9
$DIMGAP
 40
0.09
  9
$DIMJUST
 70
     0
  9
$DIMSD1
 70
     0
  9
$DIMSD2
 70
     0
  9
$DIMTOLJ
 70
     1
  9
$DIMTZIN
 70
     0
  9
$DIMALTZ
 70
     0
  9
$DIMALTTZ
 70
     0
  9
$DIMFIT
 70
     3
  9
$DIMUPT
 70
     0
  9
$DIMUNIT
 70
     2
  9
$DIMDEC
 70
     4
  9
$DIMTDEC
 70
     4
  9
$DIMALTU
 70
     2
  9
$DIMALTTD
 70
     2
  9
$DIMTXSTY
  7
STANDARD
  9
$DIMAUNIT
 70
     0
  9
$LUNITS
 70
     2
  9
$LUPREC
 70
     4
  9
$SKETCHINC
 40
0.1
  9
$FILLETRAD
 40
0.0
  9
$AUNITS
 70
     0
  9
$AUPREC
 70
     0
  9
$MENU
  1
.
  9
$ELEVATION
 40
0.0
  9
$PELEVATION
 40
0.0
  9
$THICKNESS
 40
0.0
  9
$LIMCHECK
 70
     0
  9
$BLIPMODE
 70
     0
  9
$CHAMFERA
 40
0.0
  9
$CHAMFERB
 40
0.0
  9
$CHAMFERC
 40
0.0
  9
$CHAMFERD
 40
0.0
  9
$SKPOLY
 70
     0
  9
$TDCREATE
 40
2455233.481510046
  9
$TDUPDATE
 40
2455233.482898391
  9
$TDINDWG
 40
0.0013885301
  9
$TDUSRTIMER
 40
0.0013885301
  9
$USRTIMER
 70
     1
  9
$ANGBASE
 50
0.0
  9
$ANGDIR
 70
     0
  9
$PDMODE
 70
     0
  9
$PDSIZE
 40
0.0
  9
$PLINEWID
 40
0.0
  9
$COORDS
 70
     1
  9
$SPLFRAME
 70
     0
  9
$SPLINETYPE
 70
     6
  9
$SPLINESEGS
 70
     8
  9
$ATTDIA
 70
     0
  9
$ATTREQ
 70
     1
  9
$HANDLING
 70
 22529
  9
$HANDSEED
  5
1CD
  9
$SURFTAB1
 70
     6
  9
$SURFTAB2
 70
     6
  9
$SURFTYPE
 70
     6
  9
$SURFU
 70
     6
  9
$SURFV
 70
     6
  9
$UCSNAME
  2

  9
$UCSORG
 10
0.0
 20
0.0
 30
0.0
  9
$UCSXDIR
 10
1.0
 20
0.0
 30
0.0
  9
$UCSYDIR
 10
0.0
 20
1.0
 30
0.0
  9
$PUCSNAME
  2

  9
$PUCSORG
 10
0.0
 20
0.0
 30
0.0
  9
$PUCSXDIR
 10
1.0
 20
0.0
 30
0.0
  9
$PUCSYDIR
 10
0.0
 20
1.0
 30
0.0
  9
$USERI1
 70
     0
  9
$USERI2
 70
     0
  9
$USERI3
 70
     0
  9
$USERI4
 70
     0
  9
$USERI5
 70
     0
  9
$USERR1
 40
0.0
  9
$USERR2
 40
0.0
  9
$USERR3
 40
0.0
  9
$USERR4
 40
0.0
  9
$USERR5
 40
0.0
  9
$WORLDVIEW
 70
     1
  9
$SHADEDGE
 70
     3
  9
$SHADEDIF
 70
    70
  9
$TILEMODE
 70
     1
  9
$MAXACTVP
 70
    64
  9
$PINSBASE
 10
0.0
 20
0.0
 30
0.0
  9
$PLIMCHECK
 70
     0
  9
$PEXTMIN
 10
1.000000000000000E+20
 20
1.000000000000000E+20
 30
1.000000000000000E+20
  9
$PEXTMAX
 10
-1.000000000000000E+20
 20
-1.000000000000000E+20
 30
-1.000000000000000E+20
  9
$PLIMMIN
 10
0.0
 20
0.0
  9
$PLIMMAX
 10
12.0
 20
9.0
  9
$UNITMODE
 70
     0
  9
$VISRETAIN
 70
     1
  9
$PLINEGEN
 70
     0
  9
$PSLTSCALE
 70
     1
  9
$TREEDEPTH
 70
  3020
  9
$PICKSTYLE
 70
     1
  9
$CMLSTYLE
  2
STANDARD
  9
$CMLJUST
 70
     0
  9
$CMLSCALE
 40
1.0
  9
$PROXYGRAPHICS
 70
     1
  9
$MEASUREMENT
 70
     0
  0
ENDSEC
  0
SECTION
  2
CLASSES
  0
CLASS
  1
ACDBDICTIONARYWDFLT
  2
AcDbDictionaryWithDefault
  3
AutoCAD 2000
 90
        0
280
     0
281
     0
  0
CLASS
  1
ACDBPLACEHOLDER
  2
AcDbPlaceHolder
  3
AutoCAD 2000
 90
        0
280
     0
281
     0
  0
CLASS
  1
LAYOUT
  2
AcDbLayout
  3
AutoCAD 2000
 90
        0
280
     0
281
     0
  0
CLASS
  1
DICTIONARYVAR
  2
AcDbDictionaryVar
  3
AutoCAD 2000
 90
        0
280
     0
281
     0
  0
CLASS
  1
LONG_TRANSACTION
  2
AcDbLongTransaction
  3
AutoCAD 2000
 90
        0
280
     0
281
     0
  0
CLASS
  1
LWPOLYLINE
  2
AcDbPolyline
  3
AutoCAD 2000
 90
        0
280
     0
281
     1
  0
CLASS
  1
HATCH
  2
AcDbHatch
  3
AutoCAD 2000
 90
        0
280
     0
281
     1
  0
CLASS
  1
XRECORD
  2
AcDbXrecord
  3
AutoCAD 2000
 90
        0
280
     0
281
     0
  0
ENDSEC
  0
SECTION
  2
TABLES
  0
TABLE
  2
VPORT
  5
8
330
0
100
AcDbSymbolTable
 70
     3
  0
VPORT
  5
1A8
330
8
100
AcDbSymbolTableRecord
100
AcDbViewportTableRecord
  2
*ACTIVE
 70
     0
 10
0.0
 20
0.0
 11
1.0
 21
1.0
 12
130.0
 22
132.4999999999999
 13
0.0
 23
0.0
 14
1.0
 24
1.0
 15
0.0
 25
0.0
 16
0.0
 26
0.0
 36
1.0
 17
0.0
 27
0.0
 37
0.0
 40
266.7396061269146
 41
2.041621029572836
 42
50.0
 43
0.0
 44
0.0
 50
0.0
 51
0.0
 71
     0
 72
   100
 73
     1
 74
     3
 75
     0
 76
     0
 77
     0
 78
     0
  0
ENDTAB
  0
TABLE
  2
LTYPE
  5
5
330
0
100
AcDbSymbolTable
 70
     1
  0
LTYPE
  5
13
330
5
100
AcDbSymbolTableRecord
100
AcDbLinetypeTableRecord
  2
BYBLOCK
 70
     0
  3

 72
    65
 73
     0
 40
0.0
  0
LTYPE
  5
14
330
5
100
AcDbSymbolTableRecord
100
AcDbLinetypeTableRecord
  2
BYLAYER
 70
     0
  3

 72
    65
 73
     0
 40
0.0
  0
LTYPE
  5
15
330
5
100
AcDbSymbolTableRecord
100
AcDbLinetypeTableRecord
  2
CONTINUOUS
 70
     0
  3
Solid line
 72
    65
 73
     0
 40
0.0
  0
ENDTAB
  0
TABLE
  2
LAYER
  5
2
330
0
100
AcDbSymbolTable
 70
     1
  0
LAYER
  5
10
330
2
100
AcDbSymbolTableRecord
100
AcDbLayerTableRecord
  2
0
 70
     0
 62
     7
  6
CONTINUOUS
  0
ENDTAB
  0
TABLE
  2
STYLE
  5
3
330
0
100
AcDbSymbolTable
 70
     1
  0
STYLE
  5
11
330
3
100
AcDbSymbolTableRecord
100
AcDbTextStyleTableRecord
  2
STANDARD
 70
     0
 40
0.0
 41
1.0
 50
0.0
 71
     0
 42
0.2
  3
txt
  4

  0
ENDTAB
  0
TABLE
  2
VIEW
  5
6
330
0
100
AcDbSymbolTable
 70
     0
  0
ENDTAB
  0
TABLE
  2
UCS
  5
7
330
0
100
AcDbSymbolTable
 70
     0
  0
ENDTAB
  0
TABLE
  2
APPID
  5
9
330
0
100
AcDbSymbolTable
 70
     1
  0
APPID
  5
12
330
9
100
AcDbSymbolTableRecord
100
AcDbRegAppTableRecord
  2
ACAD
 70
     0
  0
ENDTAB
  0
TABLE
  2
DIMSTYLE
  5
A
330
0
100
AcDbSymbolTable
 70
     1
  0
DIMSTYLE
105
19B
330
A
100
AcDbSymbolTableRecord
100
AcDbDimStyleTableRecord
  2
STANDARD
 70
     0
  3

  4

  5

  6

  7

 40
1.0
 41
0.18
 42
0.0625
 43
0.38
 44
0.18
 45
0.0
 46
0.0
 47
0.0
 48
0.0
140
0.18
141
0.09
142
0.0
143
25.4
144
1.0
145
0.0
146
1.0
147
0.09
 71
     0
 72
     0
 73
     1
 74
     1
 75
     0
 76
     0
 77
     0
 78
     0
170
     0
171
     2
172
     0
173
     0
174
     0
175
     0
176
     0
177
     0
178
     0
270
     2
271
     4
272
     4
273
     2
274
     2
340
11
275
     0
280
     0
281
     0
282
     0
283
     1
284
     0
285
     0
286
     0
287
     3
288
     0
  0
ENDTAB
  0
TABLE
  2
BLOCK_RECORD
  5
1
330
0
100
AcDbSymbolTable
 70
     0
  0
BLOCK_RECORD
  5
1E
102
{ACAD_XDICTIONARY
360
1CB
102
}
330
1
100
AcDbSymbolTableRecord
100
AcDbBlockTableRecord
  2
*MODEL_SPACE
  0
BLOCK_RECORD
  5
1A
102
{ACAD_XDICTIONARY
360
1C9
102
}
330
1
100
AcDbSymbolTableRecord
100
AcDbBlockTableRecord
  2
*PAPER_SPACE
  0
ENDTAB
  0
ENDSEC
  0
SECTION
  2
BLOCKS
  0
BLOCK
  5
1F
330
1E
100
AcDbEntity
  8
0
100
AcDbBlockBegin
  2
*MODEL_SPACE
 70
     0
 10
0.0
 20
0.0
 30
0.0
  3
*MODEL_SPACE
  1

  0
ENDBLK
  5
20
330
1E
100
AcDbEntity
  8
0
100
AcDbBlockEnd
  0
BLOCK
  5
1B
330
1A
100
AcDbEntity
 67
     1
  8
0
100
AcDbBlockBegin
  2
*PAPER_SPACE
 70
     0
 10
0.0
 20
0.0
 30
0.0
  3
*PAPER_SPACE
  1

  0
ENDBLK
  5
1C
330
1A
100
AcDbEntity
 67
     1
  8
0
100
AcDbBlockEnd
  0
ENDSEC
  0
SECTION
  2
ENTITIES
  0
LINE
  5
22
330
1E
100
AcDbEntity
  8
0
100
AcDbLine
 10
207.164895
 20
-0.0000000000000128
 30
0.0
 11
209.864895
 21
-0.000000000000013
 31
0.0
  0
LINE
  5
23
330
1E
100
AcDbEntity
  8
0
100
AcDbLine
 10
207.5618949999999
 20
49.5192
 30
0.0
 11
210.182895
 21
49.5192
 31
0.0
  0
LINE
  5
24
330
1E
100
AcDbEntity
  8
0
100
AcDbLine
 10
207.402895
 20
50.0
 30
0.0
 11
208.355895
 21
50.0
 31
0.0
  0
LINE
  5
25
330
1E
100
AcDbEntity
  8
0
100
AcDbLine
 10
206.608895
 20
49.5192
 30
0.0
 11
207.402895
 21
50.0
 31
0.0
  0
LINE
  5
26
330
1E
100
AcDbEntity
  8
0
100
AcDbLine
 10
206.608895
 20
49.5192
 30
0.0
 11
207.5618949999999
 21
49.5192
 31
0.0
  0
LINE
  5
27
330
1E
100
AcDbEntity
  8
0
100
AcDbLine
 10
206.2118949999999
 20
48.55769999999999
 30
0.0
 11
206.608895
 21
49.5192
 31
0.0
  0
LINE
  5
28
330
1E
100
AcDbEntity
  8
0
100
AcDbLine
 10
206.2118949999999
 20
48.55769999999999
 30
0.0
 11
206.2118949999999
 21
-0.0000000000000147
 31
0.0
  0
LINE
  5
29
330
1E
100
AcDbEntity
  8
0
100
AcDbLine
 10
206.2118949999999
 20
-0.0000000000000127
 30
0.0
 11
207.164895
 21
-0.0000000000000128
 31
0.0
  0
LINE
  5
2A
330
1E
100
AcDbEntity
  8
0
100
AcDbLine
 10
206.2118949999999
 20
-0.0000000000000127
 30
0.0
 11
206.2118949999999
 21
48.55769999999999
 31
0.0
  0
LINE
  5
2B
330
1E
100
AcDbEntity
  8
0
100
AcDbLine
 10
189.0138949999999
 20
168.6609999999999
 30
0.0
 11
207.711895
 21
159.282883512295
 31
0.0
  0
LINE
  5
2C
330
1E
100
AcDbEntity
  8
0
100
AcDbLine
 10
162.117895
 20
180.8239999999999
 30
0.0
 11
189.0138949999999
 21
168.6609999999999
 31
0.0
  0
LINE
  5
2D
330
1E
100
AcDbEntity
  8
0
100
AcDbLine
 10
207.711895
 20
159.282883512295
 30
0.0
 11
207.711895
 21
50.0
 31
0.0
  0
LINE
  5
2E
330
1E
100
AcDbEntity
  8
0
100
AcDbLine
 10
1.544464999999999
 20
216.0209999999999
 30
0.0
 11
1.974815
 21
215.9829999999999
 31
0.0
  0
LINE
  5
2F
330
1E
100
AcDbEntity
  8
0
100
AcDbLine
 10
1.974815
 20
215.9829999999999
 30
0.0
 11
3.122434999999999
 21
215.883
 31
0.0
  0
LINE
  5
30
330
1E
100
AcDbEntity
  8
0
100
AcDbLine
 10
3.122434999999999
 20
215.883
 30
0.0
 11
4.987314999999999
 21
215.72
 31
0.0
  0
LINE
  5
31
330
1E
100
AcDbEntity
  8
0
100
AcDbLine
 10
4.987314999999999
 20
215.72
 30
0.0
 11
7.425994999999999
 21
215.5059999999999
 31
0.0
  0
LINE
  5
32
330
1E
100
AcDbEntity
  8
0
100
AcDbLine
 10
7.425994999999999
 20
215.5059999999999
 30
0.0
 11
10.19939499999999
 21
215.264
 31
0.0
  0
LINE
  5
33
330
1E
100
AcDbEntity
  8
0
100
AcDbLine
 10
24.448995
 20
214.0169999999999
 30
0.0
 11
24.879295
 21
213.979
 31
0.0
  0
LINE
  5
34
330
1E
100
AcDbEntity
  8
0
100
AcDbLine
 10
130.9178949999999
 20
192.5309999999999
 30
0.0
 11
162.117895
 21
180.8239999999999
 31
0.0
  0
LINE
  5
35
330
1E
100
AcDbEntity
  8
0
100
AcDbLine
 10
102.2698949999999
 20
201.935
 30
0.0
 11
130.9178949999999
 21
192.5309999999999
 31
0.0
  0
LINE
  5
36
330
1E
100
AcDbEntity
  8
0
100
AcDbLine
 10
136.931895
 20
211.6049999999999
 30
0.0
 11
168.1318949999999
 21
199.8979999999999
 31
0.0
  0
LINE
  5
37
330
1E
100
AcDbEntity
  8
0
100
AcDbLine
 10
78.181095
 20
209.375
 30
0.0
 11
102.2698949999999
 21
201.935
 31
0.0
  0
LINE
  5
38
330
1E
100
AcDbEntity
  8
0
100
AcDbLine
 10
24.879295
 20
213.979
 30
0.0
 11
25.218495
 21
214.552
 31
0.0
  0
LINE
  5
39
330
1E
100
AcDbEntity
  8
0
100
AcDbLine
 10
21.43649499999999
 20
214.28
 30
0.0
 11
23.301395
 21
214.117
 31
0.0
  0
LINE
  5
3A
330
1E
100
AcDbEntity
  8
0
100
AcDbLine
 10
23.301395
 20
214.117
 30
0.0
 11
24.448995
 21
214.0169999999999
 31
0.0
  0
LINE
  5
3B
330
1E
100
AcDbEntity
  8
0
100
AcDbLine
 10
18.997795
 20
214.494
 30
0.0
 11
21.43649499999999
 21
214.28
 31
0.0
  0
LINE
  5
3F
330
1E
100
AcDbEntity
  8
0
100
AcDbLine
 10
207.268331806478
 20
216.3728020680499
 30
0.0
 11
207.998895
 21
210.0
 31
0.0
  0
LINE
  5
40
330
1E
100
AcDbEntity
  8
0
100
AcDbLine
 10
53.85009499999999
 20
214.975
 30
0.0
 11
78.181095
 21
209.375
 31
0.0
  0
LINE
  5
41
330
1E
100
AcDbEntity
  8
0
100
AcDbLine
 10
16.224395
 20
214.7359999999999
 30
0.0
 11
18.997795
 21
214.494
 31
0.0
  0
LINE
  5
42
330
1E
100
AcDbEntity
  8
0
100
AcDbLine
 10
13.211895
 20
215.0
 30
0.0
 11
16.224395
 21
214.7359999999999
 31
0.0
  0
LINE
  5
43
330
1E
100
AcDbEntity
  8
0
100
AcDbLine
 10
25.218495
 20
214.552
 30
0.0
 11
25.6020132493791
 21
218.935333195637
 31
0.0
  0
LINE
  5
44
330
1E
100
AcDbEntity
  8
0
100
AcDbLine
 10
10.19939499999999
 20
215.264
 30
0.0
 11
13.211895
 21
215.0
 31
0.0
  0
LINE
  5
45
330
1E
100
AcDbEntity
  8
0
100
AcDbLine
 10
0.286205000000003
 20
222.154
 30
0.0
 11
1.680874999999999
 21
222.032
 31
0.0
  0
LINE
  5
46
330
1E
100
AcDbEntity
  8
0
100
AcDbLine
 10
-0.211894999999997
 20
222.197
 30
0.0
 11
0.6971450000000022
 21
221.1139999999999
 31
0.0
  0
LINE
  5
47
330
1E
100
AcDbEntity
  8
0
100
AcDbLine
 10
-0.211894999999997
 20
222.197
 30
0.0
 11
1.182595
 21
238.1359999999999
 31
0.0
  0
LINE
  5
48
330
1E
100
AcDbEntity
  8
0
100
AcDbLine
 10
-0.211894999999997
 20
222.197
 30
0.0
 11
0.286205000000003
 21
222.154
 31
0.0
  0
LINE
  5
49
330
1E
100
AcDbEntity
  8
0
100
AcDbLine
 10
2.390674999999999
 20
220.9659999999999
 30
0.0
 11
4.482685
 21
220.7829999999999
 31
0.0
  0
LINE
  5
4A
330
1E
100
AcDbEntity
  8
0
100
AcDbLine
 10
4.482685
 20
220.7829999999999
 30
0.0
 11
7.172405
 21
220.547
 31
0.0
  0
LINE
  5
4B
330
1E
100
AcDbEntity
  8
0
100
AcDbLine
 10
7.172405
 20
220.547
 30
0.0
 11
10.36019499999999
 21
220.269
 31
0.0
  0
LINE
  5
4C
330
1E
100
AcDbEntity
  8
0
100
AcDbLine
 10
22.812695
 20
219.179
 30
0.0
 11
24.904695
 21
218.9959999999999
 31
0.0
  0
LINE
  5
4D
330
1E
100
AcDbEntity
  8
0
100
AcDbLine
 10
24.904695
 20
218.9959999999999
 30
0.0
 11
26.100095
 21
218.8919999999999
 31
0.0
  0
LINE
  5
4E
330
1E
100
AcDbEntity
  8
0
100
AcDbLine
 10
25.788795
 20
219.923
 30
0.0
 11
27.183495
 21
219.801
 31
0.0
  0
LINE
  5
4F
330
1E
100
AcDbEntity
  8
0
100
AcDbLine
 10
20.122895
 20
219.414
 30
0.0
 11
22.812695
 21
219.179
 31
0.0
  0
LINE
  5
50
330
1E
100
AcDbEntity
  8
0
100
AcDbLine
 10
16.935095
 20
219.693
 30
0.0
 11
20.122895
 21
219.414
 31
0.0
  0
LINE
  5
51
330
1E
100
AcDbEntity
  8
0
100
AcDbLine
 10
23.597195
 20
220.114
 30
0.0
 11
25.788795
 21
219.923
 31
0.0
  0
LINE
  5
52
330
1E
100
AcDbEntity
  8
0
100
AcDbLine
 10
20.708195
 20
220.367
 30
0.0
 11
23.597195
 21
220.114
 31
0.0
  0
LINE
  5
53
330
1E
100
AcDbEntity
  8
0
100
AcDbLine
 10
17.32109499999999
 20
220.663
 30
0.0
 11
20.708195
 21
220.367
 31
0.0
  0
LINE
  5
54
330
1E
100
AcDbEntity
  8
0
100
AcDbLine
 10
13.734795
 20
220.977
 30
0.0
 11
17.32109499999999
 21
220.663
 31
0.0
  0
LINE
  5
55
330
1E
100
AcDbEntity
  8
0
100
AcDbLine
 10
13.647695
 20
219.9809999999999
 30
0.0
 11
16.935095
 21
219.693
 31
0.0
  0
LINE
  5
56
330
1E
100
AcDbEntity
  8
0
100
AcDbLine
 10
10.36019499999999
 20
220.269
 30
0.0
 11
13.647695
 21
219.9809999999999
 31
0.0
  0
LINE
  5
57
330
1E
100
AcDbEntity
  8
0
100
AcDbLine
 10
25.6020132493791
 20
218.935333195637
 30
0.0
 11
26.100095
 21
218.8919999999999
 31
0.0
  0
LINE
  5
5D
330
1E
100
AcDbEntity
  8
0
100
AcDbLine
 10
27.183495
 20
219.801
 30
0.0
 11
27.681595
 21
219.757
 31
0.0
  0
LINE
  5
66
330
1E
100
AcDbEntity
  8
0
100
AcDbLine
 10
31.604895
 20
219.063
 30
0.0
 11
53.85009499999999
 21
214.975
 31
0.0
  0
LINE
  5
67
330
1E
100
AcDbEntity
  8
0
100
AcDbLine
 10
27.6084306567495
 20
219.7169828283829
 30
0.0
 11
31.604895
 21
219.063
 31
0.0
  0
LINE
  5
68
330
1E
100
AcDbEntity
  8
0
100
AcDbLine
 10
26.598195
 20
218.8479999999999
 30
0.0
 11
27.681595
 21
219.757
 31
0.0
  0
LINE
  5
69
330
1E
100
AcDbEntity
  8
0
100
AcDbLine
 10
26.100095
 20
218.8919999999999
 30
0.0
 11
26.598195
 21
218.8479999999999
 31
0.0
  0
LINE
  5
6A
330
1E
100
AcDbEntity
  8
0
100
AcDbLine
 10
1.680874999999999
 20
222.032
 30
0.0
 11
3.872505
 21
221.8399999999999
 31
0.0
  0
LINE
  5
6B
330
1E
100
AcDbEntity
  8
0
100
AcDbLine
 10
3.872505
 20
221.8399999999999
 30
0.0
 11
6.761464999999999
 21
221.587
 31
0.0
  0
LINE
  5
6C
330
1E
100
AcDbEntity
  8
0
100
AcDbLine
 10
6.761464999999999
 20
221.587
 30
0.0
 11
10.148495
 21
221.2909999999999
 31
0.0
  0
LINE
  5
6D
330
1E
100
AcDbEntity
  8
0
100
AcDbLine
 10
10.148495
 20
221.2909999999999
 30
0.0
 11
13.734795
 21
220.977
 31
0.0
  0
LINE
  5
70
330
1E
100
AcDbEntity
  8
0
100
AcDbLine
 10
83.357495
 20
228.694
 30
0.0
 11
107.4458949999999
 21
221.253
 31
0.0
  0
LINE
  5
72
330
1E
100
AcDbEntity
  8
0
100
AcDbLine
 10
204.350895
 20
241.822
 30
0.0
 11
207.268331806478
 21
216.3728020680499
 31
0.0
  0
LINE
  5
73
330
1E
100
AcDbEntity
  8
0
100
AcDbLine
 10
15.565095
 20
241.897
 30
0.0
 11
35.07789499999999
 21
238.759
 31
0.0
  0
LINE
  5
74
330
1E
100
AcDbEntity
  8
0
100
AcDbLine
 10
118.711895
 20
264.1549999999999
 30
0.0
 11
118.9128949999999
 21
264.8979999999999
 31
0.0
  0
LINE
  5
75
330
1E
100
AcDbEntity
  8
0
100
AcDbLine
 10
118.711895
 20
264.1549999999999
 30
0.0
 11
119.245895
 21
263.194
 31
0.0
  0
LINE
  5
77
330
1E
100
AcDbEntity
  8
0
100
AcDbLine
 10
200.9308949999999
 20
246.192
 30
0.0
 11
202.034895
 21
245.377
 31
0.0
  0
LINE
  5
78
330
1E
100
AcDbEntity
  8
0
100
AcDbLine
 10
199.618895
 20
246.938
 30
0.0
 11
200.9308949999999
 21
246.192
 31
0.0
  0
LINE
  5
79
330
1E
100
AcDbEntity
  8
0
100
AcDbLine
 10
197.8848949999999
 20
247.7829999999999
 30
0.0
 11
199.618895
 21
246.938
 31
0.0
  0
LINE
  5
7A
330
1E
100
AcDbEntity
  8
0
100
AcDbLine
 10
195.8178949999999
 20
248.442
 30
0.0
 11
197.8848949999999
 21
247.7829999999999
 31
0.0
  0
LINE
  5
7B
330
1E
100
AcDbEntity
  8
0
100
AcDbLine
 10
193.0678949999999
 20
249.0679999999999
 30
0.0
 11
195.8178949999999
 21
248.442
 31
0.0
  0
LINE
  5
7C
330
1E
100
AcDbEntity
  8
0
100
AcDbLine
 10
190.385895
 20
249.628
 30
0.0
 11
193.0678949999999
 21
249.0679999999999
 31
0.0
  0
LINE
  5
7D
330
1E
100
AcDbEntity
  8
0
100
AcDbLine
 10
203.062895
 20
244.374
 30
0.0
 11
203.838895
 21
243.1779999999999
 31
0.0
  0
LINE
  5
7E
330
1E
100
AcDbEntity
  8
0
100
AcDbLine
 10
202.034895
 20
245.377
 30
0.0
 11
203.062895
 21
244.374
 31
0.0
  0
LINE
  5
85
330
1E
100
AcDbEntity
  8
0
100
AcDbLine
 10
130.8168949999999
 20
259.9569999999999
 30
0.0
 11
138.2328949999999
 21
258.711
 31
0.0
  0
LINE
  5
86
330
1E
100
AcDbEntity
  8
0
100
AcDbLine
 10
124.1688949999999
 20
261.281
 30
0.0
 11
130.8168949999999
 21
259.9569999999999
 31
0.0
  0
LINE
  5
90
330
1E
100
AcDbEntity
  8
0
100
AcDbLine
 10
125.994895
 20
264.419
 30
0.0
 11
128.010895
 21
264.2279999999999
 31
0.0
  0
LINE
  5
93
330
1E
100
AcDbEntity
  8
0
100
AcDbLine
 10
128.010895
 20
264.2279999999999
 30
0.0
 11
130.2508949999999
 21
264.0159999999999
 31
0.0
  0
LINE
  5
94
330
1E
100
AcDbEntity
  8
0
100
AcDbLine
 10
135.067895
 20
263.559
 30
0.0
 11
137.6438949999999
 21
263.315
 31
0.0
  0
LINE
  5
95
330
1E
100
AcDbEntity
  8
0
100
AcDbLine
 10
137.6438949999999
 20
263.315
 30
0.0
 11
140.2178949999999
 21
263.072
 31
0.0
  0
LINE
  5
99
330
1E
100
AcDbEntity
  8
0
100
AcDbLine
 10
120.057895
 20
264.982
 30
0.0
 11
120.2818949999999
 21
264.961
 31
0.0
  0
LINE
  5
9A
330
1E
100
AcDbEntity
  8
0
100
AcDbLine
 10
120.2818949999999
 20
264.961
 30
0.0
 11
120.8418949999999
 21
264.908
 31
0.0
  0
LINE
  5
9B
330
1E
100
AcDbEntity
  8
0
100
AcDbLine
 10
120.8418949999999
 20
264.908
 30
0.0
 11
121.625895
 21
264.8329999999999
 31
0.0
  0
LINE
  5
9C
330
1E
100
AcDbEntity
  8
0
100
AcDbLine
 10
121.625895
 20
264.8329999999999
 30
0.0
 11
122.7458949999999
 21
264.727
 31
0.0
  0
LINE
  5
9D
330
1E
100
AcDbEntity
  8
0
100
AcDbLine
 10
122.7458949999999
 20
264.727
 30
0.0
 11
124.313895
 21
264.579
 31
0.0
  0
LINE
  5
9E
330
1E
100
AcDbEntity
  8
0
100
AcDbLine
 10
124.313895
 20
264.579
 30
0.0
 11
125.994895
 21
264.419
 31
0.0
  0
LINE
  5
9F
330
1E
100
AcDbEntity
  8
0
100
AcDbLine
 10
140.2178949999999
 20
263.072
 30
0.0
 11
233.052895
 21
248.898
 31
0.0
  0
LINE
  5
A1
330
1E
100
AcDbEntity
  8
0
100
AcDbLine
 10
120.893895
 20
262.304
 30
0.0
 11
124.1688949999999
 21
261.281
 31
0.0
  0
LINE
  5
A2
330
1E
100
AcDbEntity
  8
0
100
AcDbLine
 10
119.245895
 20
263.194
 30
0.0
 11
120.893895
 21
262.304
 31
0.0
  0
LINE
  5
A3
330
1E
100
AcDbEntity
  8
0
100
AcDbLine
 10
138.2328949999999
 20
258.711
 30
0.0
 11
190.385895
 21
249.628
 31
0.0
  0
LINE
  5
A5
330
1E
100
AcDbEntity
  8
0
100
AcDbLine
 10
203.838895
 20
243.1779999999999
 30
0.0
 11
204.350895
 21
241.822
 31
0.0
  0
LINE
  5
A6
330
1E
100
AcDbEntity
  8
0
100
AcDbLine
 10
119.265895
 20
265.0
 30
0.0
 11
120.057895
 21
264.982
 31
0.0
  0
LINE
  5
A7
330
1E
100
AcDbEntity
  8
0
100
AcDbLine
 10
118.9128949999999
 20
264.8979999999999
 30
0.0
 11
119.265895
 21
265.0
 31
0.0
  0
LINE
  5
AA
330
1E
100
AcDbEntity
  8
0
100
AcDbLine
 10
8.548194999999999
 20
242.009
 30
0.0
 11
13.572695
 21
242.072
 31
0.0
  0
LINE
  5
AB
330
1E
100
AcDbEntity
  8
0
100
AcDbLine
 10
3.436455
 20
240.951
 30
0.0
 11
8.548194999999999
 21
242.009
 31
0.0
  0
LINE
  5
AC
330
1E
100
AcDbEntity
  8
0
100
AcDbLine
 10
1.855005
 20
240.085
 30
0.0
 11
3.436455
 21
240.951
 31
0.0
  0
LINE
  5
AD
330
1E
100
AcDbEntity
  8
0
100
AcDbLine
 10
1.269754999999999
 20
239.1329999999999
 30
0.0
 11
1.855005
 21
240.085
 31
0.0
  0
LINE
  5
AE
330
1E
100
AcDbEntity
  8
0
100
AcDbLine
 10
1.182595
 20
238.1359999999999
 30
0.0
 11
1.269754999999999
 21
239.1329999999999
 31
0.0
  0
LINE
  5
AF
330
1E
100
AcDbEntity
  8
0
100
AcDbLine
 10
1.195245
 20
221.07
 30
0.0
 11
1.69329654739088
 21
221.0266705194539
 31
0.0
  0
LINE
  5
B0
330
1E
100
AcDbEntity
  8
0
100
AcDbLine
 10
1.195245
 20
221.07
 30
0.0
 11
2.390674999999999
 21
220.9659999999999
 31
0.0
  0
LINE
  5
B1
330
1E
100
AcDbEntity
  8
0
100
AcDbLine
 10
0.6971450000000022
 20
221.1139999999999
 30
0.0
 11
1.195245
 21
221.07
 31
0.0
  0
LINE
  5
B2
330
1E
100
AcDbEntity
  8
0
100
AcDbLine
 10
1.309854999999999
 20
216.644
 30
0.0
 11
1.69329654739088
 21
221.0266705194539
 31
0.0
  0
LINE
  5
B3
330
1E
100
AcDbEntity
  8
0
100
AcDbLine
 10
1.309854999999999
 20
216.644
 30
0.0
 11
1.544464999999999
 21
216.0209999999999
 31
0.0
  0
LINE
  5
B4
330
1E
100
AcDbEntity
  8
0
100
AcDbLine
 10
207.711895
 20
207.4
 30
0.0
 11
208.323895
 21
208.0
 31
0.0
  0
LINE
  5
B5
330
1E
100
AcDbEntity
  8
0
100
AcDbLine
 10
207.711895
 20
207.4
 30
0.0
 11
207.711895
 21
181.3736589039189
 31
0.0
  0
LINE
  5
B6
330
1E
100
AcDbEntity
  8
0
100
AcDbLine
 10
207.711895
 20
207.4
 30
0.0
 11
208.629895
 21
207.4
 31
0.0
  0
LINE
  5
B7
330
1E
100
AcDbEntity
  8
0
100
AcDbLine
 10
207.711895
 20
181.3736589039189
 30
0.0
 11
207.711895
 21
207.4
 31
0.0
  0
LINE
  5
B8
330
1E
100
AcDbEntity
  8
0
100
AcDbLine
 10
208.355895
 20
50.0
 30
0.0
 11
210.896895
 21
50.0
 31
0.0
  0
LINE
  5
B9
330
1E
100
AcDbEntity
  8
0
100
AcDbLine
 10
210.896895
 20
50.0
 30
0.0
 11
214.946895
 21
50.0
 31
0.0
  0
LINE
  5
BA
330
1E
100
AcDbEntity
  8
0
100
AcDbLine
 10
210.182895
 20
49.5192
 30
0.0
 11
214.390895
 21
49.5192
 31
0.0
  0
LINE
  5
BB
330
1E
100
AcDbEntity
  8
0
100
AcDbLine
 10
209.864895
 20
-0.000000000000013
 30
0.0
 11
214.152895
 21
-0.0000000000000132
 31
0.0
  0
LINE
  5
BC
330
1E
100
AcDbEntity
  8
0
100
AcDbLine
 10
219.715895
 20
26.2778
 30
0.0
 11
221.059895
 21
22.9178
 31
0.0
  0
LINE
  5
BE
330
1E
100
AcDbEntity
  8
0
100
AcDbLine
 10
221.059895
 20
22.9178
 30
0.0
 11
223.299895
 21
19.94979999999999
 31
0.0
  0
LINE
  5
BF
330
1E
100
AcDbEntity
  8
0
100
AcDbLine
 10
219.211895
 20
29.8618
 30
0.0
 11
219.715895
 21
33.4458
 31
0.0
  0
LINE
  5
C0
330
1E
100
AcDbEntity
  8
0
100
AcDbLine
 10
219.211895
 20
29.8618
 30
0.0
 11
219.715895
 21
26.2778
 31
0.0
  0
LINE
  5
C2
330
1E
100
AcDbEntity
  8
0
100
AcDbLine
 10
223.299895
 20
19.94979999999999
 30
0.0
 11
226.267895
 21
17.7098
 31
0.0
  0
LINE
  5
C3
330
1E
100
AcDbEntity
  8
0
100
AcDbLine
 10
226.267895
 20
17.7098
 30
0.0
 11
229.627895
 21
16.3658
 31
0.0
  0
LINE
  5
CA
330
1E
100
AcDbEntity
  8
0
100
AcDbLine
 10
219.715895
 20
33.4458
 30
0.0
 11
221.059895
 21
36.80579999999999
 31
0.0
  0
LINE
  5
CB
330
1E
100
AcDbEntity
  8
0
100
AcDbLine
 10
221.059895
 20
36.80579999999999
 30
0.0
 11
223.299895
 21
39.7738
 31
0.0
  0
LINE
  5
CF
330
1E
100
AcDbEntity
  8
0
100
AcDbLine
 10
223.299895
 20
39.7738
 30
0.0
 11
226.267895
 21
42.0138
 31
0.0
  0
LINE
  5
D0
330
1E
100
AcDbEntity
  8
0
100
AcDbLine
 10
226.267895
 20
42.0138
 30
0.0
 11
229.627895
 21
43.35779999999999
 31
0.0
  0
LINE
  5
D8
330
1E
100
AcDbEntity
  8
0
100
AcDbLine
 10
214.390895
 20
49.5192
 30
0.0
 11
219.949895
 21
49.5192
 31
0.0
  0
LINE
  5
D9
330
1E
100
AcDbEntity
  8
0
100
AcDbLine
 10
214.946895
 20
50.0
 30
0.0
 11
220.346895
 21
50.0
 31
0.0
  0
LINE
  5
DA
330
1E
100
AcDbEntity
  8
0
100
AcDbLine
 10
220.346895
 20
50.0
 30
0.0
 11
226.540895
 21
50.0
 31
0.0
  0
LINE
  5
DB
330
1E
100
AcDbEntity
  8
0
100
AcDbLine
 10
219.949895
 20
49.5192
 30
0.0
 11
226.382895
 21
49.5192
 31
0.0
  0
LINE
  5
DC
330
1E
100
AcDbEntity
  8
0
100
AcDbLine
 10
214.152895
 20
-0.0000000000000132
 30
0.0
 11
219.7908949999999
 21
-0.0000000000000136
 31
0.0
  0
LINE
  5
DD
330
1E
100
AcDbEntity
  8
0
100
AcDbLine
 10
219.7908949999999
 20
-0.0000000000000136
 30
0.0
 11
226.302895
 21
-0.000000000000014
 31
0.0
  0
LINE
  5
DF
330
1E
100
AcDbEntity
  8
0
100
AcDbLine
 10
233.211895
 20
15.8618
 30
0.0
 11
236.795895
 21
16.3658
 31
0.0
  0
LINE
  5
E1
330
1E
100
AcDbEntity
  8
0
100
AcDbLine
 10
229.627895
 20
16.3658
 30
0.0
 11
233.211895
 21
15.8618
 31
0.0
  0
LINE
  5
E6
330
1E
100
AcDbEntity
  8
0
100
AcDbLine
 10
231.211895
 20
21.86179999999999
 30
0.0
 11
231.283895
 21
21.3498
 31
0.0
  0
LINE
  5
E7
330
1E
100
AcDbEntity
  8
0
100
AcDbLine
 10
231.211895
 20
21.86179999999999
 30
0.0
 11
231.211895
 21
37.8618
 31
0.0
  0
LINE
  5
E8
330
1E
100
AcDbEntity
  8
0
100
AcDbLine
 10
232.699895
 20
19.9338
 30
0.0
 11
233.211895
 21
19.8618
 31
0.0
  0
LINE
  5
E9
330
1E
100
AcDbEntity
  8
0
100
AcDbLine
 10
232.219895
 20
20.1258
 30
0.0
 11
232.699895
 21
19.9338
 31
0.0
  0
LINE
  5
EA
330
1E
100
AcDbEntity
  8
0
100
AcDbLine
 10
231.795895
 20
20.44579999999999
 30
0.0
 11
232.219895
 21
20.1258
 31
0.0
  0
LINE
  5
EB
330
1E
100
AcDbEntity
  8
0
100
AcDbLine
 10
231.475895
 20
20.8698
 30
0.0
 11
231.795895
 21
20.44579999999999
 31
0.0
  0
LINE
  5
EC
330
1E
100
AcDbEntity
  8
0
100
AcDbLine
 10
231.283895
 20
21.3498
 30
0.0
 11
231.475895
 21
20.8698
 31
0.0
  0
LINE
  5
ED
330
1E
100
AcDbEntity
  8
0
100
AcDbLine
 10
233.211895
 20
19.8618
 30
0.0
 11
233.723895
 21
19.9338
 31
0.0
  0
LINE
  5
EE
330
1E
100
AcDbEntity
  8
0
100
AcDbLine
 10
232.699895
 20
39.78979999999999
 30
0.0
 11
233.211895
 21
39.8618
 31
0.0
  0
LINE
  5
EF
330
1E
100
AcDbEntity
  8
0
100
AcDbLine
 10
232.219895
 20
39.5978
 30
0.0
 11
232.699895
 21
39.78979999999999
 31
0.0
  0
LINE
  5
F0
330
1E
100
AcDbEntity
  8
0
100
AcDbLine
 10
231.795895
 20
39.2778
 30
0.0
 11
232.219895
 21
39.5978
 31
0.0
  0
LINE
  5
F1
330
1E
100
AcDbEntity
  8
0
100
AcDbLine
 10
231.475895
 20
38.85379999999999
 30
0.0
 11
231.795895
 21
39.2778
 31
0.0
  0
LINE
  5
F2
330
1E
100
AcDbEntity
  8
0
100
AcDbLine
 10
231.283895
 20
38.3738
 30
0.0
 11
231.475895
 21
38.85379999999999
 31
0.0
  0
LINE
  5
F3
330
1E
100
AcDbEntity
  8
0
100
AcDbLine
 10
231.211895
 20
37.8618
 30
0.0
 11
231.283895
 21
38.3738
 31
0.0
  0
LINE
  5
F4
330
1E
100
AcDbEntity
  8
0
100
AcDbLine
 10
231.211895
 20
37.8618
 30
0.0
 11
231.211895
 21
21.86179999999999
 31
0.0
  0
LINE
  5
F5
330
1E
100
AcDbEntity
  8
0
100
AcDbLine
 10
233.211895
 20
39.8618
 30
0.0
 11
233.723895
 21
39.78979999999999
 31
0.0
  0
LINE
  5
F9
330
1E
100
AcDbEntity
  8
0
100
AcDbLine
 10
233.211895
 20
43.8618
 30
0.0
 11
236.795895
 21
43.35779999999999
 31
0.0
  0
LINE
  5
FA
330
1E
100
AcDbEntity
  8
0
100
AcDbLine
 10
229.627895
 20
43.35779999999999
 30
0.0
 11
233.211895
 21
43.8618
 31
0.0
  0
LINE
  5
100
330
1E
100
AcDbEntity
  8
0
100
AcDbLine
 10
233.211895
 20
49.5192
 30
0.0
 11
240.040895
 21
49.5192
 31
0.0
  0
LINE
  5
104
330
1E
100
AcDbEntity
  8
0
100
AcDbLine
 10
236.795895
 20
16.3658
 30
0.0
 11
240.155895
 21
17.7098
 31
0.0
  0
LINE
  5
106
330
1E
100
AcDbEntity
  8
0
100
AcDbLine
 10
233.723895
 20
19.9338
 30
0.0
 11
234.203895
 21
20.1258
 31
0.0
  0
LINE
  5
107
330
1E
100
AcDbEntity
  8
0
100
AcDbLine
 10
234.203895
 20
20.1258
 30
0.0
 11
234.627895
 21
20.44579999999999
 31
0.0
  0
LINE
  5
108
330
1E
100
AcDbEntity
  8
0
100
AcDbLine
 10
234.627895
 20
20.44579999999999
 30
0.0
 11
234.947895
 21
20.8698
 31
0.0
  0
LINE
  5
109
330
1E
100
AcDbEntity
  8
0
100
AcDbLine
 10
234.947895
 20
20.8698
 30
0.0
 11
235.139895
 21
21.3498
 31
0.0
  0
LINE
  5
10A
330
1E
100
AcDbEntity
  8
0
100
AcDbLine
 10
235.211895
 20
21.86179999999999
 30
0.0
 11
235.211895
 21
37.8618
 31
0.0
  0
LINE
  5
10B
330
1E
100
AcDbEntity
  8
0
100
AcDbLine
 10
235.211895
 20
37.8618
 30
0.0
 11
235.211895
 21
21.86179999999999
 31
0.0
  0
LINE
  5
10C
330
1E
100
AcDbEntity
  8
0
100
AcDbLine
 10
235.139895
 20
21.3498
 30
0.0
 11
235.211895
 21
21.86179999999999
 31
0.0
  0
LINE
  5
10D
330
1E
100
AcDbEntity
  8
0
100
AcDbLine
 10
233.723895
 20
39.78979999999999
 30
0.0
 11
234.203895
 21
39.5978
 31
0.0
  0
LINE
  5
10E
330
1E
100
AcDbEntity
  8
0
100
AcDbLine
 10
234.203895
 20
39.5978
 30
0.0
 11
234.627895
 21
39.2778
 31
0.0
  0
LINE
  5
10F
330
1E
100
AcDbEntity
  8
0
100
AcDbLine
 10
234.627895
 20
39.2778
 30
0.0
 11
234.947895
 21
38.85379999999999
 31
0.0
  0
LINE
  5
110
330
1E
100
AcDbEntity
  8
0
100
AcDbLine
 10
234.947895
 20
38.85379999999999
 30
0.0
 11
235.139895
 21
38.3738
 31
0.0
  0
LINE
  5
111
330
1E
100
AcDbEntity
  8
0
100
AcDbLine
 10
235.139895
 20
38.3738
 30
0.0
 11
235.211895
 21
37.8618
 31
0.0
  0
LINE
  5
115
330
1E
100
AcDbEntity
  8
0
100
AcDbLine
 10
236.795895
 20
43.35779999999999
 30
0.0
 11
240.155895
 21
42.0138
 31
0.0
  0
LINE
  5
11A
330
1E
100
AcDbEntity
  8
0
100
AcDbLine
 10
243.123895
 20
19.94979999999999
 30
0.0
 11
245.363895
 21
22.9178
 31
0.0
  0
LINE
  5
11B
330
1E
100
AcDbEntity
  8
0
100
AcDbLine
 10
240.155895
 20
17.7098
 30
0.0
 11
243.123895
 21
19.94979999999999
 31
0.0
  0
LINE
  5
11F
330
1E
100
AcDbEntity
  8
0
100
AcDbLine
 10
245.363895
 20
22.9178
 30
0.0
 11
246.707895
 21
26.2778
 31
0.0
  0
LINE
  5
123
330
1E
100
AcDbEntity
  8
0
100
AcDbLine
 10
240.155895
 20
42.0138
 30
0.0
 11
243.123895
 21
39.7738
 31
0.0
  0
LINE
  5
125
330
1E
100
AcDbEntity
  8
0
100
AcDbLine
 10
243.123895
 20
39.7738
 30
0.0
 11
245.363895
 21
36.80579999999999
 31
0.0
  0
LINE
  5
12A
330
1E
100
AcDbEntity
  8
0
100
AcDbLine
 10
245.363895
 20
36.80579999999999
 30
0.0
 11
246.707895
 21
33.4458
 31
0.0
  0
LINE
  5
12D
330
1E
100
AcDbEntity
  8
0
100
AcDbLine
 10
240.040895
 20
49.5192
 30
0.0
 11
246.473895
 21
49.5192
 31
0.0
  0
LINE
  5
12E
330
1E
100
AcDbEntity
  8
0
100
AcDbLine
 10
240.120895
 20
-0.0000000000000148
 30
0.0
 11
246.632895
 21
-0.0000000000000152
 31
0.0
  0
LINE
  5
12F
330
1E
100
AcDbEntity
  8
0
100
AcDbLine
 10
233.211895
 20
-0.0000000000000144
 30
0.0
 11
240.120895
 21
-0.0000000000000148
 31
0.0
  0
LINE
  5
130
330
1E
100
AcDbEntity
  8
0
100
AcDbLine
 10
239.882895
 20
50.0
 30
0.0
 11
246.076895
 21
50.0
 31
0.0
  0
LINE
  5
131
330
1E
100
AcDbEntity
  8
0
100
AcDbLine
 10
233.211895
 20
50.0
 30
0.0
 11
239.882895
 21
50.0
 31
0.0
  0
LINE
  5
132
330
1E
100
AcDbEntity
  8
0
100
AcDbLine
 10
226.540895
 20
50.0
 30
0.0
 11
233.211895
 21
50.0
 31
0.0
  0
LINE
  5
133
330
1E
100
AcDbEntity
  8
0
100
AcDbLine
 10
226.382895
 20
49.5192
 30
0.0
 11
233.211895
 21
49.5192
 31
0.0
  0
LINE
  5
134
330
1E
100
AcDbEntity
  8
0
100
AcDbLine
 10
226.302895
 20
-0.000000000000014
 30
0.0
 11
233.211895
 21
-0.0000000000000144
 31
0.0
  0
LINE
  5
135
330
1E
100
AcDbEntity
  8
0
100
AcDbLine
 10
239.739895
 20
207.4
 30
0.0
 11
245.859895
 21
207.4
 31
0.0
  0
LINE
  5
136
330
1E
100
AcDbEntity
  8
0
100
AcDbLine
 10
246.076895
 20
50.0
 30
0.0
 11
251.476895
 21
50.0
 31
0.0
  0
LINE
  5
137
330
1E
100
AcDbEntity
  8
0
100
AcDbLine
 10
246.473895
 20
49.5192
 30
0.0
 11
252.032895
 21
49.5192
 31
0.0
  0
LINE
  5
138
330
1E
100
AcDbEntity
  8
0
100
AcDbLine
 10
246.707895
 20
33.4458
 30
0.0
 11
247.211895
 21
29.8618
 31
0.0
  0
LINE
  5
139
330
1E
100
AcDbEntity
  8
0
100
AcDbLine
 10
246.707895
 20
26.2778
 30
0.0
 11
247.211895
 21
29.8618
 31
0.0
  0
LINE
  5
13A
330
1E
100
AcDbEntity
  8
0
100
AcDbLine
 10
246.632895
 20
-0.0000000000000152
 30
0.0
 11
252.270895
 21
-0.0000000000000156
 31
0.0
  0
LINE
  5
13B
330
1E
100
AcDbEntity
  8
0
100
AcDbLine
 10
251.476895
 20
50.0
 30
0.0
 11
255.526895
 21
50.0
 31
0.0
  0
LINE
  5
13C
330
1E
100
AcDbEntity
  8
0
100
AcDbLine
 10
252.032895
 20
49.5192
 30
0.0
 11
256.240895
 21
49.5192
 31
0.0
  0
LINE
  5
13D
330
1E
100
AcDbEntity
  8
0
100
AcDbLine
 10
252.270895
 20
-0.0000000000000156
 30
0.0
 11
256.5588949999999
 21
-0.0000000000000158
 31
0.0
  0
LINE
  5
13E
330
1E
100
AcDbEntity
  8
0
100
AcDbLine
 10
245.859895
 20
207.4
 30
0.0
 11
251.265895
 21
207.4
 31
0.0
  0
LINE
  5
13F
330
1E
100
AcDbEntity
  8
0
100
AcDbLine
 10
251.265895
 20
207.4
 30
0.0
 11
255.345895
 21
207.4
 31
0.0
  0
LINE
  5
140
330
1E
100
AcDbEntity
  8
0
100
AcDbLine
 10
255.526895
 20
50.0
 30
0.0
 11
258.067895
 21
50.0
 31
0.0
  0
LINE
  5
141
330
1E
100
AcDbEntity
  8
0
100
AcDbLine
 10
256.240895
 20
49.5192
 30
0.0
 11
258.861895
 21
49.5192
 31
0.0
  0
LINE
  5
142
330
1E
100
AcDbEntity
  8
0
100
AcDbLine
 10
258.067895
 20
50.0
 30
0.0
 11
259.020895
 21
50.0
 31
0.0
  0
LINE
  5
143
330
1E
100
AcDbEntity
  8
0
100
AcDbLine
 10
256.5588949999999
 20
-0.0000000000000158
 30
0.0
 11
259.258895
 21
-0.000000000000016
 31
0.0
  0
LINE
  5
144
330
1E
100
AcDbEntity
  8
0
100
AcDbLine
 10
255.345895
 20
207.4
 30
0.0
 11
257.793895
 21
207.4
 31
0.0
  0
LINE
  5
145
330
1E
100
AcDbEntity
  8
0
100
AcDbLine
 10
257.793895
 20
207.4
 30
0.0
 11
258.711895
 21
207.4
 31
0.0
  0
LINE
  5
146
330
1E
100
AcDbEntity
  8
0
100
AcDbLine
 10
260.211895
 20
-0.000000000000016
 30
0.0
 11
260.211895
 21
48.55769999999999
 31
0.0
  0
LINE
  5
147
330
1E
100
AcDbEntity
  8
0
100
AcDbLine
 10
259.020895
 20
50.0
 30
0.0
 11
259.814895
 21
49.5192
 31
0.0
  0
LINE
  5
148
330
1E
100
AcDbEntity
  8
0
100
AcDbLine
 10
258.861895
 20
49.5192
 30
0.0
 11
259.814895
 21
49.5192
 31
0.0
  0
LINE
  5
149
330
1E
100
AcDbEntity
  8
0
100
AcDbLine
 10
260.211895
 20
48.55769999999999
 30
0.0
 11
260.211895
 21
-0.0000000000000147
 31
0.0
  0
LINE
  5
14A
330
1E
100
AcDbEntity
  8
0
100
AcDbLine
 10
259.814895
 20
49.5192
 30
0.0
 11
260.211895
 21
48.55769999999999
 31
0.0
  0
LINE
  5
14B
330
1E
100
AcDbEntity
  8
0
100
AcDbLine
 10
259.258895
 20
-0.000000000000016
 30
0.0
 11
260.211895
 21
-0.000000000000016
 31
0.0
  0
LINE
  5
14C
330
1E
100
AcDbEntity
  8
0
100
AcDbLine
 10
258.711895
 20
50.0
 30
0.0
 11
258.711895
 21
207.4
 31
0.0
  0
LINE
  5
14D
330
1E
100
AcDbEntity
  8
0
100
AcDbLine
 10
226.6838949999999
 20
207.4
 30
0.0
 11
233.211895
 21
207.4
 31
0.0
  0
LINE
  5
14E
330
1E
100
AcDbEntity
  8
0
100
AcDbLine
 10
220.563895
 20
207.4
 30
0.0
 11
226.6838949999999
 21
207.4
 31
0.0
  0
LINE
  5
14F
330
1E
100
AcDbEntity
  8
0
100
AcDbLine
 10
215.157895
 20
207.4
 30
0.0
 11
220.563895
 21
207.4
 31
0.0
  0
LINE
  5
150
330
1E
100
AcDbEntity
  8
0
100
AcDbLine
 10
211.077895
 20
207.4
 30
0.0
 11
215.157895
 21
207.4
 31
0.0
  0
LINE
  5
151
330
1E
100
AcDbEntity
  8
0
100
AcDbLine
 10
208.629895
 20
207.4
 30
0.0
 11
211.077895
 21
207.4
 31
0.0
  0
LINE
  5
152
330
1E
100
AcDbEntity
  8
0
100
AcDbLine
 10
239.637895
 20
208.0
 30
0.0
 11
245.553895
 21
208.0
 31
0.0
  0
LINE
  5
153
330
1E
100
AcDbEntity
  8
0
100
AcDbLine
 10
245.553895
 20
208.0
 30
0.0
 11
250.7558949999999
 21
208.0
 31
0.0
  0
LINE
  5
154
330
1E
100
AcDbEntity
  8
0
100
AcDbLine
 10
250.7558949999999
 20
208.0
 30
0.0
 11
254.733895
 21
208.0
 31
0.0
  0
LINE
  5
155
330
1E
100
AcDbEntity
  8
0
100
AcDbLine
 10
208.7118949999999
 20
208.0
 30
0.0
 11
208.7118949999999
 21
210.0
 31
0.0
  0
LINE
  5
156
330
1E
100
AcDbEntity
  8
0
100
AcDbLine
 10
209.2418949999999
 20
208.0
 30
0.0
 11
211.6898949999999
 21
208.0
 31
0.0
  0
LINE
  5
157
330
1E
100
AcDbEntity
  8
0
100
AcDbLine
 10
208.323895
 20
208.0
 30
0.0
 11
209.2418949999999
 21
208.0
 31
0.0
  0
LINE
  5
158
330
1E
100
AcDbEntity
  8
0
100
AcDbLine
 10
226.785895
 20
208.0
 30
0.0
 11
233.211895
 21
208.0
 31
0.0
  0
LINE
  5
159
330
1E
100
AcDbEntity
  8
0
100
AcDbLine
 10
220.869895
 20
208.0
 30
0.0
 11
226.785895
 21
208.0
 31
0.0
  0
LINE
  5
15A
330
1E
100
AcDbEntity
  8
0
100
AcDbLine
 10
215.667895
 20
208.0
 30
0.0
 11
220.869895
 21
208.0
 31
0.0
  0
LINE
  5
15B
330
1E
100
AcDbEntity
  8
0
100
AcDbLine
 10
207.998895
 20
210.0
 30
0.0
 11
208.3048949999999
 21
210.0
 31
0.0
  0
LINE
  5
15C
330
1E
100
AcDbEntity
  8
0
100
AcDbLine
 10
208.3048949999999
 20
210.0
 30
0.0
 11
208.7118949999999
 21
210.0
 31
0.0
  0
LINE
  5
15D
330
1E
100
AcDbEntity
  8
0
100
AcDbLine
 10
208.3048949999999
 20
210.0
 30
0.0
 11
208.9168949999999
 21
210.0
 31
0.0
  0
LINE
  5
15E
330
1E
100
AcDbEntity
  8
0
100
AcDbLine
 10
208.7118949999999
 20
210.0
 30
0.0
 11
208.7118949999999
 21
208.0
 31
0.0
  0
LINE
  5
15F
330
1E
100
AcDbEntity
  8
0
100
AcDbLine
 10
210.038895
 20
210.0
 30
0.0
 11
211.364895
 21
210.0
 31
0.0
  0
LINE
  5
160
330
1E
100
AcDbEntity
  8
0
100
AcDbLine
 10
208.9168949999999
 20
210.0
 30
0.0
 11
210.038895
 21
210.0
 31
0.0
  0
LINE
  5
161
330
1E
100
AcDbEntity
  8
0
100
AcDbLine
 10
217.9948949999999
 20
210.0
 30
0.0
 11
220.850895
 21
210.0
 31
0.0
  0
LINE
  5
162
330
1E
100
AcDbEntity
  8
0
100
AcDbLine
 10
213.3028949999999
 20
210.0
 30
0.0
 11
215.5468949999999
 21
210.0
 31
0.0
  0
LINE
  5
163
330
1E
100
AcDbEntity
  8
0
100
AcDbLine
 10
211.364895
 20
210.0
 30
0.0
 11
213.3028949999999
 21
210.0
 31
0.0
  0
LINE
  5
165
330
1E
100
AcDbEntity
  8
0
100
AcDbLine
 10
215.5468949999999
 20
210.0
 30
0.0
 11
217.9948949999999
 21
210.0
 31
0.0
  0
LINE
  5
166
330
1E
100
AcDbEntity
  8
0
100
AcDbLine
 10
230.131895
 20
210.0
 30
0.0
 11
233.497895
 21
210.0
 31
0.0
  0
LINE
  5
167
330
1E
100
AcDbEntity
  8
0
100
AcDbLine
 10
226.9698949999999
 20
210.0
 30
0.0
 11
230.131895
 21
210.0
 31
0.0
  0
LINE
  5
169
330
1E
100
AcDbEntity
  8
0
100
AcDbLine
 10
223.808895
 20
210.0
 30
0.0
 11
226.9698949999999
 21
210.0
 31
0.0
  0
LINE
  5
16A
330
1E
100
AcDbEntity
  8
0
100
AcDbLine
 10
220.850895
 20
210.0
 30
0.0
 11
223.808895
 21
210.0
 31
0.0
  0
LINE
  5
16B
330
1E
100
AcDbEntity
  8
0
100
AcDbLine
 10
233.052895
 20
248.898
 30
0.0
 11
236.016895
 21
248.262
 31
0.0
  0
LINE
  5
16C
330
1E
100
AcDbEntity
  8
0
100
AcDbLine
 10
211.6898949999999
 20
208.0
 30
0.0
 11
215.667895
 21
208.0
 31
0.0
  0
LINE
  5
16D
330
1E
100
AcDbEntity
  8
0
100
AcDbLine
 10
233.497895
 20
210.0
 30
0.0
 11
236.853895
 21
210.897
 31
0.0
  0
LINE
  5
16E
330
1E
100
AcDbEntity
  8
0
100
AcDbLine
 10
236.853895
 20
210.897
 30
0.0
 11
240.001895
 21
211.687
 31
0.0
  0
LINE
  5
16F
330
1E
100
AcDbEntity
  8
0
100
AcDbLine
 10
240.001895
 20
211.687
 30
0.0
 11
243.113895
 21
212.407
 31
0.0
  0
LINE
  5
170
330
1E
100
AcDbEntity
  8
0
100
AcDbLine
 10
246.034895
 20
213.139
 30
0.0
 11
248.874895
 21
213.8259999999999
 31
0.0
  0
LINE
  5
171
330
1E
100
AcDbEntity
  8
0
100
AcDbLine
 10
251.2848949999999
 20
214.392
 30
0.0
 11
253.540895
 21
214.9449999999999
 31
0.0
  0
LINE
  5
172
330
1E
100
AcDbEntity
  8
0
100
AcDbLine
 10
255.405895
 20
215.389
 30
0.0
 11
256.701895
 21
215.695
 31
0.0
  0
LINE
  5
173
330
1E
100
AcDbEntity
  8
0
100
AcDbLine
 10
256.701895
 20
215.695
 30
0.0
 11
257.798895
 21
215.9759999999999
 31
0.0
  0
LINE
  5
174
330
1E
100
AcDbEntity
  8
0
100
AcDbLine
 10
253.540895
 20
214.9449999999999
 30
0.0
 11
255.405895
 21
215.389
 31
0.0
  0
LINE
  5
175
330
1E
100
AcDbEntity
  8
0
100
AcDbLine
 10
248.874895
 20
213.8259999999999
 30
0.0
 11
251.2848949999999
 21
214.392
 31
0.0
  0
LINE
  5
176
330
1E
100
AcDbEntity
  8
0
100
AcDbLine
 10
243.113895
 20
212.407
 30
0.0
 11
246.034895
 21
213.139
 31
0.0
  0
LINE
  5
177
330
1E
100
AcDbEntity
  8
0
100
AcDbLine
 10
256.764895
 20
241.6619999999999
 30
0.0
 11
258.711895
 21
216.21
 31
0.0
  0
LINE
  5
179
330
1E
100
AcDbEntity
  8
0
100
AcDbLine
 10
236.016895
 20
248.262
 30
0.0
 11
238.961895
 21
247.642
 31
0.0
  0
LINE
  5
17F
330
1E
100
AcDbEntity
  8
0
100
AcDbLine
 10
238.961895
 20
247.642
 30
0.0
 11
241.808895
 21
246.8849999999999
 31
0.0
  0
LINE
  5
180
330
1E
100
AcDbEntity
  8
0
100
AcDbLine
 10
241.808895
 20
246.8849999999999
 30
0.0
 11
244.542895
 21
246.0599999999999
 31
0.0
  0
LINE
  5
182
330
1E
100
AcDbEntity
  8
0
100
AcDbLine
 10
244.542895
 20
246.0599999999999
 30
0.0
 11
246.980895
 21
245.309
 31
0.0
  0
LINE
  5
183
330
1E
100
AcDbEntity
  8
0
100
AcDbLine
 10
246.980895
 20
245.309
 30
0.0
 11
249.108895
 21
244.647
 31
0.0
  0
LINE
  5
185
330
1E
100
AcDbEntity
  8
0
100
AcDbLine
 10
249.108895
 20
244.647
 30
0.0
 11
251.048895
 21
243.988
 31
0.0
  0
LINE
  5
186
330
1E
100
AcDbEntity
  8
0
100
AcDbLine
 10
251.048895
 20
243.988
 30
0.0
 11
252.773895
 21
243.4099999999999
 31
0.0
  0
LINE
  5
187
330
1E
100
AcDbEntity
  8
0
100
AcDbLine
 10
252.773895
 20
243.4099999999999
 30
0.0
 11
254.051895
 21
242.9899999999999
 31
0.0
  0
LINE
  5
188
330
1E
100
AcDbEntity
  8
0
100
AcDbLine
 10
254.051895
 20
242.9899999999999
 30
0.0
 11
254.906895
 21
242.649
 31
0.0
  0
LINE
  5
189
330
1E
100
AcDbEntity
  8
0
100
AcDbLine
 10
254.906895
 20
242.649
 30
0.0
 11
255.545895
 21
242.415
 31
0.0
  0
LINE
  5
18A
330
1E
100
AcDbEntity
  8
0
100
AcDbLine
 10
255.545895
 20
242.415
 30
0.0
 11
255.736895
 21
242.337
 31
0.0
  0
LINE
  5
18C
330
1E
100
AcDbEntity
  8
0
100
AcDbLine
 10
255.736895
 20
242.337
 30
0.0
 11
256.471895
 21
241.974
 31
0.0
  0
LINE
  5
18D
330
1E
100
AcDbEntity
  8
0
100
AcDbLine
 10
256.471895
 20
241.974
 30
0.0
 11
256.764895
 21
241.6619999999999
 31
0.0
  0
LINE
  5
18F
330
1E
100
AcDbEntity
  8
0
100
AcDbLine
 10
233.211895
 20
208.0
 30
0.0
 11
239.637895
 21
208.0
 31
0.0
  0
LINE
  5
190
330
1E
100
AcDbEntity
  8
0
100
AcDbLine
 10
254.733895
 20
208.0
 30
0.0
 11
257.1818949999999
 21
208.0
 31
0.0
  0
LINE
  5
191
330
1E
100
AcDbEntity
  8
0
100
AcDbLine
 10
257.711895
 20
208.0
 30
0.0
 11
257.711895
 21
213.2
 31
0.0
  0
LINE
  5
192
330
1E
100
AcDbEntity
  8
0
100
AcDbLine
 10
257.798895
 20
215.9759999999999
 30
0.0
 11
258.438895
 21
216.1399999999999
 31
0.0
  0
LINE
  5
193
330
1E
100
AcDbEntity
  8
0
100
AcDbLine
 10
257.339439610155
 20
215.8583090569309
 30
0.0
 11
257.711895
 21
213.2
 31
0.0
  0
LINE
  5
194
330
1E
100
AcDbEntity
  8
0
100
AcDbLine
 10
257.711895
 20
213.2
 30
0.0
 11
257.711895
 21
208.0
 31
0.0
  0
LINE
  5
195
330
1E
100
AcDbEntity
  8
0
100
AcDbLine
 10
257.1818949999999
 20
208.0
 30
0.0
 11
258.099895
 21
208.0
 31
0.0
  0
LINE
  5
196
330
1E
100
AcDbEntity
  8
0
100
AcDbLine
 10
233.211895
 20
207.4
 30
0.0
 11
239.739895
 21
207.4
 31
0.0
  0
LINE
  5
197
330
1E
100
AcDbEntity
  8
0
100
AcDbLine
 10
258.438895
 20
216.1399999999999
 30
0.0
 11
258.711895
 21
216.21
 31
0.0
  0
LINE
  5
198
330
1E
100
AcDbEntity
  8
0
100
AcDbLine
 10
258.099895
 20
208.0
 30
0.0
 11
258.711895
 21
207.4
 31
0.0
  0
LINE
  5
199
330
1E
100
AcDbEntity
  8
0
100
AcDbLine
 10
258.711895
 20
207.4
 30
0.0
 11
258.711895
 21
50.0
 31
0.0
  0
LINE
  5
19A
330
1E
100
AcDbEntity
  8
0
100
AcDbLine
 10
207.711895
 20
50.0
 30
0.0
 11
207.711895
 21
159.282883512295
 31
0.0
  0
LINE
  5
19F
330
1E
100
AcDbEntity
  8
0
100
AcDbLine
 10
15.565095
 20
241.897
 30
0.0
 11
13.572695
 21
242.072
 31
0.0
  0
LINE
  5
1A0
330
1E
100
AcDbEntity
  8
0
100
AcDbLine
 10
83.357495
 20
228.694
 30
0.0
 11
35.07789499999999
 21
238.759
 31
0.0
  0
LINE
  5
1A1
330
1E
100
AcDbEntity
  8
0
100
AcDbLine
 10
107.4458949999999
 20
221.253
 30
0.0
 11
136.931895
 21
211.6049999999999
 31
0.0
  0
LINE
  5
1A2
330
1E
100
AcDbEntity
  8
0
100
AcDbLine
 10
135.067895
 20
263.559
 30
0.0
 11
130.2508949999999
 21
264.0159999999999
 31
0.0
  0
LINE
  5
1A3
330
1E
100
AcDbEntity
  8
0
100
AcDbLine
 10
168.1318949999999
 20
199.8979999999999
 30
0.0
 11
207.711895
 21
181.3736589039189
 31
0.0
  0
LINE
  5
1A4
330
1E
100
AcDbEntity
  8
0
100
AcDbLine
 10
207.711895
 20
181.3736589039189
 30
0.0
 11
207.711895
 21
159.282883512295
 31
0.0
  0
ENDSEC
  0
SECTION
  2
OBJECTS
  0
DICTIONARY
  5
C
330
0
100
AcDbDictionary
  3
ACAD_GROUP
350
D
  3
ACAD_LAYOUT
350
19
  3
ACAD_MLINESTYLE
350
16
  3
ACAD_PLOTSETTINGS
350
18
  3
ACAD_PLOTSTYLENAME
350
E
  3
ACDBHEADERROUNDTRIPXREC
350
1A9
  3
ACDBVARIABLEDICTIONARY
350
1A6
  0
DICTIONARY
  5
1CB
330
1E
100
AcDbDictionary
280
     1
  3
ACAD_LAYOUTSELFREF
360
1CC
  0
DICTIONARY
  5
1C9
330
1A
100
AcDbDictionary
280
     1
  3
ACAD_LAYOUTSELFREF
360
1CA
  0
DICTIONARY
  5
D
102
{ACAD_REACTORS
330
C
102
}
330
C
100
AcDbDictionary
  0
DICTIONARY
  5
19
102
{ACAD_REACTORS
330
C
102
}
330
C
100
AcDbDictionary
  0
DICTIONARY
  5
16
102
{ACAD_REACTORS
330
C
102
}
330
C
100
AcDbDictionary
  3
STANDARD
350
17
  0
DICTIONARY
  5
18
102
{ACAD_REACTORS
330
C
102
}
330
C
100
AcDbDictionary
  0
ACDBDICTIONARYWDFLT
  5
E
102
{ACAD_REACTORS
330
C
102
}
330
C
100
AcDbDictionary
281
     1
  3
Normal
350
F
100
AcDbDictionaryWithDefault
340
F
  0
DICTIONARY
  5
1A9
102
{ACAD_REACTORS
330
C
102
}
330
C
100
AcDbDictionary
  3
CEPSNTYPE
350
1B3
  3
FINGERPRINTGUID
350
1B4
  3
HYPERLINKBASE
350
1AC
  3
INSUNITS
350
1B2
  3
LAYOUTDICT
350
1AE
  3
LWETCUNION
350
1B1
  3
PLOTSETDICT
350
1AF
  3
PLOTSTYLNAMDICT
350
1B0
  3
PSVPSCALE
350
1B6
  3
PUCSBASE
350
1B9
  3
PUCSORGBACK
350
1BF
  3
PUCSORGBOTTOM
350
1BB
  3
PUCSORGFRONT
350
1BE
  3
PUCSORGLEFT
350
1BC
  3
PUCSORGRIGHT
350
1BD
  3
PUCSORGTOP
350
1BA
  3
PUCSORTHOREF
350
1B7
  3
PUCSORTHOVIEW
350
1B8
  3
STYLESHEET
350
1AD
  3
TSTACKALIGN
350
1AA
  3
TSTACKSIZE
350
1AB
  3
UCSBASE
350
1C2
  3
UCSORGBACK
350
1C8
  3
UCSORGBOTTOM
350
1C4
  3
UCSORGFRONT
350
1C7
  3
UCSORGLEFT
350
1C5
  3
UCSORGRIGHT
350
1C6
  3
UCSORGTOP
350
1C3
  3
UCSORTHOREF
350
1C0
  3
UCSORTHOVIEW
350
1C1
  3
VERSIONGUID
350
1B5
  0
DICTIONARY
  5
1A6
102
{ACAD_REACTORS
330
C
102
}
330
C
100
AcDbDictionary
  3
DIMASSOC
350
1A7
  0
XRECORD
  5
1CC
102
{ACAD_REACTORS
330
1CB
102
}
330
1CB
100
AcDbXrecord
340
1E
  0
XRECORD
  5
1CA
102
{ACAD_REACTORS
330
1C9
102
}
330
1C9
100
AcDbXrecord
340
1A
  0
MLINESTYLE
  5
17
102
{ACAD_REACTORS
330
16
102
}
330
16
100
AcDbMlineStyle
  2
STANDARD
 70
     0
  3

 62
   256
 51
90.0
 52
90.0
 71
     2
 49
0.5
 62
   256
  6
BYLAYER
 49
-0.5
 62
   256
  6
BYLAYER
  0
ACDBPLACEHOLDER
  5
F
102
{ACAD_REACTORS
330
E
102
}
330
E
100
AcDbPlaceHolder
280
     0
  0
XRECORD
  5
1B3
102
{ACAD_REACTORS
330
1A9
102
}
330
1A9
100
AcDbXrecord
 90
        0
  0
XRECORD
  5
1B4
102
{ACAD_REACTORS
330
1A9
102
}
330
1A9
100
AcDbXrecord
  1
{DD378F56-36FA-487C-B023-FAB5C20529DF}
  0
XRECORD
  5
1AC
102
{ACAD_REACTORS
330
1A9
102
}
330
1A9
100
AcDbXrecord
  1

  0
XRECORD
  5
1B2
102
{ACAD_REACTORS
330
1A9
102
}
330
1A9
100
AcDbXrecord
 90
        0
  0
XRECORD
  5
1AE
102
{ACAD_REACTORS
330
1A9
102
}
330
1A9
100
AcDbXrecord
340
19
  0
XRECORD
  5
1B1
102
{ACAD_REACTORS
330
1A9
102
}
330
1A9
100
AcDbXrecord
 90
    10781
  0
XRECORD
  5
1AF
102
{ACAD_REACTORS
330
1A9
102
}
330
1A9
100
AcDbXrecord
340
18
  0
XRECORD
  5
1B0
102
{ACAD_REACTORS
330
1A9
102
}
330
1A9
100
AcDbXrecord
340
E
  0
XRECORD
  5
1B6
102
{ACAD_REACTORS
330
1A9
102
}
330
1A9
100
AcDbXrecord
 40
0.0
  0
XRECORD
  5
1B9
102
{ACAD_REACTORS
330
1A9
102
}
330
1A9
100
AcDbXrecord
340
0
  0
XRECORD
  5
1BF
102
{ACAD_REACTORS
330
1A9
102
}
330
1A9
100
AcDbXrecord
 10
0.0
 20
0.0
 30
0.0
  0
XRECORD
  5
1BB
102
{ACAD_REACTORS
330
1A9
102
}
330
1A9
100
AcDbXrecord
 10
0.0
 20
0.0
 30
0.0
  0
XRECORD
  5
1BE
102
{ACAD_REACTORS
330
1A9
102
}
330
1A9
100
AcDbXrecord
 10
0.0
 20
0.0
 30
0.0
  0
XRECORD
  5
1BC
102
{ACAD_REACTORS
330
1A9
102
}
330
1A9
100
AcDbXrecord
 10
0.0
 20
0.0
 30
0.0
  0
XRECORD
  5
1BD
102
{ACAD_REACTORS
330
1A9
102
}
330
1A9
100
AcDbXrecord
 10
0.0
 20
0.0
 30
0.0
  0
XRECORD
  5
1BA
102
{ACAD_REACTORS
330
1A9
102
}
330
1A9
100
AcDbXrecord
 10
0.0
 20
0.0
 30
0.0
  0
XRECORD
  5
1B7
102
{ACAD_REACTORS
330
1A9
102
}
330
1A9
100
AcDbXrecord
340
0
  0
XRECORD
  5
1B8
102
{ACAD_REACTORS
330
1A9
102
}
330
1A9
100
AcDbXrecord
 70
     0
  0
XRECORD
  5
1AD
102
{ACAD_REACTORS
330
1A9
102
}
330
1A9
100
AcDbXrecord
  1

  0
XRECORD
  5
1AA
102
{ACAD_REACTORS
330
1A9
102
}
330
1A9
100
AcDbXrecord
 90
        1
  0
XRECORD
  5
1AB
102
{ACAD_REACTORS
330
1A9
102
}
330
1A9
100
AcDbXrecord
 90
       70
  0
XRECORD
  5
1C2
102
{ACAD_REACTORS
330
1A9
102
}
330
1A9
100
AcDbXrecord
340
0
  0
XRECORD
  5
1C8
102
{ACAD_REACTORS
330
1A9
102
}
330
1A9
100
AcDbXrecord
 10
0.0
 20
0.0
 30
0.0
  0
XRECORD
  5
1C4
102
{ACAD_REACTORS
330
1A9
102
}
330
1A9
100
AcDbXrecord
 10
0.0
 20
0.0
 30
0.0
  0
XRECORD
  5
1C7
102
{ACAD_REACTORS
330
1A9
102
}
330
1A9
100
AcDbXrecord
 10
0.0
 20
0.0
 30
0.0
  0
XRECORD
  5
1C5
102
{ACAD_REACTORS
330
1A9
102
}
330
1A9
100
AcDbXrecord
 10
0.0
 20
0.0
 30
0.0
  0
XRECORD
  5
1C6
102
{ACAD_REACTORS
330
1A9
102
}
330
1A9
100
AcDbXrecord
 10
0.0
 20
0.0
 30
0.0
  0
XRECORD
  5
1C3
102
{ACAD_REACTORS
330
1A9
102
}
330
1A9
100
AcDbXrecord
 10
0.0
 20
0.0
 30
0.0
  0
XRECORD
  5
1C0
102
{ACAD_REACTORS
330
1A9
102
}
330
1A9
100
AcDbXrecord
340
0
  0
XRECORD
  5
1C1
102
{ACAD_REACTORS
330
1A9
102
}
330
1A9
100
AcDbXrecord
 70
     1
  0
XRECORD
  5
1B5
102
{ACAD_REACTORS
330
1A9
102
}
330
1A9
100
AcDbXrecord
  1
{3B09D45C-788C-4541-B5FF-8718DE374FAE}
  0
DICTIONARYVAR
  5
1A7
102
{ACAD_REACTORS
330
1A6
102
}
330
1A6
100
DictionaryVariables
280
     0
  1
1
  0
ENDSEC
  0
EOF
