999
Erzeugt mit innoplus bad 
0
SECTION
2
HEADER
9
$ACADVER
1
AC1009
9
$DWGCODEPAGE
3
ISO8859-1
0
ENDSEC
0
SECTION
2
TABLES
0
TABLE
2
LAYER
70
1
0
LAYER
2
0
70
0
62
7
6
CONTINUOUS
0
ENDTAB
0
ENDSEC
0
SECTION
2
ENTITIES
0
LINE
8
0
6
CONTINUOUS
10
-110.183115
20
40.071905
30
0.0
11
-106.710955
21
39.089785
31
0.0
0
LINE
8
0
6
CONTINUOUS
10
-113.438555
20
40.991345
30
0.0
11
-110.183115
21
40.071905
31
0.0
0
LINE
8
0
6
CONTINUOUS
10
-116.314095
20
41.804065
30
0.0
11
-113.438555
21
40.991345
31
0.0
0
LINE
8
0
6
CONTINUOUS
10
-118.484375
20
42.417035
30
0.0
11
-116.314095
21
41.804065
31
0.0
0
LINE
8
0
6
CONTINUOUS
10
-119.786465
20
42.785195
30
0.0
11
-118.484375
21
42.417035
31
0.0
0
LINE
8
0
6
CONTINUOUS
10
-118.949343
20
47.126553
30
0.0
11
-120.274705
21
42.923245
31
0.0
0
LINE
8
0
6
CONTINUOUS
10
-110.309765
20
39.482725
30
0.0
11
-106.891485
21
38.517255
31
0.0
0
LINE
8
0
6
CONTINUOUS
10
-106.710955
20
39.089785
30
0.0
11
-110.183115
21
40.071905
31
0.0
0
LINE
8
0
6
CONTINUOUS
10
-113.456375
20
40.372785
30
0.0
11
-110.309765
21
39.482725
31
0.0
0
LINE
8
0
6
CONTINUOUS
10
-110.183115
20
40.071905
30
0.0
11
-113.438555
21
40.991345
31
0.0
0
LINE
8
0
6
CONTINUOUS
10
-116.223535
20
41.154175
30
0.0
11
-113.456375
21
40.372785
31
0.0
0
LINE
8
0
6
CONTINUOUS
10
-113.438555
20
40.991345
30
0.0
11
-116.314095
21
41.804065
31
0.0
0
LINE
8
0
6
CONTINUOUS
10
-118.339415
20
41.752435
30
0.0
11
-116.223535
21
41.154175
31
0.0
0
LINE
8
0
6
CONTINUOUS
10
-116.314095
20
41.804065
30
0.0
11
-118.484375
21
42.417035
31
0.0
0
LINE
8
0
6
CONTINUOUS
10
-119.641465
20
42.120595
30
0.0
11
-118.339415
21
41.752435
31
0.0
0
LINE
8
0
6
CONTINUOUS
10
-118.484375
20
42.417035
30
0.0
11
-119.786465
21
42.785195
31
0.0
0
LINE
8
0
6
CONTINUOUS
10
-120.129805
20
42.258675
30
0.0
11
-119.641465
21
42.120595
31
0.0
0
LINE
8
0
6
CONTINUOUS
10
-120.274705
20
42.923245
30
0.0
11
-120.129805
21
42.258675
31
0.0
0
LINE
8
0
6
CONTINUOUS
10
-119.786465
20
42.785195
30
0.0
11
-120.274705
21
42.923245
31
0.0
0
LINE
8
0
6
CONTINUOUS
10
-113.456375
20
40.372785
30
0.0
11
-116.223535
21
41.154175
31
0.0
0
LINE
8
0
6
CONTINUOUS
10
-106.710955
20
39.089785
30
0.0
11
-103.238555
21
38.108655
31
0.0
0
LINE
8
0
6
CONTINUOUS
10
-103.238555
20
38.108655
30
0.0
11
-99.983145
21
37.189225
31
0.0
0
LINE
8
0
6
CONTINUOUS
10
-99.983145
20
37.189225
30
0.0
11
-97.107605
21
36.376505
31
0.0
0
LINE
8
0
6
CONTINUOUS
10
-97.107605
20
36.376505
30
0.0
11
-94.937545
21
35.762565
31
0.0
0
LINE
8
0
6
CONTINUOUS
10
-94.937545
20
35.762565
30
0.0
11
-93.635205
21
35.395365
31
0.0
0
LINE
8
0
6
CONTINUOUS
10
-93.147005
20
35.257305
30
0.0
11
-91.821836
21
39.459808
31
0.0
0
LINE
8
0
6
CONTINUOUS
10
-93.635205
20
35.395365
30
0.0
11
-93.147005
21
35.257305
31
0.0
0
LINE
8
0
6
CONTINUOUS
10
-103.238555
20
38.108655
30
0.0
11
-106.710955
21
39.089785
31
0.0
0
LINE
8
0
6
CONTINUOUS
10
-106.891485
20
38.517255
30
0.0
11
-103.473655
21
37.550835
31
0.0
0
LINE
8
0
6
CONTINUOUS
10
-99.983145
20
37.189225
30
0.0
11
-103.238555
21
38.108655
31
0.0
0
LINE
8
0
6
CONTINUOUS
10
-103.473655
20
37.550835
30
0.0
11
-100.326695
21
36.661715
31
0.0
0
LINE
8
0
6
CONTINUOUS
10
-97.107605
20
36.376505
30
0.0
11
-99.983145
21
37.189225
31
0.0
0
LINE
8
0
6
CONTINUOUS
10
-100.326695
20
36.661715
30
0.0
11
-97.559805
21
35.879365
31
0.0
0
LINE
8
0
6
CONTINUOUS
10
-94.937545
20
35.762565
30
0.0
11
-97.107605
21
36.376505
31
0.0
0
LINE
8
0
6
CONTINUOUS
10
-97.559805
20
35.879365
30
0.0
11
-95.443655
21
35.282065
31
0.0
0
LINE
8
0
6
CONTINUOUS
10
-93.635205
20
35.395365
30
0.0
11
-94.937545
21
35.762565
31
0.0
0
LINE
8
0
6
CONTINUOUS
10
-95.443655
20
35.282065
30
0.0
11
-94.141585
21
34.913905
31
0.0
0
LINE
8
0
6
CONTINUOUS
10
-93.147005
20
35.257305
30
0.0
11
-93.635205
21
35.395365
31
0.0
0
LINE
8
0
6
CONTINUOUS
10
-93.653245
20
34.775835
30
0.0
11
-93.147005
21
35.257305
31
0.0
0
LINE
8
0
6
CONTINUOUS
10
-94.141585
20
34.913905
30
0.0
11
-93.653245
21
34.775835
31
0.0
0
LINE
8
0
6
CONTINUOUS
10
-97.559805
20
35.879365
30
0.0
11
-100.326695
21
36.661715
31
0.0
0
LINE
8
0
6
CONTINUOUS
10
-94.141585
20
34.913905
30
0.0
11
-95.443655
21
35.282065
31
0.0
0
LINE
8
0
6
CONTINUOUS
10
-93.653245
20
34.775835
30
0.0
11
-94.141585
21
34.913905
31
0.0
0
LINE
8
0
6
CONTINUOUS
10
59.212945
20
-37.776715
30
0.0
11
69.350367
21
-45.565911
31
0.0
0
LINE
8
0
6
CONTINUOUS
10
69.491620
20
-20.829288
30
0.0
11
68.434745
21
-20.030365
31
0.0
0
LINE
8
0
6
CONTINUOUS
10
35.245135
20
-20.487095
30
0.0
11
59.212945
21
-37.776715
31
0.0
0
LINE
8
0
6
CONTINUOUS
10
68.434745
20
-20.030365
30
0.0
11
44.379585
21
-2.694545
31
0.0
0
LINE
8
0
6
CONTINUOUS
10
7.040495
20
-2.788775
30
0.0
11
35.245135
21
-20.487095
31
0.0
0
LINE
8
0
6
CONTINUOUS
10
44.379585
20
-2.694545
30
0.0
11
16.021655
21
15.081905
31
0.0
0
LINE
8
0
6
CONTINUOUS
10
-19.266765
20
11.777495
30
0.0
11
7.040495
21
-2.788775
31
0.0
0
LINE
8
0
6
CONTINUOUS
10
16.021655
20
15.081905
30
0.0
11
-11.237965
21
30.094915
31
0.0
0
LINE
8
0
6
CONTINUOUS
10
-41.958515
20
22.762655
30
0.0
11
-19.266765
21
11.777495
31
0.0
0
LINE
8
0
6
CONTINUOUS
10
-11.237965
20
30.094915
30
0.0
11
-33.930105
21
41.080155
31
0.0
0
LINE
8
0
6
CONTINUOUS
10
-65.167895
20
31.964685
30
0.0
11
-41.958515
21
22.762655
31
0.0
0
LINE
8
0
6
CONTINUOUS
10
-33.930105
20
41.080155
30
0.0
11
-57.946095
21
50.615485
31
0.0
0
LINE
8
0
6
CONTINUOUS
10
-98.758595
20
64.309845
30
0.0
11
-99.323815
21
64.469305
31
0.0
0
LINE
8
0
6
CONTINUOUS
10
-99.323815
20
64.469305
30
0.0
11
-99.889055
21
64.628735
31
0.0
0
LINE
8
0
6
CONTINUOUS
10
-114.921615
20
65.756035
30
0.0
11
-115.788015
21
64.960585
31
0.0
0
LINE
8
0
6
CONTINUOUS
10
-112.924835
20
66.232555
30
0.0
11
-114.921615
21
65.756035
31
0.0
0
LINE
8
0
6
CONTINUOUS
10
-106.821465
20
66.068025
30
0.0
11
-112.924835
21
66.232555
31
0.0
0
LINE
8
0
6
CONTINUOUS
10
-101.019235
20
64.948595
30
0.0
11
-106.821465
21
66.068025
31
0.0
0
LINE
8
0
6
CONTINUOUS
10
-100.341065
20
64.756675
30
0.0
11
-100.680355
21
64.852165
31
0.0
0
LINE
8
0
6
CONTINUOUS
10
-109.115515
20
44.347715
30
0.0
11
-112.732705
21
45.369315
31
0.0
0
LINE
8
0
6
CONTINUOUS
10
-105.084335
20
44.248505
30
0.0
11
-109.153335
21
45.399015
31
0.0
0
LINE
8
0
6
CONTINUOUS
10
-109.115515
20
44.347715
30
0.0
11
-105.385365
21
43.293615
31
0.0
0
LINE
8
0
6
CONTINUOUS
10
-109.153335
20
45.399015
30
0.0
11
-112.996565
21
46.484625
31
0.0
0
LINE
8
0
6
CONTINUOUS
10
-112.732705
20
45.369315
30
0.0
11
-109.115515
21
44.347715
31
0.0
0
LINE
8
0
6
CONTINUOUS
10
-112.996565
20
46.484625
30
0.0
11
-116.274535
21
47.410755
31
0.0
0
LINE
8
0
6
CONTINUOUS
10
-115.784385
20
46.232445
30
0.0
11
-112.732705
21
45.369315
31
0.0
0
LINE
8
0
6
CONTINUOUS
10
-109.153335
20
45.399015
30
0.0
11
-105.084335
21
44.248505
31
0.0
0
LINE
8
0
6
CONTINUOUS
10
-112.996565
20
46.484625
30
0.0
11
-109.153335
21
45.399015
31
0.0
0
LINE
8
0
6
CONTINUOUS
10
-116.274535
20
47.410755
30
0.0
11
-112.996565
21
46.484625
31
0.0
0
LINE
8
0
6
CONTINUOUS
10
-119.514435
20
47.286535
30
0.0
11
-120.079675
21
47.445965
31
0.0
0
LINE
8
0
6
CONTINUOUS
10
-115.784385
20
46.232445
30
0.0
11
-118.158215
21
46.902695
31
0.0
0
LINE
8
0
6
CONTINUOUS
10
-120.908785
20
48.720695
30
0.0
11
-120.079675
21
47.445965
31
0.0
0
LINE
8
0
6
CONTINUOUS
10
-120.343545
20
48.561275
30
0.0
11
-120.908785
21
48.720695
31
0.0
0
LINE
8
0
6
CONTINUOUS
10
-120.079675
20
47.445965
30
0.0
11
-119.514435
21
47.286535
31
0.0
0
LINE
8
0
6
CONTINUOUS
10
-118.761265
20
48.113465
30
0.0
11
-120.343545
21
48.561275
31
0.0
0
LINE
8
0
6
CONTINUOUS
10
-119.514435
20
47.286535
30
0.0
11
-118.158215
21
46.902695
31
0.0
0
LINE
8
0
6
CONTINUOUS
10
-116.274535
20
47.410755
30
0.0
11
-118.761265
21
48.113465
31
0.0
0
LINE
8
0
6
CONTINUOUS
10
-118.158215
20
46.902695
30
0.0
11
-115.784385
21
46.232445
31
0.0
0
LINE
8
0
6
CONTINUOUS
10
-116.089105
20
64.005685
30
0.0
11
-120.908785
21
48.720695
31
0.0
0
LINE
8
0
6
CONTINUOUS
10
-120.908785
20
48.720695
30
0.0
11
-120.343545
21
48.561275
31
0.0
0
LINE
8
0
6
CONTINUOUS
10
-120.343545
20
48.561275
30
0.0
11
-118.761265
21
48.113465
31
0.0
0
LINE
8
0
6
CONTINUOUS
10
-118.761265
20
48.113465
30
0.0
11
-116.274535
21
47.410755
31
0.0
0
LINE
8
0
6
CONTINUOUS
10
-115.788015
20
64.960585
30
0.0
11
-116.089105
21
64.005685
31
0.0
0
LINE
8
0
6
CONTINUOUS
10
-98.038415
20
41.216965
30
0.0
11
-101.655335
21
42.239535
31
0.0
0
LINE
8
0
6
CONTINUOUS
10
-101.015045
20
43.098945
30
0.0
11
-105.084335
21
44.248505
31
0.0
0
LINE
8
0
6
CONTINUOUS
10
-105.385365
20
43.293615
30
0.0
11
-101.655335
21
42.239535
31
0.0
0
LINE
8
0
6
CONTINUOUS
10
-97.172155
20
42.012415
30
0.0
11
-101.015045
21
43.098945
31
0.0
0
LINE
8
0
6
CONTINUOUS
10
-101.655335
20
42.239535
30
0.0
11
-98.038415
21
41.216965
31
0.0
0
LINE
8
0
6
CONTINUOUS
10
-93.894105
20
41.086265
30
0.0
11
-97.172155
21
42.012415
31
0.0
0
LINE
8
0
6
CONTINUOUS
10
-98.038415
20
41.216965
30
0.0
11
-94.986485
21
40.354795
31
0.0
0
LINE
8
0
6
CONTINUOUS
10
-105.084335
20
44.248505
30
0.0
11
-101.015045
21
43.098945
31
0.0
0
LINE
8
0
6
CONTINUOUS
10
-101.015045
20
43.098945
30
0.0
11
-97.172155
21
42.012415
31
0.0
0
LINE
8
0
6
CONTINUOUS
10
-97.172155
20
42.012415
30
0.0
11
-93.894105
21
41.086265
31
0.0
0
LINE
8
0
6
CONTINUOUS
10
-90.691475
20
39.140305
30
0.0
11
-91.256435
21
39.300715
31
0.0
0
LINE
8
0
6
CONTINUOUS
10
-92.612945
20
39.683585
30
0.0
11
-94.986485
21
40.354795
31
0.0
0
LINE
8
0
6
CONTINUOUS
10
-89.259845
20
39.776295
30
0.0
11
-89.824815
21
39.936715
31
0.0
0
LINE
8
0
6
CONTINUOUS
10
-90.691475
20
39.140305
30
0.0
11
-89.259845
21
39.776295
31
0.0
0
LINE
8
0
6
CONTINUOUS
10
-91.256435
20
39.300715
30
0.0
11
-90.691475
21
39.140305
31
0.0
0
LINE
8
0
6
CONTINUOUS
10
-89.824815
20
39.936715
30
0.0
11
-91.407425
21
40.383565
31
0.0
0
LINE
8
0
6
CONTINUOUS
10
-92.612945
20
39.683585
30
0.0
11
-91.256435
21
39.300715
31
0.0
0
LINE
8
0
6
CONTINUOUS
10
-91.407425
20
40.383565
30
0.0
11
-93.894105
21
41.086265
31
0.0
0
LINE
8
0
6
CONTINUOUS
10
-94.986485
20
40.354795
30
0.0
11
-92.612945
21
39.683585
31
0.0
0
LINE
8
0
6
CONTINUOUS
10
-89.259845
20
39.776295
30
0.0
11
-89.130072
21
40.187860
31
0.0
0
LINE
8
0
6
CONTINUOUS
10
-89.824815
20
39.936715
30
0.0
11
-89.259845
21
39.776295
31
0.0
0
LINE
8
0
6
CONTINUOUS
10
-91.407425
20
40.383565
30
0.0
11
-89.824815
21
39.936715
31
0.0
0
LINE
8
0
6
CONTINUOUS
10
-93.894105
20
41.086265
30
0.0
11
-91.407425
21
40.383565
31
0.0
0
LINE
8
0
6
CONTINUOUS
10
-89.130099
20
40.187836
30
0.0
11
-86.542975
21
39.358695
31
0.0
0
LINE
8
0
6
CONTINUOUS
10
-80.141435
20
58.306785
30
0.0
11
-96.896885
21
63.709555
31
0.0
0
LINE
8
0
6
CONTINUOUS
10
-86.542975
20
39.358695
30
0.0
11
-65.167895
21
31.964685
31
0.0
0
LINE
8
0
6
CONTINUOUS
10
-57.946095
20
50.615485
30
0.0
11
-80.141435
21
58.306785
31
0.0
0
LINE
8
0
6
CONTINUOUS
10
-99.963525
20
60.488355
30
0.0
11
-100.264655
21
59.533465
31
0.0
0
LINE
8
0
6
CONTINUOUS
10
-96.896885
20
63.709555
30
0.0
11
-98.758595
21
64.309845
31
0.0
0
LINE
8
0
6
CONTINUOUS
10
-10.858995
20
76.410655
30
0.0
11
-9.701715
21
74.970425
31
0.0
0
LINE
8
0
6
CONTINUOUS
10
-5.899855
20
76.941615
30
0.0
11
-7.808125
21
77.585775
31
0.0
0
LINE
8
0
6
CONTINUOUS
10
-4.062635
20
76.410085
30
0.0
11
-5.899855
21
76.941615
31
0.0
0
LINE
8
0
6
CONTINUOUS
10
-9.476295
20
78.260885
30
0.0
11
-10.231345
21
78.366885
31
0.0
0
LINE
8
0
6
CONTINUOUS
10
-10.231345
20
78.366885
30
0.0
11
-11.124445
21
77.863645
31
0.0
0
LINE
8
0
6
CONTINUOUS
10
120.901885
20
33.304545
30
0.0
11
120.908785
21
33.658275
31
0.0
0
LINE
8
0
6
CONTINUOUS
10
120.908785
20
33.658275
30
0.0
11
120.798475
21
34.132255
31
0.0
0
LINE
8
0
6
CONTINUOUS
10
-1.748425
20
74.870565
30
0.0
11
-4.288055
21
75.674215
31
0.0
0
LINE
8
0
6
CONTINUOUS
10
-6.646955
20
76.413765
30
0.0
11
-8.675905
21
77.043745
31
0.0
0
LINE
8
0
6
CONTINUOUS
10
-4.288055
20
75.674215
30
0.0
11
-6.646955
21
76.413765
31
0.0
0
LINE
8
0
6
CONTINUOUS
10
-8.675905
20
77.043745
30
0.0
11
-10.074085
21
77.509405
31
0.0
0
LINE
8
0
6
CONTINUOUS
10
120.479025
20
34.496965
30
0.0
11
119.959855
21
34.825345
31
0.0
0
LINE
8
0
6
CONTINUOUS
10
0.383785
20
73.198005
30
0.0
11
43.967505
21
58.837665
31
0.0
0
LINE
8
0
6
CONTINUOUS
10
120.798475
20
34.132255
30
0.0
11
120.479025
21
34.496965
31
0.0
0
LINE
8
0
6
CONTINUOUS
10
-10.074085
20
77.509405
30
0.0
11
-10.759455
21
77.740375
31
0.0
0
LINE
8
0
6
CONTINUOUS
10
-10.759455
20
77.740375
30
0.0
11
-11.124445
21
77.863645
31
0.0
0
LINE
8
0
6
CONTINUOUS
10
-11.172935
20
76.801345
30
0.0
11
-10.858995
21
76.410655
31
0.0
0
LINE
8
0
6
CONTINUOUS
10
90.588265
20
5.216765
30
0.0
11
94.842875
21
5.223485
31
0.0
0
LINE
8
0
6
CONTINUOUS
10
94.842875
20
5.223485
30
0.0
11
99.417565
21
6.938395
31
0.0
0
LINE
8
0
6
CONTINUOUS
10
86.422515
20
5.210195
30
0.0
11
90.588265
21
5.216765
31
0.0
0
LINE
8
0
6
CONTINUOUS
10
99.417565
20
6.938395
30
0.0
11
103.931895
21
8.589325
31
0.0
0
LINE
8
0
6
CONTINUOUS
10
103.931895
20
8.589325
30
0.0
11
108.247925
21
10.167735
31
0.0
0
LINE
8
0
6
CONTINUOUS
10
108.247925
20
10.167735
30
0.0
11
111.526155
21
11.366615
31
0.0
0
LINE
8
0
6
CONTINUOUS
10
111.526155
20
11.366615
30
0.0
11
114.362775
21
12.403985
31
0.0
0
LINE
8
0
6
CONTINUOUS
10
114.362775
20
12.403985
30
0.0
11
116.932165
21
13.343635
31
0.0
0
LINE
8
0
6
CONTINUOUS
10
120.524965
20
14.657545
30
0.0
11
120.551995
21
15.112095
31
0.0
0
LINE
8
0
6
CONTINUOUS
10
120.216985
20
14.544915
30
0.0
11
120.524965
21
14.657545
31
0.0
0
LINE
8
0
6
CONTINUOUS
10
118.969685
20
14.088765
30
0.0
11
120.216985
21
14.544915
31
0.0
0
LINE
8
0
6
CONTINUOUS
10
116.932165
20
13.343635
30
0.0
11
118.969685
21
14.088765
31
0.0
0
LINE
8
0
6
CONTINUOUS
10
82.534885
20
5.204065
30
0.0
11
86.422515
21
5.210195
31
0.0
0
LINE
8
0
6
CONTINUOUS
10
71.671355
20
5.186995
30
0.0
11
73.576935
21
5.189975
31
0.0
0
LINE
8
0
6
CONTINUOUS
10
73.576935
20
5.189975
30
0.0
11
76.019845
21
5.193815
31
0.0
0
LINE
8
0
6
CONTINUOUS
10
70.201475
20
5.184705
30
0.0
11
71.671355
21
5.186995
31
0.0
0
LINE
8
0
6
CONTINUOUS
10
69.334835
20
5.183365
30
0.0
11
70.201475
21
5.184705
31
0.0
0
LINE
8
0
6
CONTINUOUS
10
69.056255
20
5.691895
30
0.0
11
69.055035
21
5.182965
31
0.0
0
LINE
8
0
6
CONTINUOUS
10
69.055035
20
5.182965
30
0.0
11
69.334835
21
5.183365
31
0.0
0
LINE
8
0
6
CONTINUOUS
10
76.019845
20
5.193815
30
0.0
11
78.861275
21
5.198275
31
0.0
0
LINE
8
0
6
CONTINUOUS
10
78.861275
20
5.198275
30
0.0
11
82.534885
21
5.204065
31
0.0
0
LINE
8
0
6
CONTINUOUS
10
-11.124445
20
77.863645
30
0.0
11
-11.172935
21
76.801345
31
0.0
0
LINE
8
0
6
CONTINUOUS
10
0.139755
20
76.517355
30
0.0
11
-0.155975
21
76.600735
31
0.0
0
LINE
8
0
6
CONTINUOUS
10
120.702895
20
23.103845
30
0.0
11
120.754365
21
25.742445
31
0.0
0
LINE
8
0
6
CONTINUOUS
10
120.754365
20
25.742445
30
0.0
11
120.805835
21
28.381055
31
0.0
0
LINE
8
0
6
CONTINUOUS
10
120.805835
20
28.381055
30
0.0
11
120.857315
21
31.019665
31
0.0
0
LINE
8
0
6
CONTINUOUS
10
120.651425
20
20.465235
30
0.0
11
120.702895
21
23.103845
31
0.0
0
LINE
8
0
6
CONTINUOUS
10
103.751515
20
42.952235
30
0.0
11
96.716855
21
45.526165
31
0.0
0
LINE
8
0
6
CONTINUOUS
10
96.716855
20
45.526165
30
0.0
11
91.863725
21
47.212775
31
0.0
0
LINE
8
0
6
CONTINUOUS
10
63.260665
20
56.975425
30
0.0
11
55.734035
21
59.479415
31
0.0
0
LINE
8
0
6
CONTINUOUS
10
55.734035
20
59.479415
30
0.0
11
48.207425
21
61.983395
31
0.0
0
LINE
8
0
6
CONTINUOUS
10
48.207425
20
61.983395
30
0.0
11
-0.155975
21
76.600735
31
0.0
0
LINE
8
0
6
CONTINUOUS
10
47.594095
20
62.041935
30
0.0
11
0.139755
21
76.517355
31
0.0
0
LINE
8
0
6
CONTINUOUS
10
42.855655
20
52.246165
30
0.0
11
50.383975
21
49.327885
31
0.0
0
LINE
8
0
6
CONTINUOUS
10
91.863725
20
47.212775
30
0.0
11
85.807005
21
49.301655
31
0.0
0
LINE
8
0
6
CONTINUOUS
10
85.807005
20
49.301655
30
0.0
11
80.244085
21
51.220225
31
0.0
0
LINE
8
0
6
CONTINUOUS
10
110.628185
20
40.050495
30
0.0
11
103.751515
21
42.952235
31
0.0
0
LINE
8
0
6
CONTINUOUS
10
120.857315
20
31.019665
30
0.0
11
120.901885
21
33.304545
31
0.0
0
LINE
8
0
6
CONTINUOUS
10
-6.988935
20
77.911655
30
0.0
11
-9.476295
21
78.260885
31
0.0
0
LINE
8
0
6
CONTINUOUS
10
69.092745
20
20.465235
30
0.0
11
69.056255
21
5.691895
31
0.0
0
LINE
8
0
6
CONTINUOUS
10
120.551995
20
15.112095
30
0.0
11
120.651425
21
20.465235
31
0.0
0
LINE
8
0
6
CONTINUOUS
10
74.681145
20
53.138815
30
0.0
11
69.091185
21
55.035715
31
0.0
0
LINE
8
0
6
CONTINUOUS
10
80.244085
20
51.220225
30
0.0
11
74.681145
21
53.138815
31
0.0
0
LINE
8
0
6
CONTINUOUS
10
69.091185
20
55.035715
30
0.0
11
63.260665
21
56.975425
31
0.0
0
LINE
8
0
6
CONTINUOUS
10
68.594825
20
25.834355
30
0.0
11
69.092745
21
20.465235
31
0.0
0
LINE
8
0
6
CONTINUOUS
10
63.012205
20
40.824115
30
0.0
11
65.744725
21
36.176365
31
0.0
0
LINE
8
0
6
CONTINUOUS
10
0.139755
20
76.517355
30
0.0
11
-0.155975
21
76.600735
31
0.0
0
LINE
8
0
6
CONTINUOUS
10
-0.155975
20
76.600735
30
0.0
11
-3.764455
21
77.342845
31
0.0
0
LINE
8
0
6
CONTINUOUS
10
65.744725
20
36.176365
30
0.0
11
67.678445
21
31.143405
31
0.0
0
LINE
8
0
6
CONTINUOUS
10
-6.634815
20
72.209325
30
0.0
11
-3.115505
21
70.061195
31
0.0
0
LINE
8
0
6
CONTINUOUS
10
-9.701715
20
74.970425
30
0.0
11
-6.634815
21
72.209325
31
0.0
0
LINE
8
0
6
CONTINUOUS
10
57.571805
20
45.659015
30
0.0
11
63.012205
21
40.824115
31
0.0
0
LINE
8
0
6
CONTINUOUS
10
67.678445
20
31.143405
30
0.0
11
68.594825
21
25.834355
31
0.0
0
LINE
8
0
6
CONTINUOUS
10
50.383975
20
49.327885
30
0.0
11
57.571805
21
45.659015
31
0.0
0
LINE
8
0
6
CONTINUOUS
10
-3.115505
20
70.061195
30
0.0
11
-0.667855
21
68.940285
31
0.0
0
LINE
8
0
6
CONTINUOUS
10
-3.764455
20
77.342845
30
0.0
11
-6.988935
21
77.911655
31
0.0
0
LINE
8
0
6
CONTINUOUS
10
-0.667855
20
68.940285
30
0.0
11
42.855655
21
52.246165
31
0.0
0
LINE
8
0
6
CONTINUOUS
10
119.959855
20
34.825345
30
0.0
11
116.857215
21
36.787785
31
0.0
0
LINE
8
0
6
CONTINUOUS
10
116.857215
20
36.787785
30
0.0
11
110.628185
21
40.050495
31
0.0
0
LINE
8
0
6
CONTINUOUS
10
117.147867
20
10.854322
30
0.0
11
116.042787
21
13.018352
31
0.0
0
LINE
8
0
6
CONTINUOUS
10
118.464262
20
6.728315
30
0.0
11
117.147867
21
10.854322
31
0.0
0
LINE
8
0
6
CONTINUOUS
10
120.343977
20
-77.865976
30
0.0
11
120.343977
21
1.276088
31
0.0
0
LINE
8
0
6
CONTINUOUS
10
69.350367
20
1.276088
30
0.0
11
69.350367
21
-20.722510
31
0.0
0
LINE
8
0
6
CONTINUOUS
10
69.350367
20
-45.565911
30
0.0
11
69.350367
21
-77.865976
31
0.0
0
LINE
8
0
6
CONTINUOUS
10
69.347487
20
3.229585
30
0.0
11
69.348257
21
2.628476
31
0.0
0
LINE
8
0
6
CONTINUOUS
10
70.294339
20
3.683149
30
0.0
11
69.593736
21
3.532919
31
0.0
0
LINE
8
0
6
CONTINUOUS
10
120.346087
20
2.628506
30
0.0
11
120.346857
21
3.229565
31
0.0
0
LINE
8
0
6
CONTINUOUS
10
120.100608
20
3.532909
30
0.0
11
119.400005
21
3.683139
31
0.0
0
LINE
8
0
6
CONTINUOUS
10
118.837496
20
4.539116
30
0.0
11
118.464262
21
6.728315
31
0.0
0
LINE
8
0
6
CONTINUOUS
10
76.816914
20
2.378076
30
0.0
11
82.097844
21
2.378066
31
0.0
0
LINE
8
0
6
CONTINUOUS
10
69.348257
20
2.628476
30
0.0
11
69.348567
21
2.378066
31
0.0
0
LINE
8
0
6
CONTINUOUS
10
69.348567
20
2.378066
30
0.0
11
70.217408
21
2.378066
31
0.0
0
LINE
8
0
6
CONTINUOUS
10
119.427822
20
3.480035
30
0.0
11
116.907997
21
3.480035
31
0.0
0
LINE
8
0
6
CONTINUOUS
10
116.907997
20
3.480035
30
0.0
11
112.839105
21
3.480035
31
0.0
0
LINE
8
0
6
CONTINUOUS
10
112.839105
20
3.480035
30
0.0
11
107.523599
21
3.480035
31
0.0
0
LINE
8
0
6
CONTINUOUS
10
107.523599
20
3.480035
30
0.0
11
101.435879
21
3.480035
31
0.0
0
LINE
8
0
6
CONTINUOUS
10
101.435879
20
3.480035
30
0.0
11
94.847152
21
3.480035
31
0.0
0
LINE
8
0
6
CONTINUOUS
10
94.847152
20
3.480035
30
0.0
11
88.258455
21
3.480035
31
0.0
0
LINE
8
0
6
CONTINUOUS
10
88.258455
20
3.480035
30
0.0
11
82.097144
21
3.480035
31
0.0
0
LINE
8
0
6
CONTINUOUS
10
76.815934
20
3.480045
30
0.0
11
72.786337
21
3.480035
31
0.0
0
LINE
8
0
6
CONTINUOUS
10
72.786337
20
3.480035
30
0.0
11
70.216058
21
3.480045
31
0.0
0
LINE
8
0
6
CONTINUOUS
10
120.347177
20
3.480035
30
0.0
11
120.100608
21
3.532909
31
0.0
0
LINE
8
0
6
CONTINUOUS
10
120.346857
20
3.229565
30
0.0
11
120.347177
21
3.480035
31
0.0
0
LINE
8
0
6
CONTINUOUS
10
120.347177
20
3.480035
30
0.0
11
119.427822
21
3.480035
31
0.0
0
LINE
8
0
6
CONTINUOUS
10
120.345777
20
2.378066
30
0.0
11
120.346087
21
2.628506
31
0.0
0
LINE
8
0
6
CONTINUOUS
10
119.405245
20
2.378066
30
0.0
11
120.345777
21
2.378066
31
0.0
0
LINE
8
0
6
CONTINUOUS
10
69.593736
20
3.532919
30
0.0
11
69.347177
21
3.480045
31
0.0
0
LINE
8
0
6
CONTINUOUS
10
69.347177
20
3.480045
30
0.0
11
69.347487
21
3.229585
31
0.0
0
LINE
8
0
6
CONTINUOUS
10
70.216058
20
3.480045
30
0.0
11
69.347177
21
3.480045
31
0.0
0
LINE
8
0
6
CONTINUOUS
10
101.430820
20
2.378066
30
0.0
11
107.491963
21
2.378066
31
0.0
0
LINE
8
0
6
CONTINUOUS
10
82.097144
20
3.480035
30
0.0
11
76.815934
21
3.480045
31
0.0
0
LINE
8
0
6
CONTINUOUS
10
107.491963
20
2.378066
30
0.0
11
112.821597
21
2.378066
31
0.0
0
LINE
8
0
6
CONTINUOUS
10
112.821597
20
2.378066
30
0.0
11
116.897198
21
2.378066
31
0.0
0
LINE
8
0
6
CONTINUOUS
10
116.897198
20
2.378066
30
0.0
11
119.405245
21
2.378066
31
0.0
0
LINE
8
0
6
CONTINUOUS
10
94.847152
20
2.378066
30
0.0
11
101.430820
21
2.378066
31
0.0
0
LINE
8
0
6
CONTINUOUS
10
88.263524
20
2.378066
30
0.0
11
94.847152
21
2.378066
31
0.0
0
LINE
8
0
6
CONTINUOUS
10
82.097844
20
2.378066
30
0.0
11
88.263524
21
2.378066
31
0.0
0
LINE
8
0
6
CONTINUOUS
10
70.217408
20
2.378066
30
0.0
11
72.797156
21
2.378066
31
0.0
0
LINE
8
0
6
CONTINUOUS
10
119.400005
20
3.683139
30
0.0
11
118.879600
21
4.292172
31
0.0
0
LINE
8
0
6
CONTINUOUS
10
118.879600
20
4.292172
30
0.0
11
118.837496
21
4.539116
31
0.0
0
LINE
8
0
6
CONTINUOUS
10
70.814744
20
4.292182
30
0.0
11
70.294339
21
3.683149
31
0.0
0
LINE
8
0
6
CONTINUOUS
10
70.856878
20
4.539266
30
0.0
11
70.814744
21
4.292182
31
0.0
0
LINE
8
0
6
CONTINUOUS
10
120.093269
20
1.248168
30
0.0
11
120.093269
21
2.378066
31
0.0
0
LINE
8
0
6
CONTINUOUS
10
76.816914
20
2.378076
30
0.0
11
72.797156
21
2.378066
31
0.0
0
LINE
8
0
6
CONTINUOUS
10
69.600695
20
2.378066
30
0.0
11
69.600695
21
1.248168
31
0.0
0
LINE
8
0
6
CONTINUOUS
10
120.343977
20
1.276088
30
0.0
11
120.343977
21
1.776987
31
0.0
0
LINE
8
0
6
CONTINUOUS
10
120.343977
20
1.776987
30
0.0
11
119.426102
21
1.776987
31
0.0
0
LINE
8
0
6
CONTINUOUS
10
116.978408
20
1.776987
30
0.0
11
112.898927
21
1.776987
31
0.0
0
LINE
8
0
6
CONTINUOUS
10
107.493582
20
1.776987
30
0.0
11
101.374357
21
1.776987
31
0.0
0
LINE
8
0
6
CONTINUOUS
10
112.898927
20
1.776987
30
0.0
11
107.493582
21
1.776987
31
0.0
0
LINE
8
0
6
CONTINUOUS
10
119.426102
20
1.776987
30
0.0
11
116.978408
21
1.776987
31
0.0
0
LINE
8
0
6
CONTINUOUS
10
76.795417
20
1.776987
30
0.0
11
72.715936
21
1.776987
31
0.0
0
LINE
8
0
6
CONTINUOUS
10
69.350367
20
1.776987
30
0.0
11
69.350367
21
1.276088
31
0.0
0
LINE
8
0
6
CONTINUOUS
10
70.268242
20
1.776987
30
0.0
11
69.350367
21
1.776987
31
0.0
0
LINE
8
0
6
CONTINUOUS
10
72.715936
20
1.776987
30
0.0
11
70.268242
21
1.776987
31
0.0
0
LINE
8
0
6
CONTINUOUS
10
101.374357
20
1.776987
30
0.0
11
94.847172
21
1.776987
31
0.0
0
LINE
8
0
6
CONTINUOUS
10
94.847172
20
1.776987
30
0.0
11
88.319987
21
1.776987
31
0.0
0
LINE
8
0
6
CONTINUOUS
10
88.319987
20
1.776987
30
0.0
11
82.200762
21
1.776987
31
0.0
0
LINE
8
0
6
CONTINUOUS
10
82.200762
20
1.776987
30
0.0
11
76.795417
21
1.776987
31
0.0
0
LINE
8
0
6
CONTINUOUS
10
116.909406
20
-78.366885
30
0.0
11
119.405115
21
-78.366885
31
0.0
0
LINE
8
0
6
CONTINUOUS
10
112.877930
20
-78.366885
30
0.0
11
116.909406
21
-78.366885
31
0.0
0
LINE
8
0
6
CONTINUOUS
10
82.200762
20
-78.366885
30
0.0
11
88.319987
21
-78.366885
31
0.0
0
LINE
8
0
6
CONTINUOUS
10
94.847172
20
-78.366885
30
0.0
11
101.350360
21
-78.366885
31
0.0
0
LINE
8
0
6
CONTINUOUS
10
88.319987
20
-78.366885
30
0.0
11
94.847172
21
-78.366885
31
0.0
0
LINE
8
0
6
CONTINUOUS
10
120.343977
20
-78.366885
30
0.0
11
120.343977
21
-77.865976
31
0.0
0
LINE
8
0
6
CONTINUOUS
10
119.405115
20
-78.366885
30
0.0
11
120.343977
21
-78.366885
31
0.0
0
LINE
8
0
6
CONTINUOUS
10
107.462596
20
-78.366885
30
0.0
11
112.877930
21
-78.366885
31
0.0
0
LINE
8
0
6
CONTINUOUS
10
72.715936
20
-78.366885
30
0.0
11
76.795417
21
-78.366885
31
0.0
0
LINE
8
0
6
CONTINUOUS
10
69.350367
20
-78.366885
30
0.0
11
70.268242
21
-78.366885
31
0.0
0
LINE
8
0
6
CONTINUOUS
10
69.350367
20
-77.865976
30
0.0
11
69.350367
21
-78.366885
31
0.0
0
LINE
8
0
6
CONTINUOUS
10
76.795417
20
-78.366885
30
0.0
11
82.200762
21
-78.366885
31
0.0
0
LINE
8
0
6
CONTINUOUS
10
70.268242
20
-78.366885
30
0.0
11
72.715936
21
-78.366885
31
0.0
0
LINE
8
0
6
CONTINUOUS
10
101.350360
20
-78.366885
30
0.0
11
107.462596
21
-78.366885
31
0.0
0
LINE
8
0
6
CONTINUOUS
10
-94.768844
20
49.634163
30
0.0
11
-97.445882
21
54.418003
31
0.0
0
LINE
8
0
6
CONTINUOUS
10
-94.702407
20
49.330242
30
0.0
11
-94.768844
21
49.634163
31
0.0
0
LINE
8
0
6
CONTINUOUS
10
-90.652868
20
42.776412
30
0.0
11
-92.384824
21
45.872756
31
0.0
0
LINE
8
0
6
CONTINUOUS
10
-92.384824
20
45.872756
30
0.0
11
-92.507445
21
45.998547
31
0.0
0
LINE
8
0
6
CONTINUOUS
10
-92.507445
20
45.998547
30
0.0
11
-94.702407
21
49.330242
31
0.0
0
LINE
8
0
6
CONTINUOUS
10
-89.130072
20
40.187860
30
0.0
11
-89.523324
21
40.838643
31
0.0
0
LINE
8
0
6
CONTINUOUS
10
-89.525892
20
40.884719
30
0.0
11
-90.652665
21
42.777153
31
0.0
0
LINE
8
0
6
CONTINUOUS
10
-89.523324
20
40.838643
30
0.0
11
-89.525892
21
40.884719
31
0.0
0
LINE
8
0
6
CONTINUOUS
10
74.516695
20
-30.832504
30
0.0
11
74.516695
21
-29.590178
31
0.0
0
ENDSEC
0
EOF
