999
Erzeugt mit innoplus bad 
0
SECTION
2
HEADER
9
$ACADVER
1
AC1009
9
$DWGCODEPAGE
3
ISO8859-1
0
ENDSEC
0
SECTION
2
TABLES
0
TABLE
2
LAYER
70
1
0
LAYER
2
0
70
0
62
7
6
CONTINUOUS
0
ENDTAB
0
ENDSEC
0
SECTION
2
ENTITIES
0
LINE
8
0
6
CONTINUOUS
10
0.019000
20
0.136124
30
0.0
11
0.019000
21
0.138934
31
0.0
0
LINE
8
0
6
CONTINUOUS
10
0.017888
20
0.146000
30
0.0
11
0.017119
21
0.146000
31
0.0
0
LINE
8
0
6
CONTINUOUS
10
0.019000
20
0.138934
30
0.0
11
0.019000
21
0.142191
31
0.0
0
LINE
8
0
6
CONTINUOUS
10
0.019000
20
0.142191
30
0.0
11
0.019000
21
0.145448
31
0.0
0
LINE
8
0
6
CONTINUOUS
10
0.018657
20
0.146000
30
0.0
11
0.017888
21
0.146000
31
0.0
0
LINE
8
0
6
CONTINUOUS
10
0.016105
20
0.146000
30
0.0
11
0.015598
21
0.146000
31
0.0
0
LINE
8
0
6
CONTINUOUS
10
0.016612
20
0.146000
30
0.0
11
0.016105
21
0.146000
31
0.0
0
LINE
8
0
6
CONTINUOUS
10
0.014838
20
0.146000
30
0.0
11
0.014077
21
0.146000
31
0.0
0
LINE
8
0
6
CONTINUOUS
10
0.014077
20
0.146000
30
0.0
11
0.012856
21
0.146000
31
0.0
0
LINE
8
0
6
CONTINUOUS
10
0.017119
20
0.146000
30
0.0
11
0.016612
21
0.146000
31
0.0
0
LINE
8
0
6
CONTINUOUS
10
0.003216
20
0.146000
30
0.0
11
-0.000000
21
0.146000
31
0.0
0
LINE
8
0
6
CONTINUOUS
10
0.015598
20
0.146000
30
0.0
11
0.014838
21
0.146000
31
0.0
0
LINE
8
0
6
CONTINUOUS
10
0.019000
20
0.146000
30
0.0
11
0.018657
21
0.146000
31
0.0
0
LINE
8
0
6
CONTINUOUS
10
0.019000
20
0.145448
30
0.0
11
0.019000
21
0.146000
31
0.0
0
LINE
8
0
6
CONTINUOUS
10
0.006432
20
0.146000
30
0.0
11
0.003216
21
0.146000
31
0.0
0
LINE
8
0
6
CONTINUOUS
10
0.012856
20
0.146000
30
0.0
11
0.010085
21
0.146000
31
0.0
0
LINE
8
0
6
CONTINUOUS
10
0.012699
20
0.145432
30
0.0
11
0.012856
21
0.146000
31
0.0
0
LINE
8
0
6
CONTINUOUS
10
0.010085
20
0.146000
30
0.0
11
0.006432
21
0.146000
31
0.0
0
LINE
8
0
6
CONTINUOUS
10
0.009983
20
0.145427
30
0.0
11
0.010085
21
0.146000
31
0.0
0
LINE
8
0
6
CONTINUOUS
10
0.018353
20
0.146000
30
0.0
11
0.016454
21
0.146000
31
0.0
0
LINE
8
0
6
CONTINUOUS
10
0.017655
20
0.146000
30
0.0
11
0.018353
21
0.146000
31
0.0
0
LINE
8
0
6
CONTINUOUS
10
0.016454
20
0.146000
30
0.0
11
0.013435
21
0.146000
31
0.0
0
LINE
8
0
6
CONTINUOUS
10
0.014742
20
0.140193
30
0.0
11
0.015670
21
0.139809
31
0.0
0
LINE
8
0
6
CONTINUOUS
10
0.012397
20
0.141043
30
0.0
11
0.010996
21
0.141530
31
0.0
0
LINE
8
0
6
CONTINUOUS
10
0.018353
20
0.111800
30
0.0
11
0.016455
21
0.111800
31
0.0
0
LINE
8
0
6
CONTINUOUS
10
0.018353
20
0.111800
30
0.0
11
0.019000
21
0.111800
31
0.0
0
LINE
8
0
6
CONTINUOUS
10
0.019000
20
0.111800
30
0.0
11
0.019000
21
0.112274
31
0.0
0
LINE
8
0
6
CONTINUOUS
10
0.013435
20
0.111800
30
0.0
11
0.016455
21
0.111800
31
0.0
0
LINE
8
0
6
CONTINUOUS
10
0.009500
20
0.111800
30
0.0
11
0.013435
21
0.111800
31
0.0
0
LINE
8
0
6
CONTINUOUS
10
0.004918
20
0.111800
30
0.0
11
0.009500
21
0.111800
31
0.0
0
LINE
8
0
6
CONTINUOUS
10
-0.000000
20
0.111800
30
0.0
11
0.004918
21
0.111800
31
0.0
0
LINE
8
0
6
CONTINUOUS
10
0.003231
20
0.146000
30
0.0
11
0.003356
21
0.146000
31
0.0
0
LINE
8
0
6
CONTINUOUS
10
0.003356
20
0.146000
30
0.0
11
-0.000000
21
0.146000
31
0.0
0
LINE
8
0
6
CONTINUOUS
10
0.013152
20
0.146000
30
0.0
11
0.009198
21
0.146000
31
0.0
0
LINE
8
0
6
CONTINUOUS
10
0.012870
20
0.146000
30
0.0
11
0.013152
21
0.146000
31
0.0
0
LINE
8
0
6
CONTINUOUS
10
0.011816
20
0.143558
30
0.0
11
0.012699
21
0.145432
31
0.0
0
LINE
8
0
6
CONTINUOUS
10
0.009983
20
0.145427
30
0.0
11
0.006432
21
0.145409
31
0.0
0
LINE
8
0
6
CONTINUOUS
10
0.009555
20
0.144118
30
0.0
11
0.009983
21
0.145427
31
0.0
0
LINE
8
0
6
CONTINUOUS
10
0.009555
20
0.144118
30
0.0
11
0.006432
21
0.145409
31
0.0
0
LINE
8
0
6
CONTINUOUS
10
0.006432
20
0.145409
30
0.0
11
0.006432
21
0.144495
31
0.0
0
LINE
8
0
6
CONTINUOUS
10
0.019000
20
0.130478
30
0.0
11
0.019000
21
0.133297
31
0.0
0
LINE
8
0
6
CONTINUOUS
10
0.011816
20
0.143558
30
0.0
11
0.009555
21
0.144118
31
0.0
0
LINE
8
0
6
CONTINUOUS
10
0.008920
20
0.143289
30
0.0
11
0.009913
21
0.142472
31
0.0
0
LINE
8
0
6
CONTINUOUS
10
0.013249
20
0.143011
30
0.0
11
0.014091
21
0.142905
31
0.0
0
LINE
8
0
6
CONTINUOUS
10
0.019000
20
0.133297
30
0.0
11
0.019000
21
0.136124
31
0.0
0
LINE
8
0
6
CONTINUOUS
10
0.013249
20
0.143011
30
0.0
11
0.011816
21
0.143558
31
0.0
0
LINE
8
0
6
CONTINUOUS
10
0.006432
20
0.144495
30
0.0
11
0.003216
21
0.144495
31
0.0
0
LINE
8
0
6
CONTINUOUS
10
0.003216
20
0.144495
30
0.0
11
-0.000000
21
0.144495
31
0.0
0
LINE
8
0
6
CONTINUOUS
10
0.010996
20
0.141530
30
0.0
11
0.009913
21
0.142472
31
0.0
0
LINE
8
0
6
CONTINUOUS
10
0.019000
20
0.124840
30
0.0
11
0.019000
21
0.127659
31
0.0
0
LINE
8
0
6
CONTINUOUS
10
0.015670
20
0.139809
30
0.0
11
0.016421
21
0.136124
31
0.0
0
LINE
8
0
6
CONTINUOUS
10
0.009481
20
0.132479
30
0.0
11
0.004907
21
0.132564
31
0.0
0
LINE
8
0
6
CONTINUOUS
10
0.013409
20
0.136124
30
0.0
11
0.009461
21
0.136124
31
0.0
0
LINE
8
0
6
CONTINUOUS
10
0.013407
20
0.132299
30
0.0
11
0.009481
21
0.132479
31
0.0
0
LINE
8
0
6
CONTINUOUS
10
0.013405
20
0.134506
30
0.0
11
0.016417
21
0.134170
31
0.0
0
LINE
8
0
6
CONTINUOUS
10
0.016421
20
0.136124
30
0.0
11
0.013409
21
0.136124
31
0.0
0
LINE
8
0
6
CONTINUOUS
10
0.016423
20
0.131724
30
0.0
11
0.013407
21
0.132299
31
0.0
0
LINE
8
0
6
CONTINUOUS
10
0.019000
20
0.127659
30
0.0
11
0.019000
21
0.130478
31
0.0
0
LINE
8
0
6
CONTINUOUS
10
0.014742
20
0.140193
30
0.0
11
0.013802
21
0.140529
31
0.0
0
LINE
8
0
6
CONTINUOUS
10
0.014979
20
0.142774
30
0.0
11
0.014091
21
0.142905
31
0.0
0
LINE
8
0
6
CONTINUOUS
10
0.012397
20
0.141043
30
0.0
11
0.013802
21
0.140529
31
0.0
0
LINE
8
0
6
CONTINUOUS
10
0.009555
20
0.144118
30
0.0
11
0.006432
21
0.144495
31
0.0
0
LINE
8
0
6
CONTINUOUS
10
0.019000
20
0.112274
30
0.0
11
0.019000
21
0.124840
31
0.0
0
LINE
8
0
6
CONTINUOUS
10
-0.019000
20
0.138934
30
0.0
11
-0.019000
21
0.136124
31
0.0
0
LINE
8
0
6
CONTINUOUS
10
-0.017119
20
0.146000
30
0.0
11
-0.017888
21
0.146000
31
0.0
0
LINE
8
0
6
CONTINUOUS
10
-0.019000
20
0.142191
30
0.0
11
-0.019000
21
0.138934
31
0.0
0
LINE
8
0
6
CONTINUOUS
10
-0.019000
20
0.145448
30
0.0
11
-0.019000
21
0.142191
31
0.0
0
LINE
8
0
6
CONTINUOUS
10
-0.017888
20
0.146000
30
0.0
11
-0.018657
21
0.146000
31
0.0
0
LINE
8
0
6
CONTINUOUS
10
-0.015598
20
0.146000
30
0.0
11
-0.016105
21
0.146000
31
0.0
0
LINE
8
0
6
CONTINUOUS
10
-0.016105
20
0.146000
30
0.0
11
-0.016612
21
0.146000
31
0.0
0
LINE
8
0
6
CONTINUOUS
10
-0.014077
20
0.146000
30
0.0
11
-0.014838
21
0.146000
31
0.0
0
LINE
8
0
6
CONTINUOUS
10
-0.012856
20
0.146000
30
0.0
11
-0.014077
21
0.146000
31
0.0
0
LINE
8
0
6
CONTINUOUS
10
-0.016612
20
0.146000
30
0.0
11
-0.017119
21
0.146000
31
0.0
0
LINE
8
0
6
CONTINUOUS
10
-0.000000
20
0.146000
30
0.0
11
-0.003216
21
0.146000
31
0.0
0
LINE
8
0
6
CONTINUOUS
10
-0.014838
20
0.146000
30
0.0
11
-0.015598
21
0.146000
31
0.0
0
LINE
8
0
6
CONTINUOUS
10
-0.019000
20
0.146000
30
0.0
11
-0.019000
21
0.145448
31
0.0
0
LINE
8
0
6
CONTINUOUS
10
-0.018657
20
0.146000
30
0.0
11
-0.019000
21
0.146000
31
0.0
0
LINE
8
0
6
CONTINUOUS
10
-0.003216
20
0.146000
30
0.0
11
-0.006432
21
0.146000
31
0.0
0
LINE
8
0
6
CONTINUOUS
10
-0.012856
20
0.146000
30
0.0
11
-0.012699
21
0.145432
31
0.0
0
LINE
8
0
6
CONTINUOUS
10
-0.010085
20
0.146000
30
0.0
11
-0.012856
21
0.146000
31
0.0
0
LINE
8
0
6
CONTINUOUS
10
-0.010085
20
0.146000
30
0.0
11
-0.009983
21
0.145427
31
0.0
0
LINE
8
0
6
CONTINUOUS
10
-0.006432
20
0.146000
30
0.0
11
-0.010085
21
0.146000
31
0.0
0
LINE
8
0
6
CONTINUOUS
10
-0.018353
20
0.146000
30
0.0
11
-0.017655
21
0.146000
31
0.0
0
LINE
8
0
6
CONTINUOUS
10
-0.016455
20
0.146000
30
0.0
11
-0.018353
21
0.146000
31
0.0
0
LINE
8
0
6
CONTINUOUS
10
-0.013435
20
0.146000
30
0.0
11
-0.016455
21
0.146000
31
0.0
0
LINE
8
0
6
CONTINUOUS
10
-0.015670
20
0.139809
30
0.0
11
-0.014742
21
0.140193
31
0.0
0
LINE
8
0
6
CONTINUOUS
10
-0.010996
20
0.141530
30
0.0
11
-0.012397
21
0.141043
31
0.0
0
LINE
8
0
6
CONTINUOUS
10
-0.016455
20
0.111800
30
0.0
11
-0.018353
21
0.111800
31
0.0
0
LINE
8
0
6
CONTINUOUS
10
-0.019000
20
0.112274
30
0.0
11
-0.019000
21
0.111800
31
0.0
0
LINE
8
0
6
CONTINUOUS
10
-0.019000
20
0.111800
30
0.0
11
-0.018353
21
0.111800
31
0.0
0
LINE
8
0
6
CONTINUOUS
10
-0.016455
20
0.111800
30
0.0
11
-0.013435
21
0.111800
31
0.0
0
LINE
8
0
6
CONTINUOUS
10
-0.013435
20
0.111800
30
0.0
11
-0.009500
21
0.111800
31
0.0
0
LINE
8
0
6
CONTINUOUS
10
-0.009500
20
0.111800
30
0.0
11
-0.004918
21
0.111800
31
0.0
0
LINE
8
0
6
CONTINUOUS
10
-0.004918
20
0.111800
30
0.0
11
-0.000000
21
0.111800
31
0.0
0
LINE
8
0
6
CONTINUOUS
10
-0.000000
20
0.146000
30
0.0
11
-0.003356
21
0.146000
31
0.0
0
LINE
8
0
6
CONTINUOUS
10
-0.003356
20
0.146000
30
0.0
11
-0.003231
21
0.146000
31
0.0
0
LINE
8
0
6
CONTINUOUS
10
-0.013152
20
0.146000
30
0.0
11
-0.012870
21
0.146000
31
0.0
0
LINE
8
0
6
CONTINUOUS
10
-0.009198
20
0.146000
30
0.0
11
-0.013152
21
0.146000
31
0.0
0
LINE
8
0
6
CONTINUOUS
10
-0.012699
20
0.145432
30
0.0
11
-0.011816
21
0.143558
31
0.0
0
LINE
8
0
6
CONTINUOUS
10
-0.006432
20
0.144495
30
0.0
11
-0.006432
21
0.145409
31
0.0
0
LINE
8
0
6
CONTINUOUS
10
-0.009555
20
0.144118
30
0.0
11
-0.006432
21
0.145409
31
0.0
0
LINE
8
0
6
CONTINUOUS
10
-0.009983
20
0.145427
30
0.0
11
-0.009555
21
0.144118
31
0.0
0
LINE
8
0
6
CONTINUOUS
10
-0.006432
20
0.145409
30
0.0
11
-0.009983
21
0.145427
31
0.0
0
LINE
8
0
6
CONTINUOUS
10
-0.019000
20
0.133297
30
0.0
11
-0.019000
21
0.130478
31
0.0
0
LINE
8
0
6
CONTINUOUS
10
-0.009914
20
0.142472
30
0.0
11
-0.008920
21
0.143289
31
0.0
0
LINE
8
0
6
CONTINUOUS
10
-0.009555
20
0.144118
30
0.0
11
-0.011816
21
0.143558
31
0.0
0
LINE
8
0
6
CONTINUOUS
10
-0.014091
20
0.142905
30
0.0
11
-0.013249
21
0.143011
31
0.0
0
LINE
8
0
6
CONTINUOUS
10
-0.019000
20
0.136124
30
0.0
11
-0.019000
21
0.133297
31
0.0
0
LINE
8
0
6
CONTINUOUS
10
-0.011816
20
0.143558
30
0.0
11
-0.013249
21
0.143011
31
0.0
0
LINE
8
0
6
CONTINUOUS
10
-0.003216
20
0.144495
30
0.0
11
-0.006432
21
0.144495
31
0.0
0
LINE
8
0
6
CONTINUOUS
10
-0.000000
20
0.144495
30
0.0
11
-0.003216
21
0.144495
31
0.0
0
LINE
8
0
6
CONTINUOUS
10
-0.009914
20
0.142472
30
0.0
11
-0.010996
21
0.141530
31
0.0
0
LINE
8
0
6
CONTINUOUS
10
-0.019000
20
0.127659
30
0.0
11
-0.019000
21
0.124840
31
0.0
0
LINE
8
0
6
CONTINUOUS
10
-0.015670
20
0.139809
30
0.0
11
-0.016421
21
0.136124
31
0.0
0
LINE
8
0
6
CONTINUOUS
10
-0.004907
20
0.132564
30
0.0
11
-0.009481
21
0.132479
31
0.0
0
LINE
8
0
6
CONTINUOUS
10
-0.009461
20
0.136124
30
0.0
11
-0.013409
21
0.136124
31
0.0
0
LINE
8
0
6
CONTINUOUS
10
-0.009481
20
0.132479
30
0.0
11
-0.013407
21
0.132299
31
0.0
0
LINE
8
0
6
CONTINUOUS
10
-0.013409
20
0.136124
30
0.0
11
-0.016421
21
0.136124
31
0.0
0
LINE
8
0
6
CONTINUOUS
10
-0.016417
20
0.134170
30
0.0
11
-0.013405
21
0.134506
31
0.0
0
LINE
8
0
6
CONTINUOUS
10
-0.013407
20
0.132299
30
0.0
11
-0.016423
21
0.131724
31
0.0
0
LINE
8
0
6
CONTINUOUS
10
-0.019000
20
0.130478
30
0.0
11
-0.019000
21
0.127659
31
0.0
0
LINE
8
0
6
CONTINUOUS
10
-0.013802
20
0.140529
30
0.0
11
-0.014742
21
0.140193
31
0.0
0
LINE
8
0
6
CONTINUOUS
10
-0.013802
20
0.140529
30
0.0
11
-0.012397
21
0.141043
31
0.0
0
LINE
8
0
6
CONTINUOUS
10
-0.014091
20
0.142905
30
0.0
11
-0.014979
21
0.142774
31
0.0
0
LINE
8
0
6
CONTINUOUS
10
-0.006432
20
0.144495
30
0.0
11
-0.009555
21
0.144118
31
0.0
0
LINE
8
0
6
CONTINUOUS
10
-0.019000
20
0.124840
30
0.0
11
-0.019000
21
0.112274
31
0.0
0
LINE
8
0
6
CONTINUOUS
10
-0.011273
20
0.093691
30
0.0
11
-0.011273
21
0.090382
31
0.0
0
LINE
8
0
6
CONTINUOUS
10
0.011274
20
0.090382
30
0.0
11
0.011274
21
0.093691
31
0.0
0
LINE
8
0
6
CONTINUOUS
10
-0.003483
20
0.084686
30
0.0
11
0.000000
21
0.084415
31
0.0
0
LINE
8
0
6
CONTINUOUS
10
-0.006626
20
0.085472
30
0.0
11
-0.003483
21
0.084686
31
0.0
0
LINE
8
0
6
CONTINUOUS
10
-0.009120
20
0.086695
30
0.0
11
-0.006626
21
0.085472
31
0.0
0
LINE
8
0
6
CONTINUOUS
10
-0.010721
20
0.088237
30
0.0
11
-0.009120
21
0.086695
31
0.0
0
LINE
8
0
6
CONTINUOUS
10
-0.011273
20
0.089947
30
0.0
11
-0.010721
21
0.088237
31
0.0
0
LINE
8
0
6
CONTINUOUS
10
-0.011273
20
0.090382
30
0.0
11
-0.011273
21
0.089947
31
0.0
0
LINE
8
0
6
CONTINUOUS
10
-0.010721
20
0.091656
30
0.0
11
-0.011273
21
0.089947
31
0.0
0
LINE
8
0
6
CONTINUOUS
10
-0.009120
20
0.093198
30
0.0
11
-0.010721
21
0.091656
31
0.0
0
LINE
8
0
6
CONTINUOUS
10
-0.006626
20
0.094422
30
0.0
11
-0.009120
21
0.093198
31
0.0
0
LINE
8
0
6
CONTINUOUS
10
-0.003483
20
0.095207
30
0.0
11
-0.006626
21
0.094422
31
0.0
0
LINE
8
0
6
CONTINUOUS
10
0.000000
20
0.095478
30
0.0
11
-0.003483
21
0.095207
31
0.0
0
LINE
8
0
6
CONTINUOUS
10
0.003484
20
0.095207
30
0.0
11
0.000000
21
0.095478
31
0.0
0
LINE
8
0
6
CONTINUOUS
10
0.006627
20
0.094422
30
0.0
11
0.003484
21
0.095207
31
0.0
0
LINE
8
0
6
CONTINUOUS
10
0.009121
20
0.093198
30
0.0
11
0.006627
21
0.094422
31
0.0
0
LINE
8
0
6
CONTINUOUS
10
0.010722
20
0.091656
30
0.0
11
0.009121
21
0.093198
31
0.0
0
LINE
8
0
6
CONTINUOUS
10
0.011274
20
0.089947
30
0.0
11
0.011274
21
0.090382
31
0.0
0
LINE
8
0
6
CONTINUOUS
10
0.011274
20
0.089947
30
0.0
11
0.010722
21
0.091656
31
0.0
0
LINE
8
0
6
CONTINUOUS
10
0.010722
20
0.088237
30
0.0
11
0.011274
21
0.089947
31
0.0
0
LINE
8
0
6
CONTINUOUS
10
0.009121
20
0.086695
30
0.0
11
0.010722
21
0.088237
31
0.0
0
LINE
8
0
6
CONTINUOUS
10
0.006627
20
0.085472
30
0.0
11
0.009121
21
0.086695
31
0.0
0
LINE
8
0
6
CONTINUOUS
10
0.003484
20
0.084686
30
0.0
11
0.006627
21
0.085472
31
0.0
0
LINE
8
0
6
CONTINUOUS
10
0.000000
20
0.084415
30
0.0
11
0.003484
21
0.084686
31
0.0
0
LINE
8
0
6
CONTINUOUS
10
0.002586
20
0.086291
30
0.0
11
0.004918
21
0.086874
31
0.0
0
LINE
8
0
6
CONTINUOUS
10
-0.004917
20
0.086874
30
0.0
11
-0.006768
21
0.087782
31
0.0
0
LINE
8
0
6
CONTINUOUS
10
0.002586
20
0.086291
30
0.0
11
0.000000
21
0.086090
31
0.0
0
LINE
8
0
6
CONTINUOUS
10
-0.006768
20
0.087782
30
0.0
11
-0.007957
21
0.088927
31
0.0
0
LINE
8
0
6
CONTINUOUS
10
0.008367
20
0.090195
30
0.0
11
0.007958
21
0.088927
31
0.0
0
LINE
8
0
6
CONTINUOUS
10
0.007958
20
0.088927
30
0.0
11
0.006769
21
0.087782
31
0.0
0
LINE
8
0
6
CONTINUOUS
10
-0.007957
20
0.088927
30
0.0
11
-0.008366
21
0.090195
31
0.0
0
LINE
8
0
6
CONTINUOUS
10
0.000000
20
0.086090
30
0.0
11
-0.002585
21
0.086291
31
0.0
0
LINE
8
0
6
CONTINUOUS
10
0.006769
20
0.087782
30
0.0
11
0.004918
21
0.086874
31
0.0
0
LINE
8
0
6
CONTINUOUS
10
-0.002585
20
0.086291
30
0.0
11
-0.004917
21
0.086874
31
0.0
0
LINE
8
0
6
CONTINUOUS
10
0.002586
20
0.086043
30
0.0
11
0.000000
21
0.085842
31
0.0
0
LINE
8
0
6
CONTINUOUS
10
0.004918
20
0.086626
30
0.0
11
0.002586
21
0.086043
31
0.0
0
LINE
8
0
6
CONTINUOUS
10
0.006769
20
0.087534
30
0.0
11
0.004918
21
0.086626
31
0.0
0
LINE
8
0
6
CONTINUOUS
10
0.007958
20
0.088678
30
0.0
11
0.006769
21
0.087534
31
0.0
0
LINE
8
0
6
CONTINUOUS
10
0.008367
20
0.089947
30
0.0
11
0.007958
21
0.088678
31
0.0
0
LINE
8
0
6
CONTINUOUS
10
0.007958
20
0.091215
30
0.0
11
0.008367
21
0.089947
31
0.0
0
LINE
8
0
6
CONTINUOUS
10
0.006769
20
0.092359
30
0.0
11
0.007958
21
0.091215
31
0.0
0
LINE
8
0
6
CONTINUOUS
10
0.004918
20
0.093268
30
0.0
11
0.006769
21
0.092359
31
0.0
0
LINE
8
0
6
CONTINUOUS
10
0.002586
20
0.093851
30
0.0
11
0.004918
21
0.093268
31
0.0
0
LINE
8
0
6
CONTINUOUS
10
0.000000
20
0.094052
30
0.0
11
0.002586
21
0.093851
31
0.0
0
LINE
8
0
6
CONTINUOUS
10
-0.002585
20
0.093851
30
0.0
11
0.000000
21
0.094052
31
0.0
0
LINE
8
0
6
CONTINUOUS
10
-0.004917
20
0.093268
30
0.0
11
-0.002585
21
0.093851
31
0.0
0
LINE
8
0
6
CONTINUOUS
10
-0.006768
20
0.092359
30
0.0
11
-0.004917
21
0.093268
31
0.0
0
LINE
8
0
6
CONTINUOUS
10
-0.007957
20
0.091215
30
0.0
11
-0.006768
21
0.092359
31
0.0
0
LINE
8
0
6
CONTINUOUS
10
-0.008366
20
0.089947
30
0.0
11
-0.007957
21
0.091215
31
0.0
0
LINE
8
0
6
CONTINUOUS
10
-0.007957
20
0.088678
30
0.0
11
-0.008366
21
0.089947
31
0.0
0
LINE
8
0
6
CONTINUOUS
10
-0.006768
20
0.087534
30
0.0
11
-0.007957
21
0.088678
31
0.0
0
LINE
8
0
6
CONTINUOUS
10
-0.004917
20
0.086626
30
0.0
11
-0.006768
21
0.087534
31
0.0
0
LINE
8
0
6
CONTINUOUS
10
-0.002585
20
0.086043
30
0.0
11
-0.004917
21
0.086626
31
0.0
0
LINE
8
0
6
CONTINUOUS
10
0.000000
20
0.085842
30
0.0
11
-0.002585
21
0.086043
31
0.0
0
LINE
8
0
6
CONTINUOUS
10
0.017496
20
0.109999
30
0.0
11
0.017496
21
0.111800
31
0.0
0
LINE
8
0
6
CONTINUOUS
10
-0.017496
20
0.111800
30
0.0
11
-0.017496
21
0.109999
31
0.0
0
LINE
8
0
6
CONTINUOUS
10
0.004977
20
0.079195
30
0.0
11
0.000000
21
0.078686
31
0.0
0
LINE
8
0
6
CONTINUOUS
10
0.009607
20
0.080641
30
0.0
11
0.004977
21
0.079195
31
0.0
0
LINE
8
0
6
CONTINUOUS
10
0.019285
20
0.093201
30
0.0
11
0.019127
21
0.103412
31
0.0
0
LINE
8
0
6
CONTINUOUS
10
0.015757
20
0.100769
30
0.0
11
0.014753
21
0.096889
31
0.0
0
LINE
8
0
6
CONTINUOUS
10
0.012409
20
0.093413
30
0.0
11
0.011274
21
0.092559
31
0.0
0
LINE
8
0
6
CONTINUOUS
10
0.014753
20
0.096889
30
0.0
11
0.012409
21
0.093413
31
0.0
0
LINE
8
0
6
CONTINUOUS
10
0.016358
20
0.104766
30
0.0
11
0.015757
21
0.100769
31
0.0
0
LINE
8
0
6
CONTINUOUS
10
0.016358
20
0.104766
30
0.0
11
0.016759
21
0.109016
31
0.0
0
LINE
8
0
6
CONTINUOUS
10
0.019034
20
0.109353
30
0.0
11
0.019000
21
0.110003
31
0.0
0
LINE
8
0
6
CONTINUOUS
10
0.016852
20
0.110003
30
0.0
11
0.014454
21
0.110003
31
0.0
0
LINE
8
0
6
CONTINUOUS
10
0.017514
20
0.110003
30
0.0
11
0.016852
21
0.110003
31
0.0
0
LINE
8
0
6
CONTINUOUS
10
0.016852
20
0.110003
30
0.0
11
0.016759
21
0.109016
31
0.0
0
LINE
8
0
6
CONTINUOUS
10
0.012511
20
0.110003
30
0.0
11
0.000000
21
0.110003
31
0.0
0
LINE
8
0
6
CONTINUOUS
10
0.019000
20
0.110003
30
0.0
11
0.017550
21
0.110003
31
0.0
0
LINE
8
0
6
CONTINUOUS
10
0.019127
20
0.103412
30
0.0
11
0.019034
21
0.109353
31
0.0
0
LINE
8
0
6
CONTINUOUS
10
0.014454
20
0.110003
30
0.0
11
0.012511
21
0.110003
31
0.0
0
LINE
8
0
6
CONTINUOUS
10
0.019605
20
0.072598
30
0.0
11
0.019444
21
0.082989
31
0.0
0
LINE
8
0
6
CONTINUOUS
10
0.019444
20
0.082989
30
0.0
11
0.019285
21
0.093201
31
0.0
0
LINE
8
0
6
CONTINUOUS
10
0.019761
20
0.062567
30
0.0
11
0.019605
21
0.072598
31
0.0
0
LINE
8
0
6
CONTINUOUS
10
0.022984
20
-0.145000
30
0.0
11
0.019761
21
0.062567
31
0.0
0
LINE
8
0
6
CONTINUOUS
10
0.016267
20
-0.146000
30
0.0
11
0.011503
21
-0.146000
31
0.0
0
LINE
8
0
6
CONTINUOUS
10
0.019922
20
-0.146000
30
0.0
11
0.016267
21
-0.146000
31
0.0
0
LINE
8
0
6
CONTINUOUS
10
0.005954
20
-0.146000
30
0.0
11
0.000000
21
-0.146000
31
0.0
0
LINE
8
0
6
CONTINUOUS
10
0.011503
20
-0.146000
30
0.0
11
0.005954
21
-0.146000
31
0.0
0
LINE
8
0
6
CONTINUOUS
10
0.022218
20
-0.146000
30
0.0
11
0.019922
21
-0.146000
31
0.0
0
LINE
8
0
6
CONTINUOUS
10
0.023000
20
-0.146000
30
0.0
11
0.022984
21
-0.145000
31
0.0
0
LINE
8
0
6
CONTINUOUS
10
0.023000
20
-0.146000
30
0.0
11
0.022218
21
-0.146000
31
0.0
0
LINE
8
0
6
CONTINUOUS
10
0.000000
20
0.067322
30
0.0
11
0.000000
21
0.073444
31
0.0
0
LINE
8
0
6
CONTINUOUS
10
0.000000
20
0.082056
30
0.0
11
0.000000
21
0.083615
31
0.0
0
LINE
8
0
6
CONTINUOUS
10
0.000000
20
0.078686
30
0.0
11
0.000000
21
0.082056
31
0.0
0
LINE
8
0
6
CONTINUOUS
10
0.000000
20
0.078686
30
0.0
11
-0.004977
21
0.079195
31
0.0
0
LINE
8
0
6
CONTINUOUS
10
0.000000
20
0.073444
30
0.0
11
0.000000
21
0.078686
31
0.0
0
LINE
8
0
6
CONTINUOUS
10
-0.004977
20
0.079195
30
0.0
11
-0.009607
21
0.080641
31
0.0
0
LINE
8
0
6
CONTINUOUS
10
0.000000
20
-0.145000
30
0.0
11
0.000000
21
0.061117
31
0.0
0
LINE
8
0
6
CONTINUOUS
10
-0.019127
20
0.103412
30
0.0
11
-0.019285
21
0.093201
31
0.0
0
LINE
8
0
6
CONTINUOUS
10
-0.014753
20
0.096889
30
0.0
11
-0.015757
21
0.100769
31
0.0
0
LINE
8
0
6
CONTINUOUS
10
-0.011273
20
0.092558
30
0.0
11
-0.012409
21
0.093413
31
0.0
0
LINE
8
0
6
CONTINUOUS
10
-0.012409
20
0.093413
30
0.0
11
-0.014753
21
0.096889
31
0.0
0
LINE
8
0
6
CONTINUOUS
10
-0.015757
20
0.100769
30
0.0
11
-0.016358
21
0.104766
31
0.0
0
LINE
8
0
6
CONTINUOUS
10
-0.016759
20
0.109016
30
0.0
11
-0.016358
21
0.104766
31
0.0
0
LINE
8
0
6
CONTINUOUS
10
-0.019000
20
0.110003
30
0.0
11
-0.019034
21
0.109353
31
0.0
0
LINE
8
0
6
CONTINUOUS
10
-0.014454
20
0.110003
30
0.0
11
-0.016852
21
0.110003
31
0.0
0
LINE
8
0
6
CONTINUOUS
10
-0.016759
20
0.109016
30
0.0
11
-0.016852
21
0.110003
31
0.0
0
LINE
8
0
6
CONTINUOUS
10
-0.016852
20
0.110003
30
0.0
11
-0.017514
21
0.110003
31
0.0
0
LINE
8
0
6
CONTINUOUS
10
0.000000
20
0.110003
30
0.0
11
-0.012511
21
0.110003
31
0.0
0
LINE
8
0
6
CONTINUOUS
10
-0.017550
20
0.110003
30
0.0
11
-0.019000
21
0.110003
31
0.0
0
LINE
8
0
6
CONTINUOUS
10
-0.019034
20
0.109353
30
0.0
11
-0.019127
21
0.103412
31
0.0
0
LINE
8
0
6
CONTINUOUS
10
-0.012511
20
0.110003
30
0.0
11
-0.014454
21
0.110003
31
0.0
0
LINE
8
0
6
CONTINUOUS
10
-0.019444
20
0.082989
30
0.0
11
-0.019605
21
0.072598
31
0.0
0
LINE
8
0
6
CONTINUOUS
10
-0.019285
20
0.093201
30
0.0
11
-0.019444
21
0.082989
31
0.0
0
LINE
8
0
6
CONTINUOUS
10
-0.019605
20
0.072598
30
0.0
11
-0.019761
21
0.062567
31
0.0
0
LINE
8
0
6
CONTINUOUS
10
-0.019761
20
0.062567
30
0.0
11
-0.022984
21
-0.145000
31
0.0
0
LINE
8
0
6
CONTINUOUS
10
-0.011503
20
-0.146000
30
0.0
11
-0.016267
21
-0.146000
31
0.0
0
LINE
8
0
6
CONTINUOUS
10
-0.016267
20
-0.146000
30
0.0
11
-0.019922
21
-0.146000
31
0.0
0
LINE
8
0
6
CONTINUOUS
10
0.000000
20
-0.146000
30
0.0
11
-0.005954
21
-0.146000
31
0.0
0
LINE
8
0
6
CONTINUOUS
10
-0.005954
20
-0.146000
30
0.0
11
-0.011503
21
-0.146000
31
0.0
0
LINE
8
0
6
CONTINUOUS
10
-0.019922
20
-0.146000
30
0.0
11
-0.022218
21
-0.146000
31
0.0
0
LINE
8
0
6
CONTINUOUS
10
-0.022984
20
-0.145000
30
0.0
11
-0.023000
21
-0.146000
31
0.0
0
LINE
8
0
6
CONTINUOUS
10
-0.022218
20
-0.146000
30
0.0
11
-0.023000
21
-0.146000
31
0.0
0
LINE
8
0
6
CONTINUOUS
10
0.009121
20
0.096946
30
0.0
11
0.009868
21
0.096173
31
0.0
0
LINE
8
0
6
CONTINUOUS
10
0.010890
20
0.094756
30
0.0
11
0.011100
21
0.094159
31
0.0
0
LINE
8
0
6
CONTINUOUS
10
0.009868
20
0.096173
30
0.0
11
0.010722
21
0.095289
31
0.0
0
LINE
8
0
6
CONTINUOUS
10
-0.008057
20
0.097507
30
0.0
11
-0.006626
21
0.098381
31
0.0
0
LINE
8
0
6
CONTINUOUS
10
-0.009120
20
0.096946
30
0.0
11
-0.008057
21
0.097507
31
0.0
0
LINE
8
0
6
CONTINUOUS
10
0.011100
20
0.094159
30
0.0
11
0.011274
21
0.093691
31
0.0
0
LINE
8
0
6
CONTINUOUS
10
0.010722
20
0.095289
30
0.0
11
0.010802
21
0.095023
31
0.0
0
LINE
8
0
6
CONTINUOUS
10
0.010802
20
0.095023
30
0.0
11
0.010890
21
0.094756
31
0.0
0
LINE
8
0
6
CONTINUOUS
10
-0.009120
20
0.096946
30
0.0
11
-0.009868
21
0.096173
31
0.0
0
ENDSEC
0
EOF
