999
Erzeugt mit innoplus bad 
0
SECTION
2
HEADER
9
$ACADVER
1
AC1009
9
$DWGCODEPAGE
3
ISO8859-1
0
ENDSEC
0
SECTION
2
TABLES
0
TABLE
2
LAYER
70
1
0
LAYER
2
0
70
0
62
7
6
CONTINUOUS
0
ENDTAB
0
ENDSEC
0
SECTION
2
ENTITIES
0
LINE
8
0
6
CONTINUOUS
10
0.061135
20
0.111800
30
0.0
11
0.061135
21
0.110003
31
0.0
0
LINE
8
0
6
CONTINUOUS
10
0.045909
20
0.137035
30
0.0
11
0.050977
21
0.136124
31
0.0
0
LINE
8
0
6
CONTINUOUS
10
0.059375
20
0.126249
30
0.0
11
0.059626
21
0.124840
31
0.0
0
LINE
8
0
6
CONTINUOUS
10
0.062649
20
0.146000
30
0.0
11
0.073722
21
0.146000
31
0.0
0
LINE
8
0
6
CONTINUOUS
10
0.073722
20
0.146000
30
0.0
11
0.062649
21
0.146000
31
0.0
0
LINE
8
0
6
CONTINUOUS
10
0.062638
20
0.146000
30
0.0
11
0.051554
21
0.146000
31
0.0
0
LINE
8
0
6
CONTINUOUS
10
0.069147
20
0.111800
30
0.0
11
0.073722
21
0.111800
31
0.0
0
LINE
8
0
6
CONTINUOUS
10
0.078667
20
0.146000
30
0.0
11
0.073722
21
0.146000
31
0.0
0
LINE
8
0
6
CONTINUOUS
10
0.073722
20
0.146000
30
0.0
11
0.062638
21
0.146000
31
0.0
0
LINE
8
0
6
CONTINUOUS
10
0.097707
20
0.138934
30
0.0
11
0.097707
21
0.142191
31
0.0
0
LINE
8
0
6
CONTINUOUS
10
0.038345
20
0.138092
30
0.0
11
0.045909
21
0.137035
31
0.0
0
LINE
8
0
6
CONTINUOUS
10
0.036951
20
0.146000
30
0.0
11
0.044265
21
0.146000
31
0.0
0
LINE
8
0
6
CONTINUOUS
10
0.044264
20
0.146000
30
0.0
11
0.036951
21
0.146000
31
0.0
0
LINE
8
0
6
CONTINUOUS
10
0.036935
20
0.146000
30
0.0
11
0.029626
21
0.146000
31
0.0
0
LINE
8
0
6
CONTINUOUS
10
0.044245
20
0.146000
30
0.0
11
0.036935
21
0.146000
31
0.0
0
LINE
8
0
6
CONTINUOUS
10
0.018662
20
0.146000
30
0.0
11
0.007698
21
0.146000
31
0.0
0
LINE
8
0
6
CONTINUOUS
10
0.007698
20
0.146000
30
0.0
11
0.004125
21
0.146000
31
0.0
0
LINE
8
0
6
CONTINUOUS
10
0.051554
20
0.146000
30
0.0
11
0.044245
21
0.146000
31
0.0
0
LINE
8
0
6
CONTINUOUS
10
0.001419
20
0.146000
30
0.0
11
0.000638
21
0.146000
31
0.0
0
LINE
8
0
6
CONTINUOUS
10
0.000638
20
0.146000
30
0.0
11
0.001419
21
0.146000
31
0.0
0
LINE
8
0
6
CONTINUOUS
10
0.029626
20
0.146000
30
0.0
11
0.018662
21
0.146000
31
0.0
0
LINE
8
0
6
CONTINUOUS
10
0.078667
20
0.146000
30
0.0
11
0.073722
21
0.146000
31
0.0
0
LINE
8
0
6
CONTINUOUS
10
0.004125
20
0.146000
30
0.0
11
0.001566
21
0.146000
31
0.0
0
LINE
8
0
6
CONTINUOUS
10
0.004222
20
0.145432
30
0.0
11
0.004125
21
0.146000
31
0.0
0
LINE
8
0
6
CONTINUOUS
10
0.001566
20
0.146000
30
0.0
11
0.000638
21
0.146000
31
0.0
0
LINE
8
0
6
CONTINUOUS
10
0.001692
20
0.145427
30
0.0
11
0.001566
21
0.146000
31
0.0
0
LINE
8
0
6
CONTINUOUS
10
0.083595
20
0.146000
30
0.0
11
0.078667
21
0.146000
31
0.0
0
LINE
8
0
6
CONTINUOUS
10
0.088187
20
0.146000
30
0.0
11
0.083595
21
0.146000
31
0.0
0
LINE
8
0
6
CONTINUOUS
10
0.092130
20
0.146000
30
0.0
11
0.088187
21
0.146000
31
0.0
0
LINE
8
0
6
CONTINUOUS
10
0.095156
20
0.146000
30
0.0
11
0.092130
21
0.146000
31
0.0
0
LINE
8
0
6
CONTINUOUS
10
0.097058
20
0.146000
30
0.0
11
0.095156
21
0.146000
31
0.0
0
LINE
8
0
6
CONTINUOUS
10
0.097707
20
0.146000
30
0.0
11
0.097058
21
0.146000
31
0.0
0
LINE
8
0
6
CONTINUOUS
10
0.097707
20
0.145448
30
0.0
11
0.097707
21
0.146000
31
0.0
0
LINE
8
0
6
CONTINUOUS
10
0.044243
20
0.140193
30
0.0
11
0.052326
21
0.139809
31
0.0
0
LINE
8
0
6
CONTINUOUS
10
0.044265
20
0.146000
30
0.0
11
0.051577
21
0.146000
31
0.0
0
LINE
8
0
6
CONTINUOUS
10
0.051577
20
0.146000
30
0.0
11
0.044265
21
0.146000
31
0.0
0
LINE
8
0
6
CONTINUOUS
10
0.008779
20
0.141165
30
0.0
11
0.019823
21
0.139825
31
0.0
0
LINE
8
0
6
CONTINUOUS
10
0.024171
20
0.141043
30
0.0
11
0.012112
21
0.141530
31
0.0
0
LINE
8
0
6
CONTINUOUS
10
0.029637
20
0.146000
30
0.0
11
0.018667
21
0.146000
31
0.0
0
LINE
8
0
6
CONTINUOUS
10
0.018664
20
0.146000
30
0.0
11
0.029636
21
0.146000
31
0.0
0
LINE
8
0
6
CONTINUOUS
10
0.078675
20
0.111800
30
0.0
11
0.083587
21
0.111800
31
0.0
0
LINE
8
0
6
CONTINUOUS
10
0.092130
20
0.111800
30
0.0
11
0.095158
21
0.111800
31
0.0
0
LINE
8
0
6
CONTINUOUS
10
0.088184
20
0.111800
30
0.0
11
0.092130
21
0.111800
31
0.0
0
LINE
8
0
6
CONTINUOUS
10
0.083587
20
0.111800
30
0.0
11
0.088184
21
0.111800
31
0.0
0
LINE
8
0
6
CONTINUOUS
10
0.095158
20
0.111800
30
0.0
11
0.097060
21
0.111800
31
0.0
0
LINE
8
0
6
CONTINUOUS
10
0.097707
20
0.111800
30
0.0
11
0.097707
21
0.112274
31
0.0
0
LINE
8
0
6
CONTINUOUS
10
0.097060
20
0.111800
30
0.0
11
0.097707
21
0.111800
31
0.0
0
LINE
8
0
6
CONTINUOUS
10
0.073722
20
0.111800
30
0.0
11
0.078675
21
0.111800
31
0.0
0
LINE
8
0
6
CONTINUOUS
10
0.065203
20
0.111800
30
0.0
11
0.069147
21
0.111800
31
0.0
0
LINE
8
0
6
CONTINUOUS
10
0.062177
20
0.111800
30
0.0
11
0.065203
21
0.111800
31
0.0
0
LINE
8
0
6
CONTINUOUS
10
0.060275
20
0.111800
30
0.0
11
0.062177
21
0.111800
31
0.0
0
LINE
8
0
6
CONTINUOUS
10
0.059626
20
0.111800
30
0.0
11
0.060275
21
0.111800
31
0.0
0
LINE
8
0
6
CONTINUOUS
10
0.059626
20
0.112274
30
0.0
11
0.059626
21
0.111800
31
0.0
0
LINE
8
0
6
CONTINUOUS
10
0.059626
20
0.124840
30
0.0
11
0.059626
21
0.112274
31
0.0
0
LINE
8
0
6
CONTINUOUS
10
0.001419
20
0.146000
30
0.0
11
0.007698
21
0.146000
31
0.0
0
LINE
8
0
6
CONTINUOUS
10
0.087862
20
0.146000
30
0.0
11
0.096484
21
0.146000
31
0.0
0
LINE
8
0
6
CONTINUOUS
10
0.088187
20
0.146000
30
0.0
11
0.087862
21
0.146000
31
0.0
0
LINE
8
0
6
CONTINUOUS
10
0.097132
20
0.146000
30
0.0
11
0.088187
21
0.146000
31
0.0
0
LINE
8
0
6
CONTINUOUS
10
0.096484
20
0.146000
30
0.0
11
0.097132
21
0.146000
31
0.0
0
LINE
8
0
6
CONTINUOUS
10
0.085398
20
0.146000
30
0.0
11
0.083836
21
0.146000
31
0.0
0
LINE
8
0
6
CONTINUOUS
10
0.091563
20
0.146000
30
0.0
11
0.085398
21
0.146000
31
0.0
0
LINE
8
0
6
CONTINUOUS
10
0.007698
20
0.146000
30
0.0
11
0.001419
21
0.146000
31
0.0
0
LINE
8
0
6
CONTINUOUS
10
0.005079
20
0.143558
30
0.0
11
0.004222
21
0.145432
31
0.0
0
LINE
8
0
6
CONTINUOUS
10
0.086911
20
0.146000
30
0.0
11
0.087862
21
0.146000
31
0.0
0
LINE
8
0
6
CONTINUOUS
10
0.087862
20
0.146000
30
0.0
11
0.078667
21
0.146000
31
0.0
0
LINE
8
0
6
CONTINUOUS
10
0.001692
20
0.145427
30
0.0
11
0.000638
21
0.145409
31
0.0
0
LINE
8
0
6
CONTINUOUS
10
0.002193
20
0.144118
30
0.0
11
0.001692
21
0.145427
31
0.0
0
LINE
8
0
6
CONTINUOUS
10
0.002193
20
0.144118
30
0.0
11
0.000638
21
0.145409
31
0.0
0
LINE
8
0
6
CONTINUOUS
10
0.000638
20
0.145409
30
0.0
11
0.000638
21
0.144495
31
0.0
0
LINE
8
0
6
CONTINUOUS
10
0.007698
20
0.146000
30
0.0
11
0.018664
21
0.146000
31
0.0
0
LINE
8
0
6
CONTINUOUS
10
0.029636
20
0.146000
30
0.0
11
0.036951
21
0.146000
31
0.0
0
LINE
8
0
6
CONTINUOUS
10
0.051577
20
0.146000
30
0.0
11
0.062649
21
0.146000
31
0.0
0
LINE
8
0
6
CONTINUOUS
10
0.062649
20
0.146000
30
0.0
11
0.051577
21
0.146000
31
0.0
0
LINE
8
0
6
CONTINUOUS
10
0.054104
20
0.134639
30
0.0
11
0.056857
21
0.132594
31
0.0
0
LINE
8
0
6
CONTINUOUS
10
0.097707
20
0.133297
30
0.0
11
0.097707
21
0.136124
31
0.0
0
LINE
8
0
6
CONTINUOUS
10
0.005079
20
0.143558
30
0.0
11
0.002193
21
0.144118
31
0.0
0
LINE
8
0
6
CONTINUOUS
10
0.002687
20
0.143289
30
0.0
11
0.005146
21
0.142472
31
0.0
0
LINE
8
0
6
CONTINUOUS
10
0.011296
20
0.143011
30
0.0
11
0.021472
21
0.142905
31
0.0
0
LINE
8
0
6
CONTINUOUS
10
0.097707
20
0.136124
30
0.0
11
0.097707
21
0.138934
31
0.0
0
LINE
8
0
6
CONTINUOUS
10
0.097707
20
0.127659
30
0.0
11
0.097707
21
0.130478
31
0.0
0
LINE
8
0
6
CONTINUOUS
10
0.097707
20
0.130478
30
0.0
11
0.097707
21
0.133297
31
0.0
0
LINE
8
0
6
CONTINUOUS
10
0.097707
20
0.142191
30
0.0
11
0.097707
21
0.145448
31
0.0
0
LINE
8
0
6
CONTINUOUS
10
0.036951
20
0.146000
30
0.0
11
0.029637
21
0.146000
31
0.0
0
LINE
8
0
6
CONTINUOUS
10
0.011296
20
0.143011
30
0.0
11
0.005079
21
0.143558
31
0.0
0
LINE
8
0
6
CONTINUOUS
10
0.001903
20
0.143449
30
0.0
11
0.004459
21
0.142221
31
0.0
0
LINE
8
0
6
CONTINUOUS
10
0.004459
20
0.142221
30
0.0
11
0.008844
21
0.141164
31
0.0
0
LINE
8
0
6
CONTINUOUS
10
0.012112
20
0.141530
30
0.0
11
0.005146
21
0.142472
31
0.0
0
LINE
8
0
6
CONTINUOUS
10
0.018667
20
0.146000
30
0.0
11
0.007698
21
0.146000
31
0.0
0
LINE
8
0
6
CONTINUOUS
10
0.052326
20
0.139809
30
0.0
11
0.065449
21
0.136124
31
0.0
0
LINE
8
0
6
CONTINUOUS
10
0.050977
20
0.136124
30
0.0
11
0.054104
21
0.134639
31
0.0
0
LINE
8
0
6
CONTINUOUS
10
0.056857
20
0.132594
30
0.0
11
0.058628
21
0.129629
31
0.0
0
LINE
8
0
6
CONTINUOUS
10
0.059958
20
0.132479
30
0.0
11
0.057673
21
0.132564
31
0.0
0
LINE
8
0
6
CONTINUOUS
10
0.058735
20
0.136124
30
0.0
11
0.054513
21
0.136124
31
0.0
0
LINE
8
0
6
CONTINUOUS
10
0.063596
20
0.132299
30
0.0
11
0.059958
21
0.132479
31
0.0
0
LINE
8
0
6
CONTINUOUS
10
0.061426
20
0.134506
30
0.0
11
0.067398
21
0.134170
31
0.0
0
LINE
8
0
6
CONTINUOUS
10
0.065449
20
0.136124
30
0.0
11
0.058735
21
0.136124
31
0.0
0
LINE
8
0
6
CONTINUOUS
10
0.068567
20
0.131724
30
0.0
11
0.063596
21
0.132299
31
0.0
0
LINE
8
0
6
CONTINUOUS
10
0.058628
20
0.129629
30
0.0
11
0.059375
21
0.126249
31
0.0
0
LINE
8
0
6
CONTINUOUS
10
0.044243
20
0.140193
30
0.0
11
0.036188
21
0.140529
31
0.0
0
LINE
8
0
6
CONTINUOUS
10
0.030717
20
0.138657
30
0.0
11
0.038345
21
0.138092
31
0.0
0
LINE
8
0
6
CONTINUOUS
10
0.019823
20
0.139825
30
0.0
11
0.030717
21
0.138657
31
0.0
0
LINE
8
0
6
CONTINUOUS
10
0.031798
20
0.142774
30
0.0
11
0.021472
21
0.142905
31
0.0
0
LINE
8
0
6
CONTINUOUS
10
0.024171
20
0.141043
30
0.0
11
0.036188
21
0.140529
31
0.0
0
LINE
8
0
6
CONTINUOUS
10
0.002193
20
0.144118
30
0.0
11
0.000638
21
0.144495
31
0.0
0
LINE
8
0
6
CONTINUOUS
10
0.000638
20
0.144495
30
0.0
11
0.002015
21
0.143422
31
0.0
0
LINE
8
0
6
CONTINUOUS
10
0.097707
20
0.124840
30
0.0
11
0.097707
21
0.127659
31
0.0
0
LINE
8
0
6
CONTINUOUS
10
0.097707
20
0.112274
30
0.0
11
0.097707
21
0.124840
31
0.0
0
LINE
8
0
6
CONTINUOUS
10
0.062649
20
0.146000
30
0.0
11
0.073722
21
0.146000
31
0.0
0
LINE
8
0
6
CONTINUOUS
10
0.073722
20
0.146000
30
0.0
11
0.062649
21
0.146000
31
0.0
0
LINE
8
0
6
CONTINUOUS
10
0.078667
20
0.146000
30
0.0
11
0.073722
21
0.146000
31
0.0
0
LINE
8
0
6
CONTINUOUS
10
0.073722
20
0.146000
30
0.0
11
0.078667
21
0.146000
31
0.0
0
LINE
8
0
6
CONTINUOUS
10
0.078667
20
0.146000
30
0.0
11
0.073722
21
0.146000
31
0.0
0
LINE
8
0
6
CONTINUOUS
10
0.051577
20
0.146000
30
0.0
11
0.062649
21
0.146000
31
0.0
0
LINE
8
0
6
CONTINUOUS
10
0.062649
20
0.146000
30
0.0
11
0.051577
21
0.146000
31
0.0
0
LINE
8
0
6
CONTINUOUS
10
0.083595
20
0.146000
30
0.0
11
0.083836
21
0.146000
31
0.0
0
LINE
8
0
6
CONTINUOUS
10
0.088187
20
0.146000
30
0.0
11
0.083595
21
0.146000
31
0.0
0
LINE
8
0
6
CONTINUOUS
10
0.091563
20
0.146000
30
0.0
11
0.092130
21
0.146000
31
0.0
0
LINE
8
0
6
CONTINUOUS
10
0.092130
20
0.146000
30
0.0
11
0.088187
21
0.146000
31
0.0
0
LINE
8
0
6
CONTINUOUS
10
0.085398
20
0.146000
30
0.0
11
0.078667
21
0.146000
31
0.0
0
LINE
8
0
6
CONTINUOUS
10
0.086911
20
0.146000
30
0.0
11
0.085398
21
0.146000
31
0.0
0
LINE
8
0
6
CONTINUOUS
10
0.099261
20
0.082932
30
0.0
11
0.099130
21
0.093080
31
0.0
0
LINE
8
0
6
CONTINUOUS
10
0.099130
20
0.093080
30
0.0
11
0.098999
21
0.103229
31
0.0
0
LINE
8
0
6
CONTINUOUS
10
0.088721
20
0.111483
30
0.0
11
0.084483
21
0.111483
31
0.0
0
LINE
8
0
6
CONTINUOUS
10
0.092355
20
0.111483
30
0.0
11
0.088721
21
0.111483
31
0.0
0
LINE
8
0
6
CONTINUOUS
10
0.079950
20
0.111483
30
0.0
11
0.079302
21
0.111483
31
0.0
0
LINE
8
0
6
CONTINUOUS
10
0.095138
20
0.111483
30
0.0
11
0.092355
21
0.111483
31
0.0
0
LINE
8
0
6
CONTINUOUS
10
0.097477
20
0.111483
30
0.0
11
0.096884
21
0.111483
31
0.0
0
LINE
8
0
6
CONTINUOUS
10
0.097477
20
0.110003
30
0.0
11
0.097477
21
0.111483
31
0.0
0
LINE
8
0
6
CONTINUOUS
10
0.084483
20
0.111483
30
0.0
11
0.079950
21
0.111483
31
0.0
0
LINE
8
0
6
CONTINUOUS
10
0.096884
20
0.111483
30
0.0
11
0.095138
21
0.111483
31
0.0
0
LINE
8
0
6
CONTINUOUS
10
-0.087460
20
0.086594
30
0.0
11
-0.085282
21
0.086442
31
0.0
0
LINE
8
0
6
CONTINUOUS
10
0.056788
20
0.073444
30
0.0
11
0.057913
21
0.067322
31
0.0
0
LINE
8
0
6
CONTINUOUS
10
0.043745
20
0.083615
30
0.0
11
0.049266
21
0.082056
31
0.0
0
LINE
8
0
6
CONTINUOUS
10
0.049266
20
0.082056
30
0.0
11
0.054502
21
0.078686
31
0.0
0
LINE
8
0
6
CONTINUOUS
10
0.054502
20
0.078686
30
0.0
11
0.056788
21
0.073444
31
0.0
0
LINE
8
0
6
CONTINUOUS
10
0.056013
20
0.079195
30
0.0
11
0.054502
21
0.078686
31
0.0
0
LINE
8
0
6
CONTINUOUS
10
0.057832
20
0.080641
30
0.0
11
0.056013
21
0.079195
31
0.0
0
LINE
8
0
6
CONTINUOUS
10
0.099392
20
0.072784
30
0.0
11
0.099261
21
0.082932
31
0.0
0
LINE
8
0
6
CONTINUOUS
10
0.058251
20
0.061117
30
0.0
11
0.056227
21
-0.145000
31
0.0
0
LINE
8
0
6
CONTINUOUS
10
0.098999
20
0.103229
30
0.0
11
0.098920
21
0.109351
31
0.0
0
LINE
8
0
6
CONTINUOUS
10
0.099523
20
0.062636
30
0.0
11
0.099392
21
0.072784
31
0.0
0
LINE
8
0
6
CONTINUOUS
10
-0.113363
20
0.101059
30
0.0
11
-0.108681
21
0.097507
31
0.0
0
LINE
8
0
6
CONTINUOUS
10
-0.112401
20
0.100769
30
0.0
11
-0.107134
21
0.096889
31
0.0
0
LINE
8
0
6
CONTINUOUS
10
-0.094129
20
0.089508
30
0.0
11
-0.091955
21
0.088214
31
0.0
0
LINE
8
0
6
CONTINUOUS
10
-0.101221
20
0.093413
30
0.0
11
-0.098796
21
0.092118
31
0.0
0
LINE
8
0
6
CONTINUOUS
10
-0.108681
20
0.097507
30
0.0
11
-0.103851
21
0.094520
31
0.0
0
LINE
8
0
6
CONTINUOUS
10
-0.107134
20
0.096889
30
0.0
11
-0.101221
21
0.093413
31
0.0
0
LINE
8
0
6
CONTINUOUS
10
-0.117331
20
0.104942
30
0.0
11
-0.113363
21
0.101059
31
0.0
0
LINE
8
0
6
CONTINUOUS
10
-0.116558
20
0.104766
30
0.0
11
-0.112401
21
0.100769
31
0.0
0
LINE
8
0
6
CONTINUOUS
10
-0.092186
20
0.088088
30
0.0
11
-0.090423
21
0.087092
31
0.0
0
LINE
8
0
6
CONTINUOUS
10
-0.090423
20
0.087092
30
0.0
11
-0.087460
21
0.086594
31
0.0
0
LINE
8
0
6
CONTINUOUS
10
-0.119954
20
0.109011
30
0.0
11
-0.117331
21
0.104942
31
0.0
0
LINE
8
0
6
CONTINUOUS
10
-0.116558
20
0.104766
30
0.0
11
-0.119331
21
0.109016
31
0.0
0
LINE
8
0
6
CONTINUOUS
10
0.080007
20
0.110003
30
0.0
11
0.059447
21
0.110003
31
0.0
0
LINE
8
0
6
CONTINUOUS
10
0.098295
20
0.110003
30
0.0
11
0.096397
21
0.110003
31
0.0
0
LINE
8
0
6
CONTINUOUS
10
0.089438
20
0.110003
30
0.0
11
0.084851
21
0.110003
31
0.0
0
LINE
8
0
6
CONTINUOUS
10
0.093376
20
0.110003
30
0.0
11
0.089438
21
0.110003
31
0.0
0
LINE
8
0
6
CONTINUOUS
10
0.096397
20
0.110003
30
0.0
11
0.093376
21
0.110003
31
0.0
0
LINE
8
0
6
CONTINUOUS
10
0.084851
20
0.110003
30
0.0
11
0.080007
21
0.110003
31
0.0
0
LINE
8
0
6
CONTINUOUS
10
0.098887
20
0.110003
30
0.0
11
0.098295
21
0.110003
31
0.0
0
LINE
8
0
6
CONTINUOUS
10
0.098920
20
0.109351
30
0.0
11
0.098887
21
0.110003
31
0.0
0
LINE
8
0
6
CONTINUOUS
10
-0.119976
20
0.110003
30
0.0
11
-0.120594
21
0.110003
31
0.0
0
LINE
8
0
6
CONTINUOUS
10
-0.120594
20
0.110003
30
0.0
11
-0.119954
21
0.109011
31
0.0
0
LINE
8
0
6
CONTINUOUS
10
-0.117598
20
0.110003
30
0.0
11
-0.119976
21
0.110003
31
0.0
0
LINE
8
0
6
CONTINUOUS
10
-0.119976
20
0.110003
30
0.0
11
-0.119331
21
0.109016
31
0.0
0
LINE
8
0
6
CONTINUOUS
10
-0.119954
20
0.109011
30
0.0
11
-0.120594
21
0.110003
31
0.0
0
LINE
8
0
6
CONTINUOUS
10
-0.120594
20
0.110003
30
0.0
11
-0.119954
21
0.109011
31
0.0
0
LINE
8
0
6
CONTINUOUS
10
0.059447
20
0.110003
30
0.0
11
-0.115416
21
0.110003
31
0.0
0
LINE
8
0
6
CONTINUOUS
10
-0.115416
20
0.110003
30
0.0
11
-0.117598
21
0.110003
31
0.0
0
LINE
8
0
6
CONTINUOUS
10
-0.085282
20
0.086442
30
0.0
11
0.043745
21
0.083615
31
0.0
0
LINE
8
0
6
CONTINUOUS
10
0.057913
20
0.067322
30
0.0
11
0.058251
21
0.061117
31
0.0
0
LINE
8
0
6
CONTINUOUS
10
0.102204
20
-0.145000
30
0.0
11
0.101569
21
-0.095858
31
0.0
0
LINE
8
0
6
CONTINUOUS
10
0.101405
20
-0.083144
30
0.0
11
0.099523
21
0.062636
31
0.0
0
LINE
8
0
6
CONTINUOUS
10
0.062957
20
-0.146000
30
0.0
11
0.059300
21
-0.146000
31
0.0
0
LINE
8
0
6
CONTINUOUS
10
0.067723
20
-0.146000
30
0.0
11
0.062957
21
-0.146000
31
0.0
0
LINE
8
0
6
CONTINUOUS
10
0.056227
20
-0.145000
30
0.0
11
0.056217
21
-0.146000
31
0.0
0
LINE
8
0
6
CONTINUOUS
10
0.057001
20
-0.146000
30
0.0
11
0.056217
21
-0.146000
31
0.0
0
LINE
8
0
6
CONTINUOUS
10
0.059300
20
-0.146000
30
0.0
11
0.057001
21
-0.146000
31
0.0
0
LINE
8
0
6
CONTINUOUS
10
0.073272
20
-0.146000
30
0.0
11
0.067723
21
-0.146000
31
0.0
0
LINE
8
0
6
CONTINUOUS
10
0.101375
20
-0.146000
30
0.0
11
0.099076
21
-0.146000
31
0.0
0
LINE
8
0
6
CONTINUOUS
10
0.102217
20
-0.146000
30
0.0
11
0.102204
21
-0.145000
31
0.0
0
LINE
8
0
6
CONTINUOUS
10
0.102217
20
-0.146000
30
0.0
11
0.101375
21
-0.146000
31
0.0
0
LINE
8
0
6
CONTINUOUS
10
0.085094
20
-0.146000
30
0.0
11
0.079227
21
-0.146000
31
0.0
0
LINE
8
0
6
CONTINUOUS
10
0.099076
20
-0.146000
30
0.0
11
0.095418
21
-0.146000
31
0.0
0
LINE
8
0
6
CONTINUOUS
10
0.090648
20
-0.146000
30
0.0
11
0.095418
21
-0.146000
31
0.0
0
LINE
8
0
6
CONTINUOUS
10
0.090648
20
-0.146000
30
0.0
11
0.085094
21
-0.146000
31
0.0
0
LINE
8
0
6
CONTINUOUS
10
0.079227
20
-0.146000
30
0.0
11
0.073272
21
-0.146000
31
0.0
0
LINE
8
0
6
CONTINUOUS
10
-0.094012
20
0.084851
30
0.0
11
-0.092186
21
0.088088
31
0.0
0
LINE
8
0
6
CONTINUOUS
10
-0.111567
20
0.099697
30
0.0
11
-0.113701
21
0.095914
31
0.0
0
LINE
8
0
6
CONTINUOUS
10
-0.113947
20
0.095478
30
0.0
11
-0.113465
21
0.095207
31
0.0
0
LINE
8
0
6
CONTINUOUS
10
-0.113701
20
0.095914
30
0.0
11
-0.113947
21
0.095478
31
0.0
0
LINE
8
0
6
CONTINUOUS
10
-0.112067
20
0.094422
30
0.0
11
-0.113465
21
0.095207
31
0.0
0
LINE
8
0
6
CONTINUOUS
10
-0.109889
20
0.093198
30
0.0
11
-0.112067
21
0.094422
31
0.0
0
LINE
8
0
6
CONTINUOUS
10
-0.107145
20
0.091656
30
0.0
11
-0.109889
21
0.093198
31
0.0
0
LINE
8
0
6
CONTINUOUS
10
-0.104102
20
0.089947
30
0.0
11
-0.107145
21
0.091656
31
0.0
0
LINE
8
0
6
CONTINUOUS
10
-0.104102
20
0.089947
30
0.0
11
-0.101060
21
0.088237
31
0.0
0
LINE
8
0
6
CONTINUOUS
10
-0.101060
20
0.088237
30
0.0
11
-0.098316
21
0.086695
31
0.0
0
LINE
8
0
6
CONTINUOUS
10
-0.096138
20
0.085472
30
0.0
11
-0.098316
21
0.086695
31
0.0
0
LINE
8
0
6
CONTINUOUS
10
-0.096138
20
0.085472
30
0.0
11
-0.094740
21
0.084686
31
0.0
0
LINE
8
0
6
CONTINUOUS
10
-0.094258
20
0.084415
30
0.0
11
-0.094012
21
0.084851
31
0.0
0
LINE
8
0
6
CONTINUOUS
10
-0.094740
20
0.084686
30
0.0
11
-0.094258
21
0.084415
31
0.0
0
LINE
8
0
6
CONTINUOUS
10
0.108304
20
-0.071767
30
0.0
11
0.108791
21
-0.071210
31
0.0
0
LINE
8
0
6
CONTINUOUS
10
0.108219
20
-0.068072
30
0.0
11
0.106850
21
-0.068941
31
0.0
0
LINE
8
0
6
CONTINUOUS
10
0.117411
20
-0.069238
30
0.0
11
0.112722
21
-0.068873
31
0.0
0
LINE
8
0
6
CONTINUOUS
10
0.117411
20
-0.069238
30
0.0
11
0.112892
21
-0.069458
31
0.0
0
LINE
8
0
6
CONTINUOUS
10
0.112744
20
-0.069638
30
0.0
11
0.117423
21
-0.069498
31
0.0
0
LINE
8
0
6
CONTINUOUS
10
0.120545
20
-0.069160
30
0.0
11
0.119492
21
-0.069247
31
0.0
0
LINE
8
0
6
CONTINUOUS
10
0.120161
20
-0.069511
30
0.0
11
0.120545
21
-0.069160
31
0.0
0
LINE
8
0
6
CONTINUOUS
10
0.112722
20
-0.068873
30
0.0
11
0.117385
21
-0.069160
31
0.0
0
LINE
8
0
6
CONTINUOUS
10
0.106850
20
-0.068941
30
0.0
11
0.105811
21
-0.069918
31
0.0
0
LINE
8
0
6
CONTINUOUS
10
0.107861
20
-0.072363
30
0.0
11
0.108304
21
-0.071767
31
0.0
0
LINE
8
0
6
CONTINUOUS
10
0.109692
20
-0.069035
30
0.0
11
0.108787
21
-0.069538
31
0.0
0
LINE
8
0
6
CONTINUOUS
10
0.109368
20
-0.070741
30
0.0
11
0.110051
21
-0.070460
31
0.0
0
LINE
8
0
6
CONTINUOUS
10
0.109721
20
-0.069952
30
0.0
11
0.109008
21
-0.070327
31
0.0
0
LINE
8
0
6
CONTINUOUS
10
0.117431
20
-0.067216
30
0.0
11
0.113076
21
-0.066769
31
0.0
0
LINE
8
0
6
CONTINUOUS
10
0.107958
20
-0.071482
30
0.0
11
0.108374
21
-0.070790
31
0.0
0
LINE
8
0
6
CONTINUOUS
10
0.107878
20
-0.070040
30
0.0
11
0.107342
21
-0.070924
31
0.0
0
LINE
8
0
6
CONTINUOUS
10
0.110158
20
-0.067197
30
0.0
11
0.108219
21
-0.068072
31
0.0
0
LINE
8
0
6
CONTINUOUS
10
0.106489
20
-0.070536
30
0.0
11
0.105867
21
-0.071361
31
0.0
0
LINE
8
0
6
CONTINUOUS
10
0.107588
20
-0.072182
30
0.0
11
0.107958
21
-0.071482
31
0.0
0
LINE
8
0
6
CONTINUOUS
10
0.107342
20
-0.070924
30
0.0
11
0.107016
21
-0.071901
31
0.0
0
LINE
8
0
6
CONTINUOUS
10
0.109008
20
-0.070327
30
0.0
11
0.108374
21
-0.070790
31
0.0
0
LINE
8
0
6
CONTINUOUS
10
0.108791
20
-0.071210
30
0.0
11
0.109368
21
-0.070741
31
0.0
0
LINE
8
0
6
CONTINUOUS
10
0.105811
20
-0.069918
30
0.0
11
0.104896
21
-0.070979
31
0.0
0
LINE
8
0
6
CONTINUOUS
10
0.109692
20
-0.069035
30
0.0
11
0.112722
21
-0.068873
31
0.0
0
LINE
8
0
6
CONTINUOUS
10
0.109627
20
-0.068056
30
0.0
11
0.112784
21
-0.067564
31
0.0
0
LINE
8
0
6
CONTINUOUS
10
0.117445
20
-0.067707
30
0.0
11
0.112785
21
-0.067058
31
0.0
0
LINE
8
0
6
CONTINUOUS
10
0.112780
20
-0.067268
30
0.0
11
0.117445
21
-0.067707
31
0.0
0
LINE
8
0
6
CONTINUOUS
10
0.108369
20
-0.068406
30
0.0
11
0.109711
21
-0.067770
31
0.0
0
LINE
8
0
6
CONTINUOUS
10
0.109791
20
-0.067473
30
0.0
11
0.108232
21
-0.068156
31
0.0
0
LINE
8
0
6
CONTINUOUS
10
0.107113
20
-0.069243
30
0.0
11
0.108369
21
-0.068406
31
0.0
0
LINE
8
0
6
CONTINUOUS
10
0.108232
20
-0.068156
30
0.0
11
0.106880
21
-0.069060
31
0.0
0
LINE
8
0
6
CONTINUOUS
10
0.106162
20
-0.070330
30
0.0
11
0.107113
21
-0.069243
31
0.0
0
LINE
8
0
6
CONTINUOUS
10
0.106880
20
-0.069060
30
0.0
11
0.105881
21
-0.070168
31
0.0
0
LINE
8
0
6
CONTINUOUS
10
0.105881
20
-0.070168
30
0.0
11
0.105022
21
-0.071039
31
0.0
0
LINE
8
0
6
CONTINUOUS
10
0.109711
20
-0.067770
30
0.0
11
0.112780
21
-0.067268
31
0.0
0
LINE
8
0
6
CONTINUOUS
10
0.119487
20
-0.067216
30
0.0
11
0.117431
21
-0.067216
31
0.0
0
LINE
8
0
6
CONTINUOUS
10
0.120545
20
-0.069160
30
0.0
11
0.120591
21
-0.068144
31
0.0
0
LINE
8
0
6
CONTINUOUS
10
0.120348
20
-0.069160
30
0.0
11
0.120545
21
-0.069160
31
0.0
0
LINE
8
0
6
CONTINUOUS
10
0.119429
20
-0.069160
30
0.0
11
0.120020
21
-0.069160
31
0.0
0
LINE
8
0
6
CONTINUOUS
10
0.119501
20
-0.067707
30
0.0
11
0.120168
21
-0.067707
31
0.0
0
LINE
8
0
6
CONTINUOUS
10
0.120161
20
-0.069511
30
0.0
11
0.119492
21
-0.069247
31
0.0
0
LINE
8
0
6
CONTINUOUS
10
0.117423
20
-0.069498
30
0.0
11
0.120161
21
-0.069511
31
0.0
0
LINE
8
0
6
CONTINUOUS
10
0.120594
20
-0.067216
30
0.0
11
0.119487
21
-0.067216
31
0.0
0
LINE
8
0
6
CONTINUOUS
10
0.119500
20
-0.067579
30
0.0
11
0.120268
21
-0.067579
31
0.0
0
LINE
8
0
6
CONTINUOUS
10
0.120594
20
-0.067216
30
0.0
11
0.120268
21
-0.067579
31
0.0
0
LINE
8
0
6
CONTINUOUS
10
0.120591
20
-0.068144
30
0.0
11
0.120594
21
-0.067216
31
0.0
0
LINE
8
0
6
CONTINUOUS
10
0.119429
20
-0.069160
30
0.0
11
0.119499
21
-0.068144
31
0.0
0
LINE
8
0
6
CONTINUOUS
10
0.119499
20
-0.068144
30
0.0
11
0.119501
21
-0.067707
31
0.0
0
LINE
8
0
6
CONTINUOUS
10
0.117445
20
-0.067707
30
0.0
11
0.119501
21
-0.067707
31
0.0
0
LINE
8
0
6
CONTINUOUS
10
0.119429
20
-0.069160
30
0.0
11
0.117385
21
-0.069160
31
0.0
0
LINE
8
0
6
CONTINUOUS
10
0.120020
20
-0.069160
30
0.0
11
0.120348
21
-0.069160
31
0.0
0
LINE
8
0
6
CONTINUOUS
10
0.110051
20
-0.070460
30
0.0
11
0.112744
21
-0.069638
31
0.0
0
LINE
8
0
6
CONTINUOUS
10
0.112892
20
-0.069458
30
0.0
11
0.109721
21
-0.069952
31
0.0
0
LINE
8
0
6
CONTINUOUS
10
0.120268
20
-0.067579
30
0.0
11
0.120168
21
-0.067707
31
0.0
0
LINE
8
0
6
CONTINUOUS
10
0.120168
20
-0.067707
30
0.0
11
0.120167
21
-0.068144
31
0.0
0
LINE
8
0
6
CONTINUOUS
10
0.113076
20
-0.066769
30
0.0
11
0.110158
21
-0.067197
31
0.0
0
LINE
8
0
6
CONTINUOUS
10
0.109791
20
-0.067473
30
0.0
11
0.112785
21
-0.067058
31
0.0
0
LINE
8
0
6
CONTINUOUS
10
0.107016
20
-0.071901
30
0.0
11
0.101317
21
-0.093103
31
0.0
0
LINE
8
0
6
CONTINUOUS
10
0.101569
20
-0.095858
30
0.0
11
0.107861
21
-0.072363
31
0.0
0
LINE
8
0
6
CONTINUOUS
10
0.107588
20
-0.072182
30
0.0
11
0.101434
21
-0.095289
31
0.0
0
LINE
8
0
6
CONTINUOUS
10
0.105022
20
-0.071039
30
0.0
11
0.104896
21
-0.070979
31
0.0
0
LINE
8
0
6
CONTINUOUS
10
0.101262
20
-0.084307
30
0.0
11
0.105022
21
-0.071039
31
0.0
0
LINE
8
0
6
CONTINUOUS
10
0.104896
20
-0.070979
30
0.0
11
0.101405
21
-0.083144
31
0.0
0
LINE
8
0
6
CONTINUOUS
10
0.101233
20
-0.089127
30
0.0
11
0.105867
21
-0.071361
31
0.0
0
LINE
8
0
6
CONTINUOUS
10
0.079302
20
0.110003
30
0.0
11
0.079302
21
0.111483
31
0.0
0
LINE
8
0
6
CONTINUOUS
10
-0.098796
20
0.092118
30
0.0
11
-0.095987
21
0.090824
31
0.0
0
LINE
8
0
6
CONTINUOUS
10
-0.092186
20
0.088088
30
0.0
11
-0.092554
21
0.088470
31
0.0
0
LINE
8
0
6
CONTINUOUS
10
-0.104177
20
0.094756
30
0.0
11
-0.102992
21
0.094159
31
0.0
0
LINE
8
0
6
CONTINUOUS
10
-0.092554
20
0.088470
30
0.0
11
-0.092590
21
0.088497
31
0.0
0
LINE
8
0
6
CONTINUOUS
10
-0.092590
20
0.088497
30
0.0
11
-0.092985
21
0.088728
31
0.0
0
LINE
8
0
6
CONTINUOUS
10
-0.094129
20
0.089508
30
0.0
11
-0.095729
21
0.090617
31
0.0
0
LINE
8
0
6
CONTINUOUS
10
-0.098854
20
0.092148
30
0.0
11
-0.098796
21
0.092118
31
0.0
0
LINE
8
0
6
CONTINUOUS
10
-0.101990
20
0.093691
30
0.0
11
-0.100709
21
0.093055
31
0.0
0
LINE
8
0
6
CONTINUOUS
10
-0.102992
20
0.094159
30
0.0
11
-0.101990
21
0.093691
31
0.0
0
ENDSEC
0
EOF
