999
Erzeugt mit innoplus bad 
0
SECTION
2
HEADER
9
$ACADVER
1
AC1009
9
$DWGCODEPAGE
3
ISO8859-1
0
ENDSEC
0
SECTION
2
TABLES
0
TABLE
2
LAYER
70
1
0
LAYER
2
0
70
0
62
7
6
CONTINUOUS
0
ENDTAB
0
ENDSEC
0
SECTION
2
ENTITIES
0
LINE
8
0
6
CONTINUOUS
10
-0.060407
20
0.039504
30
0.0
11
-0.058230
21
0.039352
31
0.0
0
LINE
8
0
6
CONTINUOUS
10
0.040385
20
0.027254
30
0.0
11
0.041123
21
0.022013
31
0.0
0
LINE
8
0
6
CONTINUOUS
10
0.026986
20
0.036525
30
0.0
11
0.032507
21
0.034965
31
0.0
0
LINE
8
0
6
CONTINUOUS
10
0.032507
20
0.034965
30
0.0
11
0.038658
21
0.030650
31
0.0
0
LINE
8
0
6
CONTINUOUS
10
0.038658
20
0.030650
30
0.0
11
0.040385
21
0.027254
31
0.0
0
LINE
8
0
6
CONTINUOUS
10
0.039778
20
0.031492
30
0.0
11
0.038658
21
0.030650
31
0.0
0
LINE
8
0
6
CONTINUOUS
10
0.082969
20
0.035806
30
0.0
11
0.082546
21
0.050705
31
0.0
0
LINE
8
0
6
CONTINUOUS
10
0.083208
20
0.025175
30
0.0
11
0.082969
21
0.035806
31
0.0
0
LINE
8
0
6
CONTINUOUS
10
0.042541
20
-0.093087
30
0.0
11
0.046198
21
-0.093087
31
0.0
0
LINE
8
0
6
CONTINUOUS
10
0.046198
20
-0.093087
30
0.0
11
0.050964
21
-0.093087
31
0.0
0
LINE
8
0
6
CONTINUOUS
10
0.039458
20
-0.093087
30
0.0
11
0.040242
21
-0.093087
31
0.0
0
LINE
8
0
6
CONTINUOUS
10
0.039484
20
-0.092340
30
0.0
11
0.039458
21
-0.093087
31
0.0
0
LINE
8
0
6
CONTINUOUS
10
0.040242
20
-0.093087
30
0.0
11
0.042541
21
-0.093087
31
0.0
0
LINE
8
0
6
CONTINUOUS
10
0.050964
20
-0.093087
30
0.0
11
0.056513
21
-0.093087
31
0.0
0
LINE
8
0
6
CONTINUOUS
10
0.062468
20
-0.093087
30
0.0
11
0.068402
21
-0.093087
31
0.0
0
LINE
8
0
6
CONTINUOUS
10
0.083319
20
-0.093087
30
0.0
11
0.084889
21
-0.093087
31
0.0
0
LINE
8
0
6
CONTINUOUS
10
0.059490
20
-0.093087
30
0.0
11
0.062468
21
-0.093087
31
0.0
0
LINE
8
0
6
CONTINUOUS
10
0.085458
20
-0.093087
30
0.0
11
0.085436
21
-0.092307
31
0.0
0
LINE
8
0
6
CONTINUOUS
10
0.084889
20
-0.093087
30
0.0
11
0.085458
21
-0.093087
31
0.0
0
LINE
8
0
6
CONTINUOUS
10
0.073042
20
-0.093087
30
0.0
11
0.077256
21
-0.093087
31
0.0
0
LINE
8
0
6
CONTINUOUS
10
0.080692
20
-0.093087
30
0.0
11
0.083319
21
-0.093087
31
0.0
0
LINE
8
0
6
CONTINUOUS
10
0.077256
20
-0.093087
30
0.0
11
0.080692
21
-0.093087
31
0.0
0
LINE
8
0
6
CONTINUOUS
10
0.068402
20
-0.093087
30
0.0
11
0.073042
21
-0.093087
31
0.0
0
LINE
8
0
6
CONTINUOUS
10
0.041232
20
0.018008
30
0.0
11
0.041183
21
0.014951
31
0.0
0
LINE
8
0
6
CONTINUOUS
10
0.082546
20
0.050705
30
0.0
11
0.082161
21
0.062261
31
0.0
0
LINE
8
0
6
CONTINUOUS
10
-0.092902
20
0.061920
30
0.0
11
-0.090279
21
0.057852
31
0.0
0
LINE
8
0
6
CONTINUOUS
10
-0.086311
20
0.053969
30
0.0
11
-0.081629
21
0.050417
31
0.0
0
LINE
8
0
6
CONTINUOUS
10
-0.080082
20
0.049799
30
0.0
11
-0.085349
21
0.053679
31
0.0
0
LINE
8
0
6
CONTINUOUS
10
-0.064902
20
0.041124
30
0.0
11
-0.067165
21
0.042470
31
0.0
0
LINE
8
0
6
CONTINUOUS
10
-0.071680
20
0.044994
30
0.0
11
-0.074169
21
0.046323
31
0.0
0
LINE
8
0
6
CONTINUOUS
10
-0.081629
20
0.050417
30
0.0
11
-0.077615
21
0.047935
31
0.0
0
LINE
8
0
6
CONTINUOUS
10
-0.074169
20
0.046323
30
0.0
11
-0.080082
21
0.049799
31
0.0
0
LINE
8
0
6
CONTINUOUS
10
-0.090279
20
0.057852
30
0.0
11
-0.086311
21
0.053969
31
0.0
0
LINE
8
0
6
CONTINUOUS
10
-0.085349
20
0.053679
30
0.0
11
-0.089506
21
0.057676
31
0.0
0
LINE
8
0
6
CONTINUOUS
10
-0.063371
20
0.040002
30
0.0
11
-0.060407
21
0.039504
31
0.0
0
LINE
8
0
6
CONTINUOUS
10
-0.065147
20
0.041006
30
0.0
11
-0.063371
21
0.040002
31
0.0
0
LINE
8
0
6
CONTINUOUS
10
-0.092279
20
0.061926
30
0.0
11
-0.089506
21
0.057676
31
0.0
0
LINE
8
0
6
CONTINUOUS
10
0.081536
20
0.062913
30
0.0
11
0.079638
21
0.062913
31
0.0
0
LINE
8
0
6
CONTINUOUS
10
0.079638
20
0.062913
30
0.0
11
0.078139
21
0.062913
31
0.0
0
LINE
8
0
6
CONTINUOUS
10
0.082128
20
0.062913
30
0.0
11
0.081536
21
0.062913
31
0.0
0
LINE
8
0
6
CONTINUOUS
10
0.082161
20
0.062261
30
0.0
11
0.082128
21
0.062913
31
0.0
0
LINE
8
0
6
CONTINUOUS
10
-0.090546
20
0.062913
30
0.0
11
-0.092924
21
0.062913
31
0.0
0
LINE
8
0
6
CONTINUOUS
10
-0.092279
20
0.061926
30
0.0
11
-0.092924
21
0.062913
31
0.0
0
LINE
8
0
6
CONTINUOUS
10
-0.093542
20
0.062913
30
0.0
11
-0.092902
21
0.061920
31
0.0
0
LINE
8
0
6
CONTINUOUS
10
-0.092924
20
0.062913
30
0.0
11
-0.093542
21
0.062913
31
0.0
0
LINE
8
0
6
CONTINUOUS
10
0.042688
20
0.062913
30
0.0
11
-0.088364
21
0.062913
31
0.0
0
LINE
8
0
6
CONTINUOUS
10
-0.088364
20
0.062913
30
0.0
11
-0.090546
21
0.062913
31
0.0
0
LINE
8
0
6
CONTINUOUS
10
-0.058230
20
0.039352
30
0.0
11
0.026986
21
0.036525
31
0.0
0
LINE
8
0
6
CONTINUOUS
10
0.056513
20
-0.093087
30
0.0
11
0.059490
21
-0.093087
31
0.0
0
LINE
8
0
6
CONTINUOUS
10
0.040594
20
-0.022276
30
0.0
11
0.039484
21
-0.092340
31
0.0
0
LINE
8
0
6
CONTINUOUS
10
0.083476
20
0.010579
30
0.0
11
0.083392
21
0.014979
31
0.0
0
LINE
8
0
6
CONTINUOUS
10
0.085436
20
-0.092307
30
0.0
11
0.084333
21
-0.034432
31
0.0
0
LINE
8
0
6
CONTINUOUS
10
0.084273
20
-0.031234
30
0.0
11
0.084101
21
-0.022247
31
0.0
0
LINE
8
0
6
CONTINUOUS
10
0.083392
20
0.014979
30
0.0
11
0.083295
21
0.020072
31
0.0
0
LINE
8
0
6
CONTINUOUS
10
0.046777
20
0.062913
30
0.0
11
0.042688
21
0.062913
31
0.0
0
LINE
8
0
6
CONTINUOUS
10
0.083295
20
0.020072
30
0.0
11
0.083208
21
0.025175
31
0.0
0
LINE
8
0
6
CONTINUOUS
10
0.041123
20
0.022013
30
0.0
11
0.041232
21
0.018008
31
0.0
0
LINE
8
0
6
CONTINUOUS
10
0.041183
20
0.014951
30
0.0
11
0.041114
21
0.010552
31
0.0
0
LINE
8
0
6
CONTINUOUS
10
0.067366
20
-0.005145
30
0.0
11
0.062458
21
-0.005789
31
0.0
0
LINE
8
0
6
CONTINUOUS
10
0.067431
20
-0.009886
30
0.0
11
0.062458
21
-0.010512
31
0.0
0
LINE
8
0
6
CONTINUOUS
10
0.075844
20
-0.000242
30
0.0
11
0.071922
21
-0.003257
31
0.0
0
LINE
8
0
6
CONTINUOUS
10
0.075941
20
-0.005141
30
0.0
11
0.071998
21
-0.008060
31
0.0
0
LINE
8
0
6
CONTINUOUS
10
0.053105
20
-0.003285
30
0.0
11
0.049147
21
-0.000252
31
0.0
0
LINE
8
0
6
CONTINUOUS
10
0.053284
20
-0.008113
30
0.0
11
0.049229
21
-0.005160
31
0.0
0
LINE
8
0
6
CONTINUOUS
10
0.057622
20
-0.005155
30
0.0
11
0.053105
21
-0.003285
31
0.0
0
LINE
8
0
6
CONTINUOUS
10
0.057721
20
-0.009904
30
0.0
11
0.053284
21
-0.008113
31
0.0
0
LINE
8
0
6
CONTINUOUS
10
0.062458
20
-0.005789
30
0.0
11
0.057622
21
-0.005155
31
0.0
0
LINE
8
0
6
CONTINUOUS
10
0.062458
20
-0.010512
30
0.0
11
0.057721
21
-0.009904
31
0.0
0
LINE
8
0
6
CONTINUOUS
10
0.071922
20
-0.003257
30
0.0
11
0.067366
21
-0.005145
31
0.0
0
LINE
8
0
6
CONTINUOUS
10
0.071998
20
-0.008060
30
0.0
11
0.067431
21
-0.009886
31
0.0
0
LINE
8
0
6
CONTINUOUS
10
0.081830
20
0.010331
30
0.0
11
0.079777
21
-0.002993
31
0.0
0
LINE
8
0
6
CONTINUOUS
10
0.045275
20
0.000471
30
0.0
11
0.043032
21
0.010259
31
0.0
0
LINE
8
0
6
CONTINUOUS
10
0.043032
20
0.010259
30
0.0
11
0.045312
21
-0.003166
31
0.0
0
LINE
8
0
6
CONTINUOUS
10
0.044449
20
0.029347
30
0.0
11
0.043612
21
0.028898
31
0.0
0
LINE
8
0
6
CONTINUOUS
10
0.083728
20
-0.002636
30
0.0
11
0.083476
21
0.010579
31
0.0
0
LINE
8
0
6
CONTINUOUS
10
0.041114
20
0.010552
30
0.0
11
0.040904
21
-0.002665
31
0.0
0
LINE
8
0
6
CONTINUOUS
10
0.042810
20
-0.022457
30
0.0
11
0.042565
21
-0.092337
31
0.0
0
LINE
8
0
6
CONTINUOUS
10
0.084101
20
-0.022247
30
0.0
11
0.083728
21
-0.002636
31
0.0
0
LINE
8
0
6
CONTINUOUS
10
0.040904
20
-0.002665
30
0.0
11
0.040594
21
-0.022276
31
0.0
0
LINE
8
0
6
CONTINUOUS
10
-0.066978
20
0.037762
30
0.0
11
-0.065147
21
0.041006
31
0.0
0
LINE
8
0
6
CONTINUOUS
10
-0.084527
20
0.052616
30
0.0
11
-0.086667
21
0.048824
31
0.0
0
LINE
8
0
6
CONTINUOUS
10
-0.086912
20
0.048388
30
0.0
11
-0.086431
21
0.048118
31
0.0
0
LINE
8
0
6
CONTINUOUS
10
-0.086667
20
0.048824
30
0.0
11
-0.086912
21
0.048388
31
0.0
0
LINE
8
0
6
CONTINUOUS
10
-0.085032
20
0.047332
30
0.0
11
-0.086431
21
0.048118
31
0.0
0
LINE
8
0
6
CONTINUOUS
10
-0.082854
20
0.046108
30
0.0
11
-0.085032
21
0.047332
31
0.0
0
LINE
8
0
6
CONTINUOUS
10
-0.080110
20
0.044566
30
0.0
11
-0.082854
21
0.046108
31
0.0
0
LINE
8
0
6
CONTINUOUS
10
-0.077068
20
0.042857
30
0.0
11
-0.080110
21
0.044566
31
0.0
0
LINE
8
0
6
CONTINUOUS
10
-0.077068
20
0.042857
30
0.0
11
-0.074026
21
0.041148
31
0.0
0
LINE
8
0
6
CONTINUOUS
10
-0.074026
20
0.041148
30
0.0
11
-0.071281
21
0.039606
31
0.0
0
LINE
8
0
6
CONTINUOUS
10
-0.069104
20
0.038382
30
0.0
11
-0.071281
21
0.039606
31
0.0
0
LINE
8
0
6
CONTINUOUS
10
-0.069104
20
0.038382
30
0.0
11
-0.067705
21
0.037597
31
0.0
0
LINE
8
0
6
CONTINUOUS
10
-0.067223
20
0.037326
30
0.0
11
-0.066978
21
0.037762
31
0.0
0
LINE
8
0
6
CONTINUOUS
10
-0.067705
20
0.037597
30
0.0
11
-0.067223
21
0.037326
31
0.0
0
LINE
8
0
6
CONTINUOUS
10
0.045339
20
0.042172
30
0.0
11
0.044570
21
0.031088
31
0.0
0
LINE
8
0
6
CONTINUOUS
10
0.044570
20
0.031088
30
0.0
11
0.043801
21
0.020004
31
0.0
0
LINE
8
0
6
CONTINUOUS
10
0.046860
20
0.064100
30
0.0
11
0.046353
21
0.056790
31
0.0
0
LINE
8
0
6
CONTINUOUS
10
0.046353
20
0.056790
30
0.0
11
0.045846
21
0.049481
31
0.0
0
LINE
8
0
6
CONTINUOUS
10
0.048381
20
0.086028
30
0.0
11
0.047620
21
0.075064
31
0.0
0
LINE
8
0
6
CONTINUOUS
10
0.049602
20
0.089601
30
0.0
11
0.048381
21
0.086028
31
0.0
0
LINE
8
0
6
CONTINUOUS
10
0.045846
20
0.049481
30
0.0
11
0.045339
21
0.042172
31
0.0
0
LINE
8
0
6
CONTINUOUS
10
0.062458
20
0.093087
30
0.0
11
0.059242
21
0.093087
31
0.0
0
LINE
8
0
6
CONTINUOUS
10
0.047620
20
0.075064
30
0.0
11
0.046860
21
0.064100
31
0.0
0
LINE
8
0
6
CONTINUOUS
10
0.059242
20
0.093087
30
0.0
11
0.056026
21
0.093087
31
0.0
0
LINE
8
0
6
CONTINUOUS
10
0.052373
20
0.092160
30
0.0
11
0.049602
21
0.089601
31
0.0
0
LINE
8
0
6
CONTINUOUS
10
0.056026
20
0.093087
30
0.0
11
0.052373
21
0.092160
31
0.0
0
LINE
8
0
6
CONTINUOUS
10
0.044105
20
0.010131
30
0.0
11
0.043458
21
0.015059
31
0.0
0
LINE
8
0
6
CONTINUOUS
10
0.044105
20
0.010131
30
0.0
11
0.046003
21
0.005539
31
0.0
0
LINE
8
0
6
CONTINUOUS
10
0.046003
20
0.005539
30
0.0
11
0.049023
21
0.001596
31
0.0
0
LINE
8
0
6
CONTINUOUS
10
0.052958
20
-0.001430
30
0.0
11
0.049023
21
0.001596
31
0.0
0
LINE
8
0
6
CONTINUOUS
10
0.057540
20
-0.003332
30
0.0
11
0.052958
21
-0.001430
31
0.0
0
LINE
8
0
6
CONTINUOUS
10
0.062458
20
-0.003981
30
0.0
11
0.057540
21
-0.003332
31
0.0
0
LINE
8
0
6
CONTINUOUS
10
0.043801
20
0.020004
30
0.0
11
0.043458
21
0.015059
31
0.0
0
LINE
8
0
6
CONTINUOUS
10
0.080346
20
0.031088
30
0.0
11
0.079577
21
0.042172
31
0.0
0
LINE
8
0
6
CONTINUOUS
10
0.081115
20
0.020004
30
0.0
11
0.080346
21
0.031088
31
0.0
0
LINE
8
0
6
CONTINUOUS
10
0.078563
20
0.056790
30
0.0
11
0.078056
21
0.064100
31
0.0
0
LINE
8
0
6
CONTINUOUS
10
0.079070
20
0.049481
30
0.0
11
0.078563
21
0.056790
31
0.0
0
LINE
8
0
6
CONTINUOUS
10
0.077296
20
0.075064
30
0.0
11
0.076535
21
0.086028
31
0.0
0
LINE
8
0
6
CONTINUOUS
10
0.076535
20
0.086028
30
0.0
11
0.075314
21
0.089601
31
0.0
0
LINE
8
0
6
CONTINUOUS
10
0.079577
20
0.042172
30
0.0
11
0.079070
21
0.049481
31
0.0
0
LINE
8
0
6
CONTINUOUS
10
0.065674
20
0.093087
30
0.0
11
0.062458
21
0.093087
31
0.0
0
LINE
8
0
6
CONTINUOUS
10
0.078056
20
0.064100
30
0.0
11
0.077296
21
0.075064
31
0.0
0
LINE
8
0
6
CONTINUOUS
10
0.068890
20
0.093087
30
0.0
11
0.065674
21
0.093087
31
0.0
0
LINE
8
0
6
CONTINUOUS
10
0.075314
20
0.089601
30
0.0
11
0.072543
21
0.092160
31
0.0
0
LINE
8
0
6
CONTINUOUS
10
0.072543
20
0.092160
30
0.0
11
0.068890
21
0.093087
31
0.0
0
LINE
8
0
6
CONTINUOUS
10
0.081458
20
0.015059
30
0.0
11
0.080811
21
0.010131
31
0.0
0
LINE
8
0
6
CONTINUOUS
10
0.078912
20
0.005539
30
0.0
11
0.080811
21
0.010131
31
0.0
0
LINE
8
0
6
CONTINUOUS
10
0.075893
20
0.001596
30
0.0
11
0.078912
21
0.005539
31
0.0
0
LINE
8
0
6
CONTINUOUS
10
0.075893
20
0.001596
30
0.0
11
0.071958
21
-0.001430
31
0.0
0
LINE
8
0
6
CONTINUOUS
10
0.071958
20
-0.001430
30
0.0
11
0.067376
21
-0.003332
31
0.0
0
LINE
8
0
6
CONTINUOUS
10
0.067376
20
-0.003332
30
0.0
11
0.062458
21
-0.003981
31
0.0
0
LINE
8
0
6
CONTINUOUS
10
0.081458
20
0.015059
30
0.0
11
0.081115
21
0.020004
31
0.0
0
LINE
8
0
6
CONTINUOUS
10
0.083023
20
-0.035270
30
0.0
11
0.082625
21
-0.035826
31
0.0
0
LINE
8
0
6
CONTINUOUS
10
0.083230
20
-0.035542
30
0.0
11
0.083643
21
-0.034850
31
0.0
0
LINE
8
0
6
CONTINUOUS
10
0.088709
20
-0.033297
30
0.0
11
0.085103
21
-0.032933
31
0.0
0
LINE
8
0
6
CONTINUOUS
10
0.088709
20
-0.033297
30
0.0
11
0.085529
21
-0.033518
31
0.0
0
LINE
8
0
6
CONTINUOUS
10
0.086264
20
-0.033698
30
0.0
11
0.090099
21
-0.033558
31
0.0
0
LINE
8
0
6
CONTINUOUS
10
0.092658
20
-0.033219
30
0.0
11
0.090571
21
-0.033306
31
0.0
0
LINE
8
0
6
CONTINUOUS
10
0.085103
20
-0.032933
30
0.0
11
0.088521
21
-0.033219
31
0.0
0
LINE
8
0
6
CONTINUOUS
10
0.082625
20
-0.033094
30
0.0
11
0.081896
21
-0.033598
31
0.0
0
LINE
8
0
6
CONTINUOUS
10
0.083497
20
-0.034800
30
0.0
11
0.084056
21
-0.034519
31
0.0
0
LINE
8
0
6
CONTINUOUS
10
0.082853
20
-0.034011
30
0.0
11
0.082267
21
-0.034387
31
0.0
0
LINE
8
0
6
CONTINUOUS
10
0.090106
20
-0.031276
30
0.0
11
0.086536
21
-0.030828
31
0.0
0
LINE
8
0
6
CONTINUOUS
10
0.081452
20
-0.035542
30
0.0
11
0.081720
21
-0.034850
31
0.0
0
LINE
8
0
6
CONTINUOUS
10
0.081138
20
-0.034099
30
0.0
11
0.080713
21
-0.034984
31
0.0
0
LINE
8
0
6
CONTINUOUS
10
0.080038
20
-0.034595
30
0.0
11
0.079518
21
-0.035421
31
0.0
0
LINE
8
0
6
CONTINUOUS
10
0.081210
20
-0.036242
30
0.0
11
0.081452
21
-0.035542
31
0.0
0
LINE
8
0
6
CONTINUOUS
10
0.080713
20
-0.034984
30
0.0
11
0.080515
21
-0.035961
31
0.0
0
LINE
8
0
6
CONTINUOUS
10
0.082267
20
-0.034387
30
0.0
11
0.081720
21
-0.034850
31
0.0
0
LINE
8
0
6
CONTINUOUS
10
0.082625
20
-0.033094
30
0.0
11
0.085103
21
-0.032933
31
0.0
0
LINE
8
0
6
CONTINUOUS
10
0.082588
20
-0.032116
30
0.0
11
0.084997
21
-0.031624
31
0.0
0
LINE
8
0
6
CONTINUOUS
10
0.088531
20
-0.031767
30
0.0
11
0.085112
21
-0.031117
31
0.0
0
LINE
8
0
6
CONTINUOUS
10
0.085012
20
-0.031328
30
0.0
11
0.088531
21
-0.031767
31
0.0
0
LINE
8
0
6
CONTINUOUS
10
0.081641
20
-0.032466
30
0.0
11
0.082708
21
-0.031829
31
0.0
0
LINE
8
0
6
CONTINUOUS
10
0.082976
20
-0.031532
30
0.0
11
0.081765
21
-0.032215
31
0.0
0
LINE
8
0
6
CONTINUOUS
10
0.080630
20
-0.033302
30
0.0
11
0.081641
21
-0.032466
31
0.0
0
LINE
8
0
6
CONTINUOUS
10
0.081765
20
-0.032215
30
0.0
11
0.080646
21
-0.033119
31
0.0
0
LINE
8
0
6
CONTINUOUS
10
0.079868
20
-0.034390
30
0.0
11
0.080630
21
-0.033302
31
0.0
0
LINE
8
0
6
CONTINUOUS
10
0.080646
20
-0.033119
30
0.0
11
0.079793
21
-0.034228
31
0.0
0
LINE
8
0
6
CONTINUOUS
10
0.079793
20
-0.034228
30
0.0
11
0.079125
21
-0.035098
31
0.0
0
LINE
8
0
6
CONTINUOUS
10
0.082708
20
-0.031829
30
0.0
11
0.085012
21
-0.031328
31
0.0
0
LINE
8
0
6
CONTINUOUS
10
0.091791
20
-0.031276
30
0.0
11
0.090106
21
-0.031276
31
0.0
0
LINE
8
0
6
CONTINUOUS
10
0.091653
20
-0.033219
30
0.0
11
0.092658
21
-0.033219
31
0.0
0
LINE
8
0
6
CONTINUOUS
10
0.090331
20
-0.033219
30
0.0
11
0.091066
21
-0.033219
31
0.0
0
LINE
8
0
6
CONTINUOUS
10
0.090352
20
-0.031767
30
0.0
11
0.091198
21
-0.031767
31
0.0
0
LINE
8
0
6
CONTINUOUS
10
0.092344
20
-0.033571
30
0.0
11
0.090571
21
-0.033306
31
0.0
0
LINE
8
0
6
CONTINUOUS
10
0.090099
20
-0.033558
30
0.0
11
0.092344
21
-0.033571
31
0.0
0
LINE
8
0
6
CONTINUOUS
10
0.092699
20
-0.031276
30
0.0
11
0.091791
21
-0.031276
31
0.0
0
LINE
8
0
6
CONTINUOUS
10
0.090503
20
-0.031639
30
0.0
11
0.091432
21
-0.031639
31
0.0
0
LINE
8
0
6
CONTINUOUS
10
0.092699
20
-0.031276
30
0.0
11
0.091432
21
-0.031639
31
0.0
0
LINE
8
0
6
CONTINUOUS
10
0.090331
20
-0.033219
30
0.0
11
0.090308
21
-0.032203
31
0.0
0
LINE
8
0
6
CONTINUOUS
10
0.090308
20
-0.032203
30
0.0
11
0.090352
21
-0.031767
31
0.0
0
LINE
8
0
6
CONTINUOUS
10
0.088531
20
-0.031767
30
0.0
11
0.090352
21
-0.031767
31
0.0
0
LINE
8
0
6
CONTINUOUS
10
0.090331
20
-0.033219
30
0.0
11
0.088521
21
-0.033219
31
0.0
0
LINE
8
0
6
CONTINUOUS
10
0.091066
20
-0.033219
30
0.0
11
0.091653
21
-0.033219
31
0.0
0
LINE
8
0
6
CONTINUOUS
10
0.085529
20
-0.033518
30
0.0
11
0.082853
21
-0.034011
31
0.0
0
LINE
8
0
6
CONTINUOUS
10
0.091432
20
-0.031639
30
0.0
11
0.091198
21
-0.031767
31
0.0
0
LINE
8
0
6
CONTINUOUS
10
0.091198
20
-0.031767
30
0.0
11
0.091155
21
-0.032203
31
0.0
0
LINE
8
0
6
CONTINUOUS
10
0.084144
20
-0.031257
30
0.0
11
0.082976
21
-0.031532
31
0.0
0
LINE
8
0
6
CONTINUOUS
10
0.086536
20
-0.030828
30
0.0
11
0.084144
21
-0.031257
31
0.0
0
LINE
8
0
6
CONTINUOUS
10
0.082976
20
-0.031532
30
0.0
11
0.085112
21
-0.031117
31
0.0
0
LINE
8
0
6
CONTINUOUS
10
0.080515
20
-0.035961
30
0.0
11
0.077204
21
-0.051565
31
0.0
0
LINE
8
0
6
CONTINUOUS
10
0.081210
20
-0.036242
30
0.0
11
0.077651
21
-0.053598
31
0.0
0
LINE
8
0
6
CONTINUOUS
10
0.079125
20
-0.035098
30
0.0
11
0.077428
21
-0.042827
31
0.0
0
LINE
8
0
6
CONTINUOUS
10
0.092344
20
-0.033571
30
0.0
11
0.093020
21
-0.033306
31
0.0
0
LINE
8
0
6
CONTINUOUS
10
0.092658
20
-0.033219
30
0.0
11
0.092344
21
-0.033571
31
0.0
0
LINE
8
0
6
CONTINUOUS
10
0.092658
20
-0.033219
30
0.0
11
0.093020
21
-0.033306
31
0.0
0
LINE
8
0
6
CONTINUOUS
10
0.093020
20
-0.033306
30
0.0
11
0.093341
21
-0.033219
31
0.0
0
LINE
8
0
6
CONTINUOUS
10
0.082625
20
-0.035826
30
0.0
11
0.082262
21
-0.036422
31
0.0
0
LINE
8
0
6
CONTINUOUS
10
0.082864
20
-0.036242
30
0.0
11
0.083230
21
-0.035542
31
0.0
0
LINE
8
0
6
CONTINUOUS
10
0.083497
20
-0.034800
30
0.0
11
0.083023
21
-0.035270
31
0.0
0
LINE
8
0
6
CONTINUOUS
10
0.083643
20
-0.034850
30
0.0
11
0.084135
21
-0.034387
31
0.0
0
LINE
8
0
6
CONTINUOUS
10
0.092658
20
-0.033219
30
0.0
11
0.093341
21
-0.033219
31
0.0
0
LINE
8
0
6
CONTINUOUS
10
0.093430
20
-0.031639
30
0.0
11
0.092699
21
-0.031276
31
0.0
0
LINE
8
0
6
CONTINUOUS
10
0.093390
20
-0.033219
30
0.0
11
0.093542
21
-0.032203
31
0.0
0
LINE
8
0
6
CONTINUOUS
10
0.093341
20
-0.033219
30
0.0
11
0.093390
21
-0.033219
31
0.0
0
LINE
8
0
6
CONTINUOUS
10
0.084056
20
-0.034519
30
0.0
11
0.087242
21
-0.033518
31
0.0
0
LINE
8
0
6
CONTINUOUS
10
0.093542
20
-0.032203
30
0.0
11
0.093501
21
-0.031767
31
0.0
0
LINE
8
0
6
CONTINUOUS
10
0.093501
20
-0.031767
30
0.0
11
0.093430
21
-0.031639
31
0.0
0
LINE
8
0
6
CONTINUOUS
10
0.079422
20
-0.051882
30
0.0
11
0.082864
21
-0.036242
31
0.0
0
LINE
8
0
6
CONTINUOUS
10
0.082262
20
-0.036422
30
0.0
11
0.078568
21
-0.053701
31
0.0
0
LINE
8
0
6
CONTINUOUS
10
0.077023
20
-0.047400
30
0.0
11
0.079518
21
-0.035421
31
0.0
0
LINE
8
0
6
CONTINUOUS
10
-0.068692
20
0.043529
30
0.0
11
-0.068950
21
0.043738
31
0.0
0
LINE
8
0
6
CONTINUOUS
10
-0.067165
20
0.042470
30
0.0
11
-0.068692
21
0.043529
31
0.0
0
LINE
8
0
6
CONTINUOUS
10
-0.071680
20
0.044994
30
0.0
11
-0.068950
21
0.043738
31
0.0
0
LINE
8
0
6
CONTINUOUS
10
-0.066307
20
0.041859
30
0.0
11
-0.066892
21
0.042302
31
0.0
0
LINE
8
0
6
CONTINUOUS
10
0.077204
20
-0.051565
30
0.0
11
0.077111
21
-0.048670
31
0.0
0
ENDSEC
0
EOF
