999
Erzeugt mit innoplus bad 
0
SECTION
2
HEADER
9
$ACADVER
1
AC1009
9
$DWGCODEPAGE
3
ISO8859-1
0
ENDSEC
0
SECTION
2
TABLES
0
TABLE
2
LAYER
70
1
0
LAYER
2
0
70
0
62
7
6
CONTINUOUS
0
ENDTAB
0
ENDSEC
0
SECTION
2
ENTITIES
0
LINE
8
0
6
CONTINUOUS
10
-7.918860
20
-51.300030
30
0.0
11
-4.163430
21
-51.300030
31
0.0
0
LINE
8
0
6
CONTINUOUS
10
7.917860
20
-51.300030
30
0.0
11
10.898180
21
-51.300030
31
0.0
0
LINE
8
0
6
CONTINUOUS
10
10.898180
20
-51.300030
30
0.0
11
12.811670
21
-51.300030
31
0.0
0
LINE
8
0
6
CONTINUOUS
10
-4.163430
20
-51.300030
30
0.0
11
-0.000500
21
-51.300030
31
0.0
0
LINE
8
0
6
CONTINUOUS
10
-13.472020
20
-51.300030
30
0.0
11
-12.812680
21
-51.300030
31
0.0
0
LINE
8
0
6
CONTINUOUS
10
-13.472020
20
-50.800000
30
0.0
11
-13.472020
21
-51.300030
31
0.0
0
LINE
8
0
6
CONTINUOUS
10
13.471010
20
-51.300030
30
0.0
11
13.471010
21
-50.800000
31
0.0
0
LINE
8
0
6
CONTINUOUS
10
12.811670
20
-51.300030
30
0.0
11
13.471010
21
-51.300030
31
0.0
0
LINE
8
0
6
CONTINUOUS
10
-0.000500
20
-51.300030
30
0.0
11
4.162430
21
-51.300030
31
0.0
0
LINE
8
0
6
CONTINUOUS
10
-12.812680
20
-51.300030
30
0.0
11
-10.899190
21
-51.300030
31
0.0
0
LINE
8
0
6
CONTINUOUS
10
4.162430
20
-51.300030
30
0.0
11
7.917860
21
-51.300030
31
0.0
0
LINE
8
0
6
CONTINUOUS
10
-10.899190
20
-51.300030
30
0.0
11
-7.918860
21
-51.300030
31
0.0
0
LINE
8
0
6
CONTINUOUS
10
-13.472020
20
44.934520
30
0.0
11
-13.472020
21
-50.800000
31
0.0
0
LINE
8
0
6
CONTINUOUS
10
13.471010
20
-50.800000
30
0.0
11
13.471010
21
44.934520
31
0.0
0
LINE
8
0
6
CONTINUOUS
10
-7.385980
20
-61.300000
30
0.0
11
-3.883280
21
-61.300000
31
0.0
0
LINE
8
0
6
CONTINUOUS
10
7.384970
20
-61.300000
30
0.0
11
10.164720
21
-61.300000
31
0.0
0
LINE
8
0
6
CONTINUOUS
10
10.164720
20
-61.300000
30
0.0
11
11.949440
21
-61.300000
31
0.0
0
LINE
8
0
6
CONTINUOUS
10
-3.883280
20
-61.300000
30
0.0
11
-0.000500
21
-61.300000
31
0.0
0
LINE
8
0
6
CONTINUOUS
10
-12.565420
20
-61.300000
30
0.0
11
-11.950450
21
-61.300000
31
0.0
0
LINE
8
0
6
CONTINUOUS
10
-12.565420
20
-60.675040
30
0.0
11
-12.565420
21
-61.300000
31
0.0
0
LINE
8
0
6
CONTINUOUS
10
12.564400
20
-61.300000
30
0.0
11
12.564400
21
-60.675040
31
0.0
0
LINE
8
0
6
CONTINUOUS
10
11.949440
20
-61.300000
30
0.0
11
12.564400
21
-61.300000
31
0.0
0
LINE
8
0
6
CONTINUOUS
10
-0.000500
20
-61.300000
30
0.0
11
3.882270
21
-61.300000
31
0.0
0
LINE
8
0
6
CONTINUOUS
10
-11.950450
20
-61.300000
30
0.0
11
-10.165740
21
-61.300000
31
0.0
0
LINE
8
0
6
CONTINUOUS
10
3.882270
20
-61.300000
30
0.0
11
7.384970
21
-61.300000
31
0.0
0
LINE
8
0
6
CONTINUOUS
10
-10.165740
20
-61.300000
30
0.0
11
-7.385980
21
-61.300000
31
0.0
0
LINE
8
0
6
CONTINUOUS
10
-12.565420
20
-51.681810
30
0.0
11
-12.565420
21
-60.675040
31
0.0
0
LINE
8
0
6
CONTINUOUS
10
12.564400
20
-60.675040
30
0.0
11
12.564410
21
-51.681810
31
0.0
0
LINE
8
0
6
CONTINUOUS
10
-12.565420
20
-51.300030
30
0.0
11
-12.565420
21
-51.681810
31
0.0
0
LINE
8
0
6
CONTINUOUS
10
12.564410
20
-51.681810
30
0.0
11
12.564410
21
-51.300030
31
0.0
0
LINE
8
0
6
CONTINUOUS
10
-38.490510
20
44.934520
30
0.0
11
-37.525480
21
44.934520
31
0.0
0
LINE
8
0
6
CONTINUOUS
10
-39.557880
20
45.373860
30
0.0
11
-38.490510
21
44.934520
31
0.0
0
LINE
8
0
6
CONTINUOUS
10
-40.000000
20
46.981080
30
0.0
11
-40.000000
21
46.434520
31
0.0
0
LINE
8
0
6
CONTINUOUS
10
-40.000000
20
46.434520
30
0.0
11
-39.557880
21
45.373860
31
0.0
0
LINE
8
0
6
CONTINUOUS
10
-37.525480
20
44.934520
30
0.0
11
-34.678760
21
44.934520
31
0.0
0
LINE
8
0
6
CONTINUOUS
10
-34.678760
20
44.934520
30
0.0
11
-30.093110
21
44.934520
31
0.0
0
LINE
8
0
6
CONTINUOUS
10
-30.093110
20
44.934520
30
0.0
11
-23.998460
21
44.934520
31
0.0
0
LINE
8
0
6
CONTINUOUS
10
-23.998460
20
44.934520
30
0.0
11
-16.700420
21
44.934520
31
0.0
0
LINE
8
0
6
CONTINUOUS
10
-16.700420
20
44.934520
30
0.0
11
-8.564960
21
44.934520
31
0.0
0
LINE
8
0
6
CONTINUOUS
10
-8.564960
20
44.934520
30
0.0
11
-0.000010
21
44.934520
31
0.0
0
LINE
8
0
6
CONTINUOUS
10
-0.000010
20
44.934520
30
0.0
11
8.564940
21
44.934520
31
0.0
0
LINE
8
0
6
CONTINUOUS
10
8.564940
20
44.934520
30
0.0
11
16.700400
21
44.934520
31
0.0
0
LINE
8
0
6
CONTINUOUS
10
16.700400
20
44.934520
30
0.0
11
23.998440
21
44.934520
31
0.0
0
LINE
8
0
6
CONTINUOUS
10
23.998440
20
44.934520
30
0.0
11
30.093090
21
44.934520
31
0.0
0
LINE
8
0
6
CONTINUOUS
10
30.093090
20
44.934520
30
0.0
11
34.678750
21
44.934520
31
0.0
0
LINE
8
0
6
CONTINUOUS
10
34.678750
20
44.934520
30
0.0
11
37.525480
21
44.934520
31
0.0
0
LINE
8
0
6
CONTINUOUS
10
38.490510
20
44.934520
30
0.0
11
39.557880
21
45.373860
31
0.0
0
LINE
8
0
6
CONTINUOUS
10
37.525480
20
44.934520
30
0.0
11
38.490510
21
44.934520
31
0.0
0
LINE
8
0
6
CONTINUOUS
10
40.000000
20
46.434520
30
0.0
11
40.000000
21
46.981080
31
0.0
0
LINE
8
0
6
CONTINUOUS
10
39.557880
20
45.373860
30
0.0
11
40.000000
21
46.434520
31
0.0
0
LINE
8
0
6
CONTINUOUS
10
-40.000000
20
61.300000
30
0.0
11
-40.000000
21
60.800000
31
0.0
0
LINE
8
0
6
CONTINUOUS
10
-38.997130
20
61.300000
30
0.0
11
-40.000000
21
61.300000
31
0.0
0
LINE
8
0
6
CONTINUOUS
10
-36.038770
20
61.300000
30
0.0
11
-38.997130
21
61.300000
31
0.0
0
LINE
8
0
6
CONTINUOUS
10
-31.273280
20
61.300000
30
0.0
11
-36.038770
21
61.300000
31
0.0
0
LINE
8
0
6
CONTINUOUS
10
-24.939610
20
61.300000
30
0.0
11
-31.273280
21
61.300000
31
0.0
0
LINE
8
0
6
CONTINUOUS
10
-17.355370
20
61.300000
30
0.0
11
-24.939610
21
61.300000
31
0.0
0
LINE
8
0
6
CONTINUOUS
10
-8.900850
20
61.300000
30
0.0
11
-17.355370
21
61.300000
31
0.0
0
LINE
8
0
6
CONTINUOUS
10
-0.000010
20
61.300000
30
0.0
11
-8.900850
21
61.300000
31
0.0
0
LINE
8
0
6
CONTINUOUS
10
8.900830
20
61.300000
30
0.0
11
-0.000010
21
61.300000
31
0.0
0
LINE
8
0
6
CONTINUOUS
10
17.355340
20
61.300000
30
0.0
11
8.900830
21
61.300000
31
0.0
0
LINE
8
0
6
CONTINUOUS
10
24.939590
20
61.300000
30
0.0
11
17.355340
21
61.300000
31
0.0
0
LINE
8
0
6
CONTINUOUS
10
31.273260
20
61.300000
30
0.0
11
24.939590
21
61.300000
31
0.0
0
LINE
8
0
6
CONTINUOUS
10
36.038750
20
61.300000
30
0.0
11
31.273260
21
61.300000
31
0.0
0
LINE
8
0
6
CONTINUOUS
10
38.997120
20
61.300000
30
0.0
11
36.038750
21
61.300000
31
0.0
0
LINE
8
0
6
CONTINUOUS
10
40.000000
20
61.300000
30
0.0
11
38.997120
21
61.300000
31
0.0
0
LINE
8
0
6
CONTINUOUS
10
40.000000
20
60.800000
30
0.0
11
40.000000
21
61.300000
31
0.0
0
LINE
8
0
6
CONTINUOUS
10
-40.000000
20
60.800000
30
0.0
11
-40.000000
21
46.981080
31
0.0
0
LINE
8
0
6
CONTINUOUS
10
40.000000
20
46.981080
30
0.0
11
40.000000
21
60.800000
31
0.0
0
ENDSEC
0
EOF
