999
Erzeugt mit innoplus bad 
0
SECTION
2
HEADER
9
$ACADVER
1
AC1009
9
$DWGCODEPAGE
3
ISO8859-1
0
ENDSEC
0
SECTION
2
TABLES
0
TABLE
2
LAYER
70
1
0
LAYER
2
0
70
0
62
7
6
CONTINUOUS
0
ENDTAB
0
ENDSEC
0
SECTION
2
ENTITIES
0
LINE
8
0
6
CONTINUOUS
10
-0.067005
20
0.101582
30
0.0
11
-0.067578
21
0.100456
31
0.0
0
LINE
8
0
6
CONTINUOUS
10
0.028104
20
0.045940
30
0.0
11
0.025914
21
0.049012
31
0.0
0
LINE
8
0
6
CONTINUOUS
10
-0.047850
20
0.106719
30
0.0
11
-0.051822
21
0.109981
31
0.0
0
LINE
8
0
6
CONTINUOUS
10
-0.056298
20
0.113761
30
0.0
11
-0.056830
21
0.114000
31
0.0
0
LINE
8
0
6
CONTINUOUS
10
-0.042906
20
0.102598
30
0.0
11
-0.047850
21
0.106719
31
0.0
0
LINE
8
0
6
CONTINUOUS
10
0.061445
20
-0.066277
30
0.0
11
0.068565
21
-0.080388
31
0.0
0
LINE
8
0
6
CONTINUOUS
10
0.090121
20
-0.070125
30
0.0
11
0.082833
21
-0.055959
31
0.0
0
LINE
8
0
6
CONTINUOUS
10
0.082833
20
-0.055959
30
0.0
11
0.066669
21
-0.025049
31
0.0
0
LINE
8
0
6
CONTINUOUS
10
0.047864
20
-0.034163
30
0.0
11
0.064355
21
-0.064880
31
0.0
0
LINE
8
0
6
CONTINUOUS
10
0.032794
20
-0.011426
30
0.0
11
0.045591
21
-0.035236
31
0.0
0
LINE
8
0
6
CONTINUOUS
10
0.077312
20
-0.058430
30
0.0
11
0.062484
21
-0.027123
31
0.0
0
LINE
8
0
6
CONTINUOUS
10
0.024314
20
0.006706
30
0.0
11
0.032794
21
-0.011426
31
0.0
0
LINE
8
0
6
CONTINUOUS
10
0.066669
20
-0.025049
30
0.0
11
0.054285
21
-0.001305
31
0.0
0
LINE
8
0
6
CONTINUOUS
10
0.062484
20
-0.027123
30
0.0
11
0.050694
21
-0.003045
31
0.0
0
LINE
8
0
6
CONTINUOUS
10
0.034754
20
-0.010558
30
0.0
11
0.047864
21
-0.034163
31
0.0
0
LINE
8
0
6
CONTINUOUS
10
0.050274
20
-0.033038
30
0.0
11
0.037292
21
-0.009392
31
0.0
0
LINE
8
0
6
CONTINUOUS
10
0.054285
20
-0.001305
30
0.0
11
0.044060
21
0.018238
31
0.0
0
LINE
8
0
6
CONTINUOUS
10
0.050694
20
-0.003045
30
0.0
11
0.041448
21
0.016028
31
0.0
0
LINE
8
0
6
CONTINUOUS
10
0.025082
20
0.009261
30
0.0
11
0.034754
21
-0.010558
31
0.0
0
LINE
8
0
6
CONTINUOUS
10
0.037292
20
-0.009392
30
0.0
11
0.027239
21
0.010191
31
0.0
0
LINE
8
0
6
CONTINUOUS
10
0.044060
20
0.018238
30
0.0
11
0.038629
21
0.028389
31
0.0
0
LINE
8
0
6
CONTINUOUS
10
0.034869
20
0.029374
30
0.0
11
0.041448
21
0.016028
31
0.0
0
LINE
8
0
6
CONTINUOUS
10
0.038629
20
0.028389
30
0.0
11
0.034733
21
0.035360
31
0.0
0
LINE
8
0
6
CONTINUOUS
10
0.030687
20
0.037744
30
0.0
11
0.026231
21
0.044188
31
0.0
0
LINE
8
0
6
CONTINUOUS
10
0.030166
20
0.037693
30
0.0
11
0.025271
21
0.044301
31
0.0
0
LINE
8
0
6
CONTINUOUS
10
0.034733
20
0.035360
30
0.0
11
0.032401
21
0.039314
31
0.0
0
LINE
8
0
6
CONTINUOUS
10
0.030125
20
0.042877
30
0.0
11
0.028104
21
0.045940
31
0.0
0
LINE
8
0
6
CONTINUOUS
10
0.021596
20
0.048315
30
0.0
11
0.017620
21
0.051697
31
0.0
0
LINE
8
0
6
CONTINUOUS
10
-0.036948
20
0.097614
30
0.0
11
-0.042824
21
0.102334
31
0.0
0
LINE
8
0
6
CONTINUOUS
10
0.004425
20
0.063912
30
0.0
11
-0.002855
21
0.069566
31
0.0
0
LINE
8
0
6
CONTINUOUS
10
-0.056830
20
0.114000
30
0.0
11
-0.058465
21
0.113665
31
0.0
0
LINE
8
0
6
CONTINUOUS
10
-0.056412
20
0.113632
30
0.0
11
-0.056830
21
0.114000
31
0.0
0
LINE
8
0
6
CONTINUOUS
10
-0.058465
20
0.113665
30
0.0
11
-0.058956
21
0.112989
31
0.0
0
LINE
8
0
6
CONTINUOUS
10
-0.057789
20
0.113042
30
0.0
11
-0.058465
21
0.113665
31
0.0
0
LINE
8
0
6
CONTINUOUS
10
-0.064299
20
0.105632
30
0.0
11
-0.066909
21
0.101726
31
0.0
0
LINE
8
0
6
CONTINUOUS
10
-0.054751
20
0.112231
30
0.0
11
-0.056412
21
0.113632
31
0.0
0
LINE
8
0
6
CONTINUOUS
10
-0.055736
20
0.111438
30
0.0
11
-0.057789
21
0.113042
31
0.0
0
LINE
8
0
6
CONTINUOUS
10
-0.052285
20
0.110213
30
0.0
11
-0.054751
21
0.112231
31
0.0
0
LINE
8
0
6
CONTINUOUS
10
-0.042824
20
0.102334
30
0.0
11
-0.048059
21
0.106732
31
0.0
0
LINE
8
0
6
CONTINUOUS
10
-0.043783
20
0.101320
30
0.0
11
-0.049021
21
0.105714
31
0.0
0
LINE
8
0
6
CONTINUOUS
10
-0.048059
20
0.106732
30
0.0
11
-0.052285
21
0.110213
31
0.0
0
LINE
8
0
6
CONTINUOUS
10
-0.049021
20
0.105714
30
0.0
11
-0.052938
21
0.108996
31
0.0
0
LINE
8
0
6
CONTINUOUS
10
0.020455
20
0.022071
30
0.0
11
0.015382
21
0.029068
31
0.0
0
LINE
8
0
6
CONTINUOUS
10
0.015382
20
0.029068
30
0.0
11
0.012020
21
0.033444
31
0.0
0
LINE
8
0
6
CONTINUOUS
10
0.015481
20
0.054859
30
0.0
11
0.012464
21
0.057284
31
0.0
0
LINE
8
0
6
CONTINUOUS
10
0.032401
20
0.039314
30
0.0
11
0.030125
21
0.042877
31
0.0
0
LINE
8
0
6
CONTINUOUS
10
0.026231
20
0.044188
30
0.0
11
0.023110
21
0.048319
31
0.0
0
LINE
8
0
6
CONTINUOUS
10
0.020464
20
0.050983
30
0.0
11
0.023110
21
0.048319
31
0.0
0
LINE
8
0
6
CONTINUOUS
10
0.025271
20
0.044301
30
0.0
11
0.022163
21
0.048721
31
0.0
0
LINE
8
0
6
CONTINUOUS
10
0.017774
20
0.053017
30
0.0
11
0.022163
21
0.048721
31
0.0
0
LINE
8
0
6
CONTINUOUS
10
0.009400
20
0.036805
30
0.0
11
0.006352
21
0.040606
31
0.0
0
LINE
8
0
6
CONTINUOUS
10
0.030166
20
0.037693
30
0.0
11
0.034869
21
0.029374
31
0.0
0
LINE
8
0
6
CONTINUOUS
10
0.045591
20
-0.035236
30
0.0
11
0.061445
21
-0.066277
31
0.0
0
LINE
8
0
6
CONTINUOUS
10
0.020455
20
0.022071
30
0.0
11
0.027239
21
0.010191
31
0.0
0
LINE
8
0
6
CONTINUOUS
10
0.025914
20
0.049012
30
0.0
11
0.023209
21
0.052594
31
0.0
0
LINE
8
0
6
CONTINUOUS
10
0.023209
20
0.052594
30
0.0
11
0.020377
21
0.056209
31
0.0
0
LINE
8
0
6
CONTINUOUS
10
0.013342
20
0.064052
30
0.0
11
0.010959
21
0.066538
31
0.0
0
LINE
8
0
6
CONTINUOUS
10
0.018050
20
0.058887
30
0.0
11
0.015724
21
0.061565
31
0.0
0
LINE
8
0
6
CONTINUOUS
10
0.010959
20
0.066538
30
0.0
11
-0.002732
21
0.079138
31
0.0
0
LINE
8
0
6
CONTINUOUS
10
-0.010548
20
0.085307
30
0.0
11
-0.018363
21
0.091476
31
0.0
0
LINE
8
0
6
CONTINUOUS
10
-0.026851
20
0.097083
30
0.0
11
-0.035339
21
0.102689
31
0.0
0
LINE
8
0
6
CONTINUOUS
10
-0.041869
20
0.106320
30
0.0
11
-0.048399
21
0.109952
31
0.0
0
LINE
8
0
6
CONTINUOUS
10
0.000556
20
0.044173
30
0.0
11
-0.002974
21
0.047061
31
0.0
0
LINE
8
0
6
CONTINUOUS
10
-0.048399
20
0.109952
30
0.0
11
-0.056298
21
0.113761
31
0.0
0
LINE
8
0
6
CONTINUOUS
10
-0.064986
20
0.098327
30
0.0
11
-0.066960
21
0.099958
31
0.0
0
LINE
8
0
6
CONTINUOUS
10
0.008482
20
0.036712
30
0.0
11
0.004992
21
0.040142
31
0.0
0
LINE
8
0
6
CONTINUOUS
10
-0.007506
20
0.050759
30
0.0
11
-0.014334
21
0.056520
31
0.0
0
LINE
8
0
6
CONTINUOUS
10
-0.001924
20
0.038916
30
0.0
11
0.000704
21
0.037374
31
0.0
0
LINE
8
0
6
CONTINUOUS
10
0.012020
20
0.033444
30
0.0
11
0.008482
21
0.036712
31
0.0
0
LINE
8
0
6
CONTINUOUS
10
-0.037775
20
0.096453
30
0.0
11
-0.043783
21
0.101320
31
0.0
0
LINE
8
0
6
CONTINUOUS
10
-0.058956
20
0.112989
30
0.0
11
-0.064299
21
0.105632
31
0.0
0
LINE
8
0
6
CONTINUOUS
10
-0.066909
20
0.101726
30
0.0
11
-0.067005
21
0.101582
31
0.0
0
LINE
8
0
6
CONTINUOUS
10
0.069051
20
-0.080664
30
0.0
11
0.069409
21
-0.080493
31
0.0
0
LINE
8
0
6
CONTINUOUS
10
0.068628
20
-0.080517
30
0.0
11
0.069051
21
-0.080664
31
0.0
0
LINE
8
0
6
CONTINUOUS
10
0.076886
20
-0.076933
30
0.0
11
0.078386
21
-0.076219
31
0.0
0
LINE
8
0
6
CONTINUOUS
10
0.079934
20
-0.075482
30
0.0
11
0.083826
21
-0.073629
31
0.0
0
LINE
8
0
6
CONTINUOUS
10
0.084364
20
-0.073373
30
0.0
11
0.084678
21
-0.073223
31
0.0
0
LINE
8
0
6
CONTINUOUS
10
0.084728
20
-0.072852
30
0.0
11
0.084336
21
-0.073038
31
0.0
0
LINE
8
0
6
CONTINUOUS
10
0.083826
20
-0.073629
30
0.0
11
0.084364
21
-0.073373
31
0.0
0
LINE
8
0
6
CONTINUOUS
10
0.084678
20
-0.073223
30
0.0
11
0.086951
21
-0.072141
31
0.0
0
LINE
8
0
6
CONTINUOUS
10
0.088745
20
-0.070939
30
0.0
11
0.087032
21
-0.071755
31
0.0
0
LINE
8
0
6
CONTINUOUS
10
0.090043
20
-0.070669
30
0.0
11
0.090186
21
-0.070253
31
0.0
0
LINE
8
0
6
CONTINUOUS
10
0.089683
20
-0.070840
30
0.0
11
0.090043
21
-0.070669
31
0.0
0
LINE
8
0
6
CONTINUOUS
10
0.078386
20
-0.076219
30
0.0
11
0.079934
21
-0.075482
31
0.0
0
LINE
8
0
6
CONTINUOUS
10
0.084336
20
-0.073038
30
0.0
11
0.084275
21
-0.072907
31
0.0
0
LINE
8
0
6
CONTINUOUS
10
0.083700
20
-0.073341
30
0.0
11
0.084336
21
-0.073038
31
0.0
0
LINE
8
0
6
CONTINUOUS
10
0.076654
20
-0.076696
30
0.0
11
0.078176
21
-0.075971
31
0.0
0
LINE
8
0
6
CONTINUOUS
10
0.070069
20
-0.079831
30
0.0
11
0.071781
21
-0.079016
31
0.0
0
LINE
8
0
6
CONTINUOUS
10
0.088745
20
-0.070939
30
0.0
11
0.089820
21
-0.070427
31
0.0
0
LINE
8
0
6
CONTINUOUS
10
0.075333
20
-0.077325
30
0.0
11
0.076654
21
-0.076696
31
0.0
0
LINE
8
0
6
CONTINUOUS
10
0.068628
20
-0.080517
30
0.0
11
0.068994
21
-0.080343
31
0.0
0
LINE
8
0
6
CONTINUOUS
10
0.068565
20
-0.080388
30
0.0
11
0.068628
21
-0.080517
31
0.0
0
LINE
8
0
6
CONTINUOUS
10
0.089820
20
-0.070427
30
0.0
11
0.090186
21
-0.070253
31
0.0
0
LINE
8
0
6
CONTINUOUS
10
0.090186
20
-0.070253
30
0.0
11
0.090121
21
-0.070125
31
0.0
0
LINE
8
0
6
CONTINUOUS
10
0.078176
20
-0.075971
30
0.0
11
0.079756
21
-0.075219
31
0.0
0
LINE
8
0
6
CONTINUOUS
10
0.071781
20
-0.079016
30
0.0
11
0.074014
21
-0.077953
31
0.0
0
LINE
8
0
6
CONTINUOUS
10
0.074014
20
-0.077953
30
0.0
11
0.075333
21
-0.077325
31
0.0
0
LINE
8
0
6
CONTINUOUS
10
0.084728
20
-0.072852
30
0.0
11
0.087032
21
-0.071755
31
0.0
0
LINE
8
0
6
CONTINUOUS
10
0.079756
20
-0.075219
30
0.0
11
0.083700
21
-0.073341
31
0.0
0
LINE
8
0
6
CONTINUOUS
10
0.068994
20
-0.080343
30
0.0
11
0.070069
21
-0.079831
31
0.0
0
LINE
8
0
6
CONTINUOUS
10
0.084275
20
-0.072907
30
0.0
11
0.077312
21
-0.058430
31
0.0
0
LINE
8
0
6
CONTINUOUS
10
0.070458
20
-0.079994
30
0.0
11
0.069409
21
-0.080493
31
0.0
0
LINE
8
0
6
CONTINUOUS
10
0.072126
20
-0.079200
30
0.0
11
0.070458
21
-0.079994
31
0.0
0
LINE
8
0
6
CONTINUOUS
10
0.074301
20
-0.078164
30
0.0
11
0.072126
21
-0.079200
31
0.0
0
LINE
8
0
6
CONTINUOUS
10
0.075585
20
-0.077553
30
0.0
11
0.074301
21
-0.078164
31
0.0
0
LINE
8
0
6
CONTINUOUS
10
0.088627
20
-0.071343
30
0.0
11
0.086951
21
-0.072141
31
0.0
0
LINE
8
0
6
CONTINUOUS
10
0.089683
20
-0.070840
30
0.0
11
0.088627
21
-0.071343
31
0.0
0
LINE
8
0
6
CONTINUOUS
10
0.076886
20
-0.076933
30
0.0
11
0.075585
21
-0.077553
31
0.0
0
LINE
8
0
6
CONTINUOUS
10
0.023269
20
0.012277
30
0.0
11
0.023377
21
0.010140
31
0.0
0
LINE
8
0
6
CONTINUOUS
10
0.023377
20
0.010140
30
0.0
11
0.023223
21
0.009168
31
0.0
0
LINE
8
0
6
CONTINUOUS
10
0.023221
20
0.008887
30
0.0
11
0.024314
21
0.006706
31
0.0
0
LINE
8
0
6
CONTINUOUS
10
0.023223
20
0.009168
30
0.0
11
0.023221
21
0.008887
31
0.0
0
LINE
8
0
6
CONTINUOUS
10
0.019182
20
0.020894
30
0.0
11
0.023269
21
0.012277
31
0.0
0
LINE
8
0
6
CONTINUOUS
10
0.019235
20
0.020973
30
0.0
11
0.013615
21
0.028877
31
0.0
0
LINE
8
0
6
CONTINUOUS
10
0.013615
20
0.028769
30
0.0
11
0.019182
21
0.020894
31
0.0
0
LINE
8
0
6
CONTINUOUS
10
0.006153
20
0.033761
30
0.0
11
0.007066
21
0.033587
31
0.0
0
LINE
8
0
6
CONTINUOUS
10
0.010764
20
0.033684
30
0.0
11
0.011019
21
0.033765
31
0.0
0
LINE
8
0
6
CONTINUOUS
10
-0.058786
20
0.092972
30
0.0
11
-0.062341
21
0.095883
31
0.0
0
LINE
8
0
6
CONTINUOUS
10
-0.062351
20
0.095891
30
0.0
11
-0.064986
21
0.098327
31
0.0
0
LINE
8
0
6
CONTINUOUS
10
-0.067578
20
0.100456
30
0.0
11
-0.067195
21
0.099849
31
0.0
0
LINE
8
0
6
CONTINUOUS
10
-0.066960
20
0.099958
30
0.0
11
-0.067578
21
0.100456
31
0.0
0
LINE
8
0
6
CONTINUOUS
10
-0.029266
20
0.068683
30
0.0
11
-0.035910
21
0.074069
31
0.0
0
LINE
8
0
6
CONTINUOUS
10
-0.053822
20
0.088889
30
0.0
11
-0.058786
21
0.092972
31
0.0
0
LINE
8
0
6
CONTINUOUS
10
0.010764
20
0.033684
30
0.0
11
0.008204
21
0.036648
31
0.0
0
LINE
8
0
6
CONTINUOUS
10
0.010512
20
0.033697
30
0.0
11
0.010764
21
0.033684
31
0.0
0
LINE
8
0
6
CONTINUOUS
10
-0.048028
20
0.084043
30
0.0
11
-0.053822
21
0.088889
31
0.0
0
LINE
8
0
6
CONTINUOUS
10
-0.014334
20
0.056520
30
0.0
11
-0.022027
21
0.062785
31
0.0
0
LINE
8
0
6
CONTINUOUS
10
-0.054191
20
0.082599
30
0.0
11
-0.052289
21
0.080326
31
0.0
0
LINE
8
0
6
CONTINUOUS
10
-0.067195
20
0.099849
30
0.0
11
-0.063477
21
0.094491
31
0.0
0
LINE
8
0
6
CONTINUOUS
10
-0.041267
20
0.068623
30
0.0
11
-0.040060
21
0.067403
31
0.0
0
LINE
8
0
6
CONTINUOUS
10
-0.021681
20
0.052036
30
0.0
11
-0.019862
21
0.050787
31
0.0
0
LINE
8
0
6
CONTINUOUS
10
-0.017181
20
0.048948
30
0.0
11
-0.014430
21
0.047061
31
0.0
0
LINE
8
0
6
CONTINUOUS
10
0.000704
20
0.037374
30
0.0
11
0.001570
21
0.036847
31
0.0
0
LINE
8
0
6
CONTINUOUS
10
0.005539
20
0.034172
30
0.0
11
0.006071
21
0.033790
31
0.0
0
LINE
8
0
6
CONTINUOUS
10
0.006071
20
0.033790
30
0.0
11
0.006153
21
0.033761
31
0.0
0
LINE
8
0
6
CONTINUOUS
10
0.007066
20
0.033587
30
0.0
11
0.011194
21
0.032127
31
0.0
0
LINE
8
0
6
CONTINUOUS
10
0.011194
20
0.032127
30
0.0
11
0.013615
21
0.028769
31
0.0
0
LINE
8
0
6
CONTINUOUS
10
0.008946
20
0.060194
30
0.0
11
0.012464
21
0.057284
31
0.0
0
LINE
8
0
6
CONTINUOUS
10
0.008946
20
0.060194
30
0.0
11
0.004425
21
0.063912
31
0.0
0
LINE
8
0
6
CONTINUOUS
10
0.015724
20
0.061565
30
0.0
11
0.013342
21
0.064052
31
0.0
0
LINE
8
0
6
CONTINUOUS
10
-0.002974
20
0.047061
30
0.0
11
-0.007506
21
0.050759
31
0.0
0
LINE
8
0
6
CONTINUOUS
10
0.003136
20
0.041865
30
0.0
11
0.004992
21
0.040142
31
0.0
0
LINE
8
0
6
CONTINUOUS
10
0.017774
20
0.053017
30
0.0
11
0.015481
21
0.054859
31
0.0
0
LINE
8
0
6
CONTINUOUS
10
0.020377
20
0.056209
30
0.0
11
0.018050
21
0.058887
31
0.0
0
LINE
8
0
6
CONTINUOUS
10
0.003136
20
0.041865
30
0.0
11
0.000556
21
0.044173
31
0.0
0
LINE
8
0
6
CONTINUOUS
10
0.017620
20
0.051697
30
0.0
11
0.015382
21
0.053543
31
0.0
0
LINE
8
0
6
CONTINUOUS
10
-0.005442
20
0.041097
30
0.0
11
-0.004706
21
0.040632
31
0.0
0
LINE
8
0
6
CONTINUOUS
10
-0.010585
20
0.075968
30
0.0
11
-0.017861
21
0.082003
31
0.0
0
LINE
8
0
6
CONTINUOUS
10
-0.002732
20
0.079138
30
0.0
11
-0.010548
21
0.085307
31
0.0
0
LINE
8
0
6
CONTINUOUS
10
-0.010585
20
0.075968
30
0.0
11
-0.002855
21
0.069566
31
0.0
0
LINE
8
0
6
CONTINUOUS
10
-0.022027
20
0.062785
30
0.0
11
-0.029266
21
0.068683
31
0.0
0
LINE
8
0
6
CONTINUOUS
10
-0.031071
20
0.092895
30
0.0
11
-0.036948
21
0.097614
31
0.0
0
LINE
8
0
6
CONTINUOUS
10
-0.035339
20
0.102689
30
0.0
11
-0.041869
21
0.106320
31
0.0
0
LINE
8
0
6
CONTINUOUS
10
-0.031766
20
0.091585
30
0.0
11
-0.037775
21
0.096453
31
0.0
0
LINE
8
0
6
CONTINUOUS
10
-0.042234
20
0.079196
30
0.0
11
-0.048028
21
0.084043
31
0.0
0
LINE
8
0
6
CONTINUOUS
10
-0.060206
20
0.089785
30
0.0
11
-0.058208
21
0.087398
31
0.0
0
LINE
8
0
6
CONTINUOUS
10
-0.056288
20
0.085104
30
0.0
11
-0.056098
21
0.084878
31
0.0
0
LINE
8
0
6
CONTINUOUS
10
-0.024627
20
0.087578
30
0.0
11
-0.031071
21
0.092895
31
0.0
0
LINE
8
0
6
CONTINUOUS
10
-0.025153
20
0.086292
30
0.0
11
-0.031766
21
0.091585
31
0.0
0
LINE
8
0
6
CONTINUOUS
10
-0.018363
20
0.091476
30
0.0
11
-0.026851
21
0.097083
31
0.0
0
LINE
8
0
6
CONTINUOUS
10
-0.024627
20
0.087578
30
0.0
11
-0.017861
21
0.082003
31
0.0
0
LINE
8
0
6
CONTINUOUS
10
-0.035910
20
0.074069
30
0.0
11
-0.042234
21
0.079196
31
0.0
0
LINE
8
0
6
CONTINUOUS
10
-0.044247
20
0.071636
30
0.0
11
-0.043512
21
0.070893
31
0.0
0
LINE
8
0
6
CONTINUOUS
10
0.011185
20
0.031917
30
0.0
11
0.013614
21
0.028577
31
0.0
0
LINE
8
0
6
CONTINUOUS
10
0.023024
20
0.012493
30
0.0
11
0.023112
21
0.010663
31
0.0
0
LINE
8
0
6
CONTINUOUS
10
0.023112
20
0.010663
30
0.0
11
0.023004
21
0.009603
31
0.0
0
LINE
8
0
6
CONTINUOUS
10
0.023004
20
0.009603
30
0.0
11
0.023008
21
0.009312
31
0.0
0
LINE
8
0
6
CONTINUOUS
10
0.019097
20
0.020769
30
0.0
11
0.023024
21
0.012493
31
0.0
0
LINE
8
0
6
CONTINUOUS
10
0.013614
20
0.028577
30
0.0
11
0.019097
21
0.020769
31
0.0
0
LINE
8
0
6
CONTINUOUS
10
0.006485
20
0.033423
30
0.0
11
0.007401
21
0.033250
31
0.0
0
LINE
8
0
6
CONTINUOUS
10
0.006400
20
0.033448
30
0.0
11
0.006485
21
0.033423
31
0.0
0
LINE
8
0
6
CONTINUOUS
10
0.007401
20
0.033250
30
0.0
11
0.011185
21
0.031917
31
0.0
0
LINE
8
0
6
CONTINUOUS
10
-0.055170
20
0.082990
30
0.0
11
-0.055200
21
0.081151
31
0.0
0
LINE
8
0
6
CONTINUOUS
10
-0.055200
20
0.081151
30
0.0
11
-0.054979
21
0.080967
31
0.0
0
LINE
8
0
6
CONTINUOUS
10
-0.054979
20
0.080967
30
0.0
11
-0.054334
21
0.080432
31
0.0
0
LINE
8
0
6
CONTINUOUS
10
-0.053194
20
0.081351
30
0.0
11
-0.054272
21
0.082245
31
0.0
0
LINE
8
0
6
CONTINUOUS
10
-0.054334
20
0.080432
30
0.0
11
-0.053294
21
0.079570
31
0.0
0
LINE
8
0
6
CONTINUOUS
10
-0.051737
20
0.080143
30
0.0
11
-0.053194
21
0.081351
31
0.0
0
LINE
8
0
6
CONTINUOUS
10
-0.053294
20
0.079570
30
0.0
11
-0.051889
21
0.078404
31
0.0
0
LINE
8
0
6
CONTINUOUS
10
-0.050075
20
0.078765
30
0.0
11
-0.051737
21
0.080143
31
0.0
0
LINE
8
0
6
CONTINUOUS
10
-0.051889
20
0.078404
30
0.0
11
-0.050146
21
0.076959
31
0.0
0
LINE
8
0
6
CONTINUOUS
10
-0.050146
20
0.076959
30
0.0
11
-0.048096
21
0.075259
31
0.0
0
LINE
8
0
6
CONTINUOUS
10
-0.045392
20
0.074881
30
0.0
11
-0.047631
21
0.076738
31
0.0
0
LINE
8
0
6
CONTINUOUS
10
-0.048096
20
0.075259
30
0.0
11
-0.045767
21
0.073328
31
0.0
0
LINE
8
0
6
CONTINUOUS
10
-0.042718
20
0.072664
30
0.0
11
-0.045377
21
0.074869
31
0.0
0
LINE
8
0
6
CONTINUOUS
10
-0.045767
20
0.073328
30
0.0
11
-0.043188
21
0.071189
31
0.0
0
LINE
8
0
6
CONTINUOUS
10
-0.040107
20
0.070499
30
0.0
11
-0.042718
21
0.072664
31
0.0
0
LINE
8
0
6
CONTINUOUS
10
-0.043188
20
0.071189
30
0.0
11
-0.040388
21
0.068866
31
0.0
0
LINE
8
0
6
CONTINUOUS
10
-0.036713
20
0.067683
30
0.0
11
-0.037577
21
0.068401
31
0.0
0
LINE
8
0
6
CONTINUOUS
10
-0.040388
20
0.068866
30
0.0
11
-0.037395
21
0.066385
31
0.0
0
LINE
8
0
6
CONTINUOUS
10
-0.033441
20
0.064970
30
0.0
11
-0.036713
21
0.067683
31
0.0
0
LINE
8
0
6
CONTINUOUS
10
-0.037395
20
0.066385
30
0.0
11
-0.034240
21
0.063768
31
0.0
0
LINE
8
0
6
CONTINUOUS
10
-0.030032
20
0.062143
30
0.0
11
-0.033441
21
0.064970
31
0.0
0
LINE
8
0
6
CONTINUOUS
10
-0.034240
20
0.063768
30
0.0
11
-0.030950
21
0.061040
31
0.0
0
LINE
8
0
6
CONTINUOUS
10
-0.028197
20
0.060621
30
0.0
11
-0.030032
21
0.062143
31
0.0
0
LINE
8
0
6
CONTINUOUS
10
-0.030950
20
0.061040
30
0.0
11
-0.027660
21
0.058312
31
0.0
0
LINE
8
0
6
CONTINUOUS
10
-0.023352
20
0.056603
30
0.0
11
-0.025703
21
0.058553
31
0.0
0
LINE
8
0
6
CONTINUOUS
10
-0.027660
20
0.058312
30
0.0
11
-0.024505
21
0.055695
31
0.0
0
LINE
8
0
6
CONTINUOUS
10
-0.020249
20
0.054030
30
0.0
11
-0.023352
21
0.056603
31
0.0
0
LINE
8
0
6
CONTINUOUS
10
-0.024505
20
0.055695
30
0.0
11
-0.021512
21
0.053213
31
0.0
0
LINE
8
0
6
CONTINUOUS
10
-0.017658
20
0.051881
30
0.0
11
-0.020249
21
0.054030
31
0.0
0
LINE
8
0
6
CONTINUOUS
10
-0.021512
20
0.053213
30
0.0
11
-0.018712
21
0.050891
31
0.0
0
LINE
8
0
6
CONTINUOUS
10
-0.014673
20
0.049405
30
0.0
11
-0.015164
21
0.049813
31
0.0
0
LINE
8
0
6
CONTINUOUS
10
-0.018712
20
0.050891
30
0.0
11
-0.016133
21
0.048752
31
0.0
0
LINE
8
0
6
CONTINUOUS
10
-0.012259
20
0.047403
30
0.0
11
-0.014673
21
0.049405
31
0.0
0
LINE
8
0
6
CONTINUOUS
10
-0.016133
20
0.048752
30
0.0
11
-0.013804
21
0.046820
31
0.0
0
LINE
8
0
6
CONTINUOUS
10
-0.010134
20
0.045641
30
0.0
11
-0.012259
21
0.047403
31
0.0
0
LINE
8
0
6
CONTINUOUS
10
-0.013804
20
0.046820
30
0.0
11
-0.011754
21
0.045120
31
0.0
0
LINE
8
0
6
CONTINUOUS
10
-0.008998
20
0.044700
30
0.0
11
-0.010134
21
0.045641
31
0.0
0
LINE
8
0
6
CONTINUOUS
10
-0.011754
20
0.045120
30
0.0
11
-0.010012
21
0.043675
31
0.0
0
LINE
8
0
6
CONTINUOUS
10
-0.010012
20
0.043675
30
0.0
11
-0.008606
21
0.042510
31
0.0
0
LINE
8
0
6
CONTINUOUS
10
-0.008606
20
0.042510
30
0.0
11
-0.007566
21
0.041648
31
0.0
0
LINE
8
0
6
CONTINUOUS
10
-0.007566
20
0.041648
30
0.0
11
-0.006921
21
0.041113
31
0.0
0
LINE
8
0
6
CONTINUOUS
10
-0.006700
20
0.040929
30
0.0
11
-0.005546
21
0.041164
31
0.0
0
LINE
8
0
6
CONTINUOUS
10
-0.006921
20
0.041113
30
0.0
11
-0.006700
21
0.040929
31
0.0
0
LINE
8
0
6
CONTINUOUS
10
-0.023536
20
0.059696
30
0.0
11
-0.022281
21
0.058672
31
0.0
0
LINE
8
0
6
CONTINUOUS
10
-0.004256
20
0.039503
30
0.0
11
-0.003001
21
0.038479
31
0.0
0
LINE
8
0
6
CONTINUOUS
10
-0.022138
20
0.053135
30
0.0
11
-0.021706
21
0.052783
31
0.0
0
LINE
8
0
6
CONTINUOUS
10
-0.021706
20
0.052783
30
0.0
11
-0.020451
21
0.051759
31
0.0
0
LINE
8
0
6
CONTINUOUS
10
-0.019628
20
0.051087
30
0.0
11
-0.019354
21
0.051423
31
0.0
0
LINE
8
0
6
CONTINUOUS
10
-0.020451
20
0.051759
30
0.0
11
-0.019628
21
0.051087
31
0.0
0
LINE
8
0
6
CONTINUOUS
10
-0.012555
20
0.045117
30
0.0
11
-0.012122
21
0.044764
31
0.0
0
LINE
8
0
6
CONTINUOUS
10
-0.025733
20
0.058517
30
0.0
11
-0.024805
21
0.059654
31
0.0
0
LINE
8
0
6
CONTINUOUS
10
-0.026165
20
0.058869
30
0.0
11
-0.025733
21
0.058517
31
0.0
0
LINE
8
0
6
CONTINUOUS
10
-0.026165
20
0.058869
30
0.0
11
-0.025063
21
0.060220
31
0.0
0
LINE
8
0
6
CONTINUOUS
10
-0.027420
20
0.059893
30
0.0
11
-0.026165
21
0.058869
31
0.0
0
LINE
8
0
6
CONTINUOUS
10
-0.031716
20
0.061109
30
0.0
11
-0.030461
21
0.060085
31
0.0
0
LINE
8
0
6
CONTINUOUS
10
-0.054599
20
0.082098
30
0.0
11
-0.053713
21
0.083184
31
0.0
0
LINE
8
0
6
CONTINUOUS
10
-0.055675
20
0.082975
30
0.0
11
-0.054599
21
0.082098
31
0.0
0
LINE
8
0
6
CONTINUOUS
10
-0.043867
20
0.069799
30
0.0
11
-0.042637
21
0.068796
31
0.0
0
LINE
8
0
6
CONTINUOUS
10
-0.035758
20
0.062921
30
0.0
11
-0.035183
21
0.062452
31
0.0
0
LINE
8
0
6
CONTINUOUS
10
-0.034874
20
0.064004
30
0.0
11
-0.035758
21
0.062921
31
0.0
0
LINE
8
0
6
CONTINUOUS
10
-0.036092
20
0.069811
30
0.0
11
-0.035269
21
0.069140
31
0.0
0
LINE
8
0
6
CONTINUOUS
10
-0.035182
20
0.070927
30
0.0
11
-0.036092
21
0.069811
31
0.0
0
LINE
8
0
6
CONTINUOUS
10
-0.061839
20
0.090662
30
0.0
11
-0.060643
21
0.089687
31
0.0
0
LINE
8
0
6
CONTINUOUS
10
-0.061839
20
0.090662
30
0.0
11
-0.060854
21
0.091871
31
0.0
0
LINE
8
0
6
CONTINUOUS
10
-0.062821
20
0.091463
30
0.0
11
-0.061839
21
0.090662
31
0.0
0
LINE
8
0
6
CONTINUOUS
10
-0.061661
20
0.092885
30
0.0
11
-0.062821
21
0.091463
31
0.0
0
LINE
8
0
6
CONTINUOUS
10
-0.054647
20
0.084631
30
0.0
11
-0.053815
21
0.085651
31
0.0
0
LINE
8
0
6
CONTINUOUS
10
-0.055554
20
0.085371
30
0.0
11
-0.054647
21
0.084631
31
0.0
0
LINE
8
0
6
CONTINUOUS
10
-0.063784
20
0.092199
30
0.0
11
-0.062567
21
0.091206
31
0.0
0
LINE
8
0
6
CONTINUOUS
10
-0.053353
20
0.079022
30
0.0
11
-0.053138
21
0.078847
31
0.0
0
LINE
8
0
6
CONTINUOUS
10
0.002865
20
0.035138
30
0.0
11
0.004120
21
0.034114
31
0.0
0
LINE
8
0
6
CONTINUOUS
10
0.002865
20
0.035138
30
0.0
11
0.003356
21
0.035739
31
0.0
0
LINE
8
0
6
CONTINUOUS
10
0.002433
20
0.035490
30
0.0
11
0.002865
21
0.035138
31
0.0
0
LINE
8
0
6
CONTINUOUS
10
0.002887
20
0.036046
30
0.0
11
0.002433
21
0.035490
31
0.0
0
LINE
8
0
6
CONTINUOUS
10
-0.025066
20
0.052924
30
0.0
11
-0.024243
21
0.052252
31
0.0
0
LINE
8
0
6
CONTINUOUS
10
-0.047221
20
0.072496
30
0.0
11
-0.046091
21
0.071573
31
0.0
0
LINE
8
0
6
CONTINUOUS
10
-0.042111
20
0.068826
30
0.0
11
-0.042249
21
0.067209
31
0.0
0
LINE
8
0
6
CONTINUOUS
10
-0.042249
20
0.067209
30
0.0
11
-0.042161
21
0.067138
31
0.0
0
LINE
8
0
6
CONTINUOUS
10
-0.042161
20
0.067138
30
0.0
11
-0.041904
21
0.066932
31
0.0
0
LINE
8
0
6
CONTINUOUS
10
-0.041904
20
0.066932
30
0.0
11
-0.041491
21
0.066598
31
0.0
0
LINE
8
0
6
CONTINUOUS
10
-0.040696
20
0.067685
30
0.0
11
-0.041297
21
0.068169
31
0.0
0
LINE
8
0
6
CONTINUOUS
10
-0.041491
20
0.066598
30
0.0
11
-0.040932
21
0.066147
31
0.0
0
LINE
8
0
6
CONTINUOUS
10
-0.039952
20
0.067085
30
0.0
11
-0.040696
21
0.067685
31
0.0
0
LINE
8
0
6
CONTINUOUS
10
-0.040932
20
0.066147
30
0.0
11
-0.040239
21
0.065588
31
0.0
0
LINE
8
0
6
CONTINUOUS
10
-0.039077
20
0.066379
30
0.0
11
-0.039952
21
0.067085
31
0.0
0
LINE
8
0
6
CONTINUOUS
10
-0.040239
20
0.065588
30
0.0
11
-0.039424
21
0.064931
31
0.0
0
LINE
8
0
6
CONTINUOUS
10
-0.038083
20
0.065576
30
0.0
11
-0.039077
21
0.066379
31
0.0
0
LINE
8
0
6
CONTINUOUS
10
-0.039424
20
0.064931
30
0.0
11
-0.038498
21
0.064184
31
0.0
0
LINE
8
0
6
CONTINUOUS
10
-0.036981
20
0.064688
30
0.0
11
-0.038083
21
0.065576
31
0.0
0
LINE
8
0
6
CONTINUOUS
10
-0.038498
20
0.064184
30
0.0
11
-0.037472
21
0.063357
31
0.0
0
LINE
8
0
6
CONTINUOUS
10
-0.035785
20
0.063723
30
0.0
11
-0.036981
21
0.064688
31
0.0
0
LINE
8
0
6
CONTINUOUS
10
-0.037472
20
0.063357
30
0.0
11
-0.036359
21
0.062459
31
0.0
0
LINE
8
0
6
CONTINUOUS
10
-0.036359
20
0.062459
30
0.0
11
-0.035169
21
0.061499
31
0.0
0
LINE
8
0
6
CONTINUOUS
10
-0.035169
20
0.061499
30
0.0
11
-0.033914
21
0.060487
31
0.0
0
LINE
8
0
6
CONTINUOUS
10
-0.031755
20
0.060473
30
0.0
11
-0.033159
21
0.061605
31
0.0
0
LINE
8
0
6
CONTINUOUS
10
-0.033914
20
0.060487
30
0.0
11
-0.032606
21
0.059432
31
0.0
0
LINE
8
0
6
CONTINUOUS
10
-0.030351
20
0.059340
30
0.0
11
-0.031755
21
0.060473
31
0.0
0
LINE
8
0
6
CONTINUOUS
10
-0.032606
20
0.059432
30
0.0
11
-0.031298
21
0.058376
31
0.0
0
LINE
8
0
6
CONTINUOUS
10
-0.029003
20
0.058253
30
0.0
11
-0.030351
21
0.059340
31
0.0
0
LINE
8
0
6
CONTINUOUS
10
-0.031298
20
0.058376
30
0.0
11
-0.030043
21
0.057364
31
0.0
0
LINE
8
0
6
CONTINUOUS
10
-0.027725
20
0.057222
30
0.0
11
-0.029003
21
0.058253
31
0.0
0
LINE
8
0
6
CONTINUOUS
10
-0.030043
20
0.057364
30
0.0
11
-0.028853
21
0.056405
31
0.0
0
LINE
8
0
6
CONTINUOUS
10
-0.026529
20
0.056257
30
0.0
11
-0.027725
21
0.057222
31
0.0
0
LINE
8
0
6
CONTINUOUS
10
-0.028853
20
0.056405
30
0.0
11
-0.027740
21
0.055506
31
0.0
0
LINE
8
0
6
CONTINUOUS
10
-0.025428
20
0.055369
30
0.0
11
-0.026529
21
0.056257
31
0.0
0
LINE
8
0
6
CONTINUOUS
10
-0.027740
20
0.055506
30
0.0
11
-0.026714
21
0.054679
31
0.0
0
LINE
8
0
6
CONTINUOUS
10
-0.026714
20
0.054679
30
0.0
11
-0.025788
21
0.053932
31
0.0
0
LINE
8
0
6
CONTINUOUS
10
-0.025788
20
0.053932
30
0.0
11
-0.024973
21
0.053275
31
0.0
0
LINE
8
0
6
CONTINUOUS
10
-0.024973
20
0.053275
30
0.0
11
-0.024280
21
0.052716
31
0.0
0
LINE
8
0
6
CONTINUOUS
10
-0.024280
20
0.052716
30
0.0
11
-0.023721
21
0.052265
31
0.0
0
LINE
8
0
6
CONTINUOUS
10
-0.023721
20
0.052265
30
0.0
11
-0.023308
21
0.051932
31
0.0
0
LINE
8
0
6
CONTINUOUS
10
-0.023308
20
0.051932
30
0.0
11
-0.023051
21
0.051725
31
0.0
0
LINE
8
0
6
CONTINUOUS
10
-0.022963
20
0.051654
30
0.0
11
-0.021681
21
0.052036
31
0.0
0
LINE
8
0
6
CONTINUOUS
10
-0.023051
20
0.051725
30
0.0
11
-0.022963
21
0.051654
31
0.0
0
LINE
8
0
6
CONTINUOUS
10
-0.023968
20
0.060049
30
0.0
11
-0.023536
21
0.059696
31
0.0
0
LINE
8
0
6
CONTINUOUS
10
-0.023287
20
0.060884
30
0.0
11
-0.023968
21
0.060049
31
0.0
0
LINE
8
0
6
CONTINUOUS
10
-0.022281
20
0.058672
30
0.0
11
-0.021458
21
0.058001
31
0.0
0
LINE
8
0
6
CONTINUOUS
10
-0.021266
20
0.059915
30
0.0
11
-0.022281
21
0.058672
31
0.0
0
LINE
8
0
6
CONTINUOUS
10
-0.017843
20
0.048137
30
0.0
11
-0.017010
21
0.049158
31
0.0
0
LINE
8
0
6
CONTINUOUS
10
-0.018276
20
0.048489
30
0.0
11
-0.017843
21
0.048137
31
0.0
0
LINE
8
0
6
CONTINUOUS
10
-0.018276
20
0.048489
30
0.0
11
-0.017428
21
0.049528
31
0.0
0
LINE
8
0
6
CONTINUOUS
10
-0.019531
20
0.049513
30
0.0
11
-0.018276
21
0.048489
31
0.0
0
LINE
8
0
6
CONTINUOUS
10
-0.019531
20
0.049513
30
0.0
11
-0.018760
21
0.050458
31
0.0
0
LINE
8
0
6
CONTINUOUS
10
-0.020354
20
0.050184
30
0.0
11
-0.019531
21
0.049513
31
0.0
0
LINE
8
0
6
CONTINUOUS
10
-0.019675
20
0.051017
30
0.0
11
-0.020354
21
0.050184
31
0.0
0
LINE
8
0
6
CONTINUOUS
10
-0.002568
20
0.038127
30
0.0
11
-0.001768
21
0.039108
31
0.0
0
LINE
8
0
6
CONTINUOUS
10
-0.003001
20
0.038479
30
0.0
11
-0.002568
21
0.038127
31
0.0
0
LINE
8
0
6
CONTINUOUS
10
-0.002222
20
0.039434
30
0.0
11
-0.003001
21
0.038479
31
0.0
0
LINE
8
0
6
CONTINUOUS
10
-0.004256
20
0.039503
30
0.0
11
-0.003587
21
0.040323
31
0.0
0
LINE
8
0
6
CONTINUOUS
10
-0.005079
20
0.040175
30
0.0
11
-0.004256
21
0.039503
31
0.0
0
LINE
8
0
6
CONTINUOUS
10
-0.004508
20
0.040875
30
0.0
11
-0.005079
21
0.040175
31
0.0
0
LINE
8
0
6
CONTINUOUS
10
-0.012467
20
0.050621
30
0.0
11
-0.012035
21
0.050269
31
0.0
0
LINE
8
0
6
CONTINUOUS
10
-0.012067
20
0.051112
30
0.0
11
-0.012467
21
0.050621
31
0.0
0
LINE
8
0
6
CONTINUOUS
10
-0.012035
20
0.050269
30
0.0
11
-0.010780
21
0.049245
31
0.0
0
LINE
8
0
6
CONTINUOUS
10
-0.011412
20
0.051032
30
0.0
11
-0.012035
21
0.050269
31
0.0
0
LINE
8
0
6
CONTINUOUS
10
-0.010780
20
0.049245
30
0.0
11
-0.009957
21
0.048573
31
0.0
0
LINE
8
0
6
CONTINUOUS
10
-0.010031
20
0.050162
30
0.0
11
-0.010780
21
0.049245
31
0.0
0
LINE
8
0
6
CONTINUOUS
10
-0.003705
20
0.042457
30
0.0
11
-0.003273
21
0.042104
31
0.0
0
LINE
8
0
6
CONTINUOUS
10
-0.003120
20
0.043175
30
0.0
11
-0.003705
21
0.042457
31
0.0
0
LINE
8
0
6
CONTINUOUS
10
-0.003273
20
0.042104
30
0.0
11
-0.002018
21
0.041080
31
0.0
0
LINE
8
0
6
CONTINUOUS
10
-0.002482
20
0.043074
30
0.0
11
-0.003273
21
0.042104
31
0.0
0
LINE
8
0
6
CONTINUOUS
10
-0.002018
20
0.041080
30
0.0
11
-0.001195
21
0.040409
31
0.0
0
LINE
8
0
6
CONTINUOUS
10
-0.001070
20
0.042242
30
0.0
11
-0.002018
21
0.041080
31
0.0
0
LINE
8
0
6
CONTINUOUS
10
-0.009241
20
0.044402
30
0.0
11
-0.008809
21
0.044050
31
0.0
0
LINE
8
0
6
CONTINUOUS
10
-0.008631
20
0.045150
30
0.0
11
-0.009241
21
0.044402
31
0.0
0
LINE
8
0
6
CONTINUOUS
10
-0.008809
20
0.044050
30
0.0
11
-0.007553
21
0.043026
31
0.0
0
LINE
8
0
6
CONTINUOUS
10
-0.008038
20
0.044994
30
0.0
11
-0.008809
21
0.044050
31
0.0
0
LINE
8
0
6
CONTINUOUS
10
-0.007553
20
0.043026
30
0.0
11
-0.006730
21
0.042355
31
0.0
0
LINE
8
0
6
CONTINUOUS
10
-0.006630
20
0.044158
30
0.0
11
-0.007553
21
0.043026
31
0.0
0
LINE
8
0
6
CONTINUOUS
10
-0.017733
20
0.051789
30
0.0
11
-0.017301
21
0.051437
31
0.0
0
LINE
8
0
6
CONTINUOUS
10
-0.017016
20
0.052669
30
0.0
11
-0.017733
21
0.051789
31
0.0
0
LINE
8
0
6
CONTINUOUS
10
-0.017301
20
0.051437
30
0.0
11
-0.016046
21
0.050413
31
0.0
0
LINE
8
0
6
CONTINUOUS
10
-0.016369
20
0.052578
30
0.0
11
-0.017301
21
0.051437
31
0.0
0
LINE
8
0
6
CONTINUOUS
10
-0.015223
20
0.049741
30
0.0
11
-0.015164
21
0.049813
31
0.0
0
LINE
8
0
6
CONTINUOUS
10
-0.016046
20
0.050413
30
0.0
11
-0.015223
21
0.049741
31
0.0
0
LINE
8
0
6
CONTINUOUS
10
-0.014992
20
0.051704
30
0.0
11
-0.016046
21
0.050413
31
0.0
0
LINE
8
0
6
CONTINUOUS
10
-0.013810
20
0.046141
30
0.0
11
-0.012555
21
0.045117
31
0.0
0
LINE
8
0
6
CONTINUOUS
10
-0.014633
20
0.046812
30
0.0
11
-0.013810
21
0.046141
31
0.0
0
LINE
8
0
6
CONTINUOUS
10
-0.014430
20
0.047060
30
0.0
11
-0.014633
21
0.046812
31
0.0
0
LINE
8
0
6
CONTINUOUS
10
0.004020
20
0.034725
30
0.0
11
0.004856
21
0.035749
31
0.0
0
LINE
8
0
6
CONTINUOUS
10
0.003588
20
0.035077
30
0.0
11
0.004020
21
0.034725
31
0.0
0
LINE
8
0
6
CONTINUOUS
10
0.003588
20
0.035077
30
0.0
11
0.004495
21
0.036189
31
0.0
0
LINE
8
0
6
CONTINUOUS
10
0.002333
20
0.036101
30
0.0
11
0.003588
21
0.035077
31
0.0
0
LINE
8
0
6
CONTINUOUS
10
0.002333
20
0.036101
30
0.0
11
0.003147
21
0.037100
31
0.0
0
LINE
8
0
6
CONTINUOUS
10
0.001510
20
0.036773
30
0.0
11
0.002333
21
0.036101
31
0.0
0
LINE
8
0
6
CONTINUOUS
10
0.002119
20
0.037519
30
0.0
11
0.001510
21
0.036773
31
0.0
0
LINE
8
0
6
CONTINUOUS
10
-0.027420
20
0.059893
30
0.0
11
-0.026318
21
0.061245
31
0.0
0
LINE
8
0
6
CONTINUOUS
10
-0.028243
20
0.060565
30
0.0
11
-0.027420
21
0.059893
31
0.0
0
LINE
8
0
6
CONTINUOUS
10
-0.027310
20
0.061708
30
0.0
11
-0.028243
21
0.060565
31
0.0
0
LINE
8
0
6
CONTINUOUS
10
-0.030461
20
0.060085
30
0.0
11
-0.030029
21
0.059733
31
0.0
0
LINE
8
0
6
CONTINUOUS
10
-0.032539
20
0.061781
30
0.0
11
-0.031716
21
0.061109
31
0.0
0
LINE
8
0
6
CONTINUOUS
10
-0.023938
20
0.053048
30
0.0
11
-0.023113
21
0.054059
31
0.0
0
LINE
8
0
6
CONTINUOUS
10
-0.024370
20
0.053401
30
0.0
11
-0.023938
21
0.053048
31
0.0
0
LINE
8
0
6
CONTINUOUS
10
-0.024370
20
0.053401
30
0.0
11
-0.023407
21
0.054582
31
0.0
0
LINE
8
0
6
CONTINUOUS
10
-0.025626
20
0.054425
30
0.0
11
-0.024370
21
0.053401
31
0.0
0
LINE
8
0
6
CONTINUOUS
10
-0.025626
20
0.054425
30
0.0
11
-0.024637
21
0.055636
31
0.0
0
LINE
8
0
6
CONTINUOUS
10
-0.026448
20
0.055096
30
0.0
11
-0.025626
21
0.054425
31
0.0
0
LINE
8
0
6
CONTINUOUS
10
-0.025574
20
0.056168
30
0.0
11
-0.026448
21
0.055096
31
0.0
0
LINE
8
0
6
CONTINUOUS
10
-0.055675
20
0.082975
30
0.0
11
-0.054560
21
0.084343
31
0.0
0
LINE
8
0
6
CONTINUOUS
10
-0.056806
20
0.083898
30
0.0
11
-0.055675
21
0.082975
31
0.0
0
LINE
8
0
6
CONTINUOUS
10
-0.056806
20
0.083898
30
0.0
11
-0.055580
21
0.085401
31
0.0
0
LINE
8
0
6
CONTINUOUS
10
-0.056861
20
0.083943
30
0.0
11
-0.056806
21
0.083898
31
0.0
0
LINE
8
0
6
CONTINUOUS
10
-0.055754
20
0.085300
30
0.0
11
-0.056861
21
0.083943
31
0.0
0
LINE
8
0
6
CONTINUOUS
10
-0.048425
20
0.074854
30
0.0
11
-0.047975
21
0.075405
31
0.0
0
LINE
8
0
6
CONTINUOUS
10
-0.049501
20
0.075731
30
0.0
11
-0.048425
21
0.074854
31
0.0
0
LINE
8
0
6
CONTINUOUS
10
-0.049501
20
0.075731
30
0.0
11
-0.048957
21
0.076398
31
0.0
0
LINE
8
0
6
CONTINUOUS
10
-0.050632
20
0.076654
30
0.0
11
-0.049501
21
0.075731
31
0.0
0
LINE
8
0
6
CONTINUOUS
10
-0.050687
20
0.076699
30
0.0
11
-0.050632
21
0.076654
31
0.0
0
LINE
8
0
6
CONTINUOUS
10
-0.047827
20
0.076499
30
0.0
11
-0.046863
21
0.077680
31
0.0
0
LINE
8
0
6
CONTINUOUS
10
-0.048734
20
0.077239
30
0.0
11
-0.047827
21
0.076499
31
0.0
0
LINE
8
0
6
CONTINUOUS
10
-0.048734
20
0.077239
30
0.0
11
-0.047499
21
0.078753
31
0.0
0
LINE
8
0
6
CONTINUOUS
10
-0.049964
20
0.078242
30
0.0
11
-0.048734
21
0.077239
31
0.0
0
LINE
8
0
6
CONTINUOUS
10
-0.049964
20
0.078242
30
0.0
11
-0.048658
21
0.079843
31
0.0
0
LINE
8
0
6
CONTINUOUS
10
-0.050286
20
0.078505
30
0.0
11
-0.049964
21
0.078242
31
0.0
0
LINE
8
0
6
CONTINUOUS
10
-0.049137
20
0.079914
30
0.0
11
-0.050286
21
0.078505
31
0.0
0
LINE
8
0
6
CONTINUOUS
10
-0.041730
20
0.068056
30
0.0
11
-0.040947
21
0.069015
31
0.0
0
LINE
8
0
6
CONTINUOUS
10
-0.042637
20
0.068796
30
0.0
11
-0.041730
21
0.068056
31
0.0
0
LINE
8
0
6
CONTINUOUS
10
-0.041749
20
0.069885
30
0.0
11
-0.042637
21
0.068796
31
0.0
0
LINE
8
0
6
CONTINUOUS
10
-0.043867
20
0.069799
30
0.0
11
-0.043218
21
0.070595
31
0.0
0
LINE
8
0
6
CONTINUOUS
10
-0.044189
20
0.070062
30
0.0
11
-0.043867
21
0.069799
31
0.0
0
LINE
8
0
6
CONTINUOUS
10
-0.043221
20
0.071249
30
0.0
11
-0.044189
21
0.070062
31
0.0
0
LINE
8
0
6
CONTINUOUS
10
-0.037616
20
0.068353
30
0.0
11
-0.036643
21
0.069546
31
0.0
0
LINE
8
0
6
CONTINUOUS
10
-0.038314
20
0.068923
30
0.0
11
-0.037616
21
0.068353
31
0.0
0
LINE
8
0
6
CONTINUOUS
10
-0.038314
20
0.068923
30
0.0
11
-0.037145
21
0.070357
31
0.0
0
LINE
8
0
6
CONTINUOUS
10
-0.039588
20
0.069962
30
0.0
11
-0.038314
21
0.068923
31
0.0
0
LINE
8
0
6
CONTINUOUS
10
-0.039588
20
0.069962
30
0.0
11
-0.038386
21
0.071435
31
0.0
0
LINE
8
0
6
CONTINUOUS
10
-0.040162
20
0.070431
30
0.0
11
-0.039588
21
0.069962
31
0.0
0
LINE
8
0
6
CONTINUOUS
10
-0.039098
20
0.071736
30
0.0
11
-0.040162
21
0.070431
31
0.0
0
LINE
8
0
6
CONTINUOUS
10
-0.041299
20
0.069251
30
0.0
11
-0.040601
21
0.068681
31
0.0
0
LINE
8
0
6
CONTINUOUS
10
-0.042573
20
0.070289
30
0.0
11
-0.041299
21
0.069251
31
0.0
0
LINE
8
0
6
CONTINUOUS
10
-0.043148
20
0.070758
30
0.0
11
-0.042573
21
0.070289
31
0.0
0
LINE
8
0
6
CONTINUOUS
10
-0.033211
20
0.060843
30
0.0
11
-0.032293
21
0.061969
31
0.0
0
LINE
8
0
6
CONTINUOUS
10
-0.033910
20
0.061413
30
0.0
11
-0.033211
21
0.060843
31
0.0
0
LINE
8
0
6
CONTINUOUS
10
-0.033910
20
0.061413
30
0.0
11
-0.032884
21
0.062670
31
0.0
0
LINE
8
0
6
CONTINUOUS
10
-0.035183
20
0.062452
30
0.0
11
-0.033910
21
0.061413
31
0.0
0
LINE
8
0
6
CONTINUOUS
10
-0.034181
20
0.063680
30
0.0
11
-0.035183
21
0.062452
31
0.0
0
LINE
8
0
6
CONTINUOUS
10
-0.033582
20
0.067763
30
0.0
11
-0.032811
21
0.068709
31
0.0
0
LINE
8
0
6
CONTINUOUS
10
-0.034014
20
0.068116
30
0.0
11
-0.033582
21
0.067763
31
0.0
0
LINE
8
0
6
CONTINUOUS
10
-0.034014
20
0.068116
30
0.0
11
-0.033000
21
0.069359
31
0.0
0
LINE
8
0
6
CONTINUOUS
10
-0.035269
20
0.069140
30
0.0
11
-0.034014
21
0.068116
31
0.0
0
LINE
8
0
6
CONTINUOUS
10
-0.034193
20
0.070459
30
0.0
11
-0.035269
21
0.069140
31
0.0
0
LINE
8
0
6
CONTINUOUS
10
-0.060429
20
0.089512
30
0.0
11
-0.059816
21
0.090263
31
0.0
0
LINE
8
0
6
CONTINUOUS
10
-0.060643
20
0.089687
30
0.0
11
-0.060429
21
0.089512
31
0.0
0
LINE
8
0
6
CONTINUOUS
10
-0.059904
20
0.090593
30
0.0
11
-0.060643
21
0.089687
31
0.0
0
LINE
8
0
6
CONTINUOUS
10
-0.055554
20
0.085371
30
0.0
11
-0.054522
21
0.086637
31
0.0
0
LINE
8
0
6
CONTINUOUS
10
-0.056784
20
0.086374
30
0.0
11
-0.055554
21
0.085371
31
0.0
0
LINE
8
0
6
CONTINUOUS
10
-0.056784
20
0.086374
30
0.0
11
-0.055660
21
0.087752
31
0.0
0
LINE
8
0
6
CONTINUOUS
10
-0.057106
20
0.086637
30
0.0
11
-0.056784
21
0.086374
31
0.0
0
LINE
8
0
6
CONTINUOUS
10
-0.056091
20
0.087882
30
0.0
11
-0.057106
21
0.086637
31
0.0
0
LINE
8
0
6
CONTINUOUS
10
-0.045290
20
0.077101
30
0.0
11
-0.044469
21
0.078108
31
0.0
0
LINE
8
0
6
CONTINUOUS
10
-0.045989
20
0.077671
30
0.0
11
-0.045290
21
0.077101
31
0.0
0
LINE
8
0
6
CONTINUOUS
10
-0.045989
20
0.077671
30
0.0
11
-0.044974
21
0.078914
31
0.0
0
LINE
8
0
6
CONTINUOUS
10
-0.047262
20
0.078709
30
0.0
11
-0.045989
21
0.077671
31
0.0
0
LINE
8
0
6
CONTINUOUS
10
-0.047262
20
0.078709
30
0.0
11
-0.046157
21
0.080063
31
0.0
0
LINE
8
0
6
CONTINUOUS
10
-0.047837
20
0.079178
30
0.0
11
-0.047262
21
0.078709
31
0.0
0
LINE
8
0
6
CONTINUOUS
10
-0.046836
20
0.080405
30
0.0
11
-0.047837
21
0.079178
31
0.0
0
LINE
8
0
6
CONTINUOUS
10
-0.062567
20
0.091206
30
0.0
11
-0.062288
21
0.090979
31
0.0
0
LINE
8
0
6
CONTINUOUS
10
-0.063784
20
0.092199
30
0.0
11
-0.062759
21
0.093455
31
0.0
0
LINE
8
0
6
CONTINUOUS
10
-0.064722
20
0.092965
30
0.0
11
-0.063784
21
0.092199
31
0.0
0
LINE
8
0
6
CONTINUOUS
10
-0.063473
20
0.094497
30
0.0
11
-0.064722
21
0.092965
31
0.0
0
LINE
8
0
6
CONTINUOUS
10
-0.039186
20
0.066621
30
0.0
11
-0.039231
21
0.066566
31
0.0
0
LINE
8
0
6
CONTINUOUS
10
-0.050961
20
0.077071
30
0.0
11
-0.050686
21
0.077407
31
0.0
0
LINE
8
0
6
CONTINUOUS
10
-0.051942
20
0.077871
30
0.0
11
-0.050961
21
0.077071
31
0.0
0
LINE
8
0
6
CONTINUOUS
10
-0.051942
20
0.077871
30
0.0
11
-0.051661
21
0.078216
31
0.0
0
LINE
8
0
6
CONTINUOUS
10
-0.053138
20
0.078847
30
0.0
11
-0.051942
21
0.077871
31
0.0
0
LINE
8
0
6
CONTINUOUS
10
-0.057053
20
0.084167
30
0.0
11
-0.056288
21
0.085104
31
0.0
0
LINE
8
0
6
CONTINUOUS
10
-0.058034
20
0.084968
30
0.0
11
-0.057053
21
0.084167
31
0.0
0
LINE
8
0
6
CONTINUOUS
10
-0.058034
20
0.084968
30
0.0
11
-0.057116
21
0.086094
31
0.0
0
LINE
8
0
6
CONTINUOUS
10
-0.059230
20
0.085943
30
0.0
11
-0.058034
21
0.084968
31
0.0
0
LINE
8
0
6
CONTINUOUS
10
-0.059230
20
0.085943
30
0.0
11
-0.058125
21
0.087299
31
0.0
0
LINE
8
0
6
CONTINUOUS
10
-0.059445
20
0.086118
30
0.0
11
-0.059230
21
0.085943
31
0.0
0
LINE
8
0
6
CONTINUOUS
10
-0.058306
20
0.087515
30
0.0
11
-0.059445
21
0.086118
31
0.0
0
LINE
8
0
6
CONTINUOUS
10
0.004943
20
0.033442
30
0.0
11
0.005539
21
0.034172
31
0.0
0
LINE
8
0
6
CONTINUOUS
10
0.004120
20
0.034114
30
0.0
11
0.004943
21
0.033442
31
0.0
0
LINE
8
0
6
CONTINUOUS
10
0.004705
20
0.034830
30
0.0
11
0.004120
21
0.034114
31
0.0
0
LINE
8
0
6
CONTINUOUS
10
-0.011509
20
0.043852
30
0.0
11
-0.010254
21
0.042828
31
0.0
0
LINE
8
0
6
CONTINUOUS
10
-0.009431
20
0.042156
30
0.0
11
-0.008630
21
0.043138
31
0.0
0
LINE
8
0
6
CONTINUOUS
10
-0.010254
20
0.042828
30
0.0
11
-0.009431
21
0.042156
31
0.0
0
LINE
8
0
6
CONTINUOUS
10
-0.009476
20
0.043781
30
0.0
11
-0.010254
21
0.042828
31
0.0
0
LINE
8
0
6
CONTINUOUS
10
-0.011509
20
0.043852
30
0.0
11
-0.010991
21
0.044487
31
0.0
0
LINE
8
0
6
CONTINUOUS
10
-0.011941
20
0.044204
30
0.0
11
-0.011509
21
0.043852
31
0.0
0
LINE
8
0
6
CONTINUOUS
10
-0.011420
20
0.044843
30
0.0
11
-0.011941
21
0.044204
31
0.0
0
LINE
8
0
6
CONTINUOUS
10
-0.026321
20
0.053947
30
0.0
11
-0.025066
21
0.052924
31
0.0
0
LINE
8
0
6
CONTINUOUS
10
-0.026753
20
0.054300
30
0.0
11
-0.026321
21
0.053947
31
0.0
0
LINE
8
0
6
CONTINUOUS
10
-0.045015
20
0.070695
30
0.0
11
-0.044247
21
0.071636
31
0.0
0
LINE
8
0
6
CONTINUOUS
10
-0.046091
20
0.071573
30
0.0
11
-0.045015
21
0.070695
31
0.0
0
LINE
8
0
6
CONTINUOUS
10
-0.045189
20
0.072678
30
0.0
11
-0.046091
21
0.071573
31
0.0
0
LINE
8
0
6
CONTINUOUS
10
-0.047221
20
0.072496
30
0.0
11
-0.046261
21
0.073672
31
0.0
0
LINE
8
0
6
CONTINUOUS
10
-0.047277
20
0.072541
30
0.0
11
-0.047221
21
0.072496
31
0.0
0
LINE
8
0
6
CONTINUOUS
10
-0.046312
20
0.073723
30
0.0
11
-0.047277
21
0.072541
31
0.0
0
LINE
8
0
6
CONTINUOUS
10
-0.012035
20
0.050269
30
0.0
11
-0.012467
21
0.050621
31
0.0
0
LINE
8
0
6
CONTINUOUS
10
-0.010780
20
0.049245
30
0.0
11
-0.012035
21
0.050269
31
0.0
0
LINE
8
0
6
CONTINUOUS
10
-0.009957
20
0.048573
30
0.0
11
-0.010780
21
0.049245
31
0.0
0
LINE
8
0
6
CONTINUOUS
10
-0.008809
20
0.044050
30
0.0
11
-0.009241
21
0.044402
31
0.0
0
LINE
8
0
6
CONTINUOUS
10
-0.007553
20
0.043026
30
0.0
11
-0.008809
21
0.044050
31
0.0
0
LINE
8
0
6
CONTINUOUS
10
-0.006730
20
0.042355
30
0.0
11
-0.007553
21
0.043026
31
0.0
0
LINE
8
0
6
CONTINUOUS
10
-0.025626
20
0.054425
30
0.0
11
-0.026448
21
0.055096
31
0.0
0
LINE
8
0
6
CONTINUOUS
10
-0.024370
20
0.053401
30
0.0
11
-0.025626
21
0.054425
31
0.0
0
LINE
8
0
6
CONTINUOUS
10
-0.023938
20
0.053048
30
0.0
11
-0.024370
21
0.053401
31
0.0
0
LINE
8
0
6
CONTINUOUS
10
-0.056806
20
0.083898
30
0.0
11
-0.056861
21
0.083943
31
0.0
0
LINE
8
0
6
CONTINUOUS
10
-0.055675
20
0.082975
30
0.0
11
-0.056806
21
0.083898
31
0.0
0
LINE
8
0
6
CONTINUOUS
10
-0.054599
20
0.082098
30
0.0
11
-0.055675
21
0.082975
31
0.0
0
LINE
8
0
6
CONTINUOUS
10
-0.050632
20
0.076654
30
0.0
11
-0.050687
21
0.076699
31
0.0
0
LINE
8
0
6
CONTINUOUS
10
-0.049501
20
0.075731
30
0.0
11
-0.050632
21
0.076654
31
0.0
0
LINE
8
0
6
CONTINUOUS
10
-0.048425
20
0.074854
30
0.0
11
-0.049501
21
0.075731
31
0.0
0
LINE
8
0
6
CONTINUOUS
10
-0.049964
20
0.078242
30
0.0
11
-0.050286
21
0.078505
31
0.0
0
LINE
8
0
6
CONTINUOUS
10
-0.048734
20
0.077239
30
0.0
11
-0.049964
21
0.078242
31
0.0
0
LINE
8
0
6
CONTINUOUS
10
-0.047827
20
0.076499
30
0.0
11
-0.048734
21
0.077239
31
0.0
0
LINE
8
0
6
CONTINUOUS
10
-0.042573
20
0.070289
30
0.0
11
-0.043148
21
0.070758
31
0.0
0
LINE
8
0
6
CONTINUOUS
10
-0.041299
20
0.069251
30
0.0
11
-0.042573
21
0.070289
31
0.0
0
LINE
8
0
6
CONTINUOUS
10
-0.040601
20
0.068681
30
0.0
11
-0.041299
21
0.069251
31
0.0
0
LINE
8
0
6
CONTINUOUS
10
-0.035269
20
0.069140
30
0.0
11
-0.036092
21
0.069811
31
0.0
0
LINE
8
0
6
CONTINUOUS
10
-0.034014
20
0.068116
30
0.0
11
-0.035269
21
0.069140
31
0.0
0
LINE
8
0
6
CONTINUOUS
10
-0.033582
20
0.067763
30
0.0
11
-0.034014
21
0.068116
31
0.0
0
LINE
8
0
6
CONTINUOUS
10
-0.053138
20
0.078847
30
0.0
11
-0.053353
21
0.079022
31
0.0
0
LINE
8
0
6
CONTINUOUS
10
-0.051942
20
0.077871
30
0.0
11
-0.053138
21
0.078847
31
0.0
0
LINE
8
0
6
CONTINUOUS
10
-0.050961
20
0.077071
30
0.0
11
-0.051942
21
0.077871
31
0.0
0
LINE
8
0
6
CONTINUOUS
10
-0.059230
20
0.085943
30
0.0
11
-0.059445
21
0.086118
31
0.0
0
LINE
8
0
6
CONTINUOUS
10
-0.058034
20
0.084968
30
0.0
11
-0.059230
21
0.085943
31
0.0
0
LINE
8
0
6
CONTINUOUS
10
-0.057053
20
0.084167
30
0.0
11
-0.058034
21
0.084968
31
0.0
0
LINE
8
0
6
CONTINUOUS
10
-0.047221
20
0.072496
30
0.0
11
-0.047277
21
0.072541
31
0.0
0
LINE
8
0
6
CONTINUOUS
10
-0.046091
20
0.071573
30
0.0
11
-0.047221
21
0.072496
31
0.0
0
LINE
8
0
6
CONTINUOUS
10
-0.045015
20
0.070695
30
0.0
11
-0.046091
21
0.071573
31
0.0
0
LINE
8
0
6
CONTINUOUS
10
0.023004
20
0.009603
30
0.0
11
0.023112
21
0.010663
31
0.0
0
LINE
8
0
6
CONTINUOUS
10
0.007401
20
0.033250
30
0.0
11
0.006485
21
0.033423
31
0.0
0
LINE
8
0
6
CONTINUOUS
10
0.006400
20
0.033448
30
0.0
11
0.013923
21
0.025636
31
0.0
0
LINE
8
0
6
CONTINUOUS
10
0.006485
20
0.033423
30
0.0
11
0.006400
21
0.033448
31
0.0
0
LINE
8
0
6
CONTINUOUS
10
0.019097
20
0.020769
30
0.0
11
0.013614
21
0.028577
31
0.0
0
LINE
8
0
6
CONTINUOUS
10
0.013614
20
0.028577
30
0.0
11
0.011185
21
0.031917
31
0.0
0
LINE
8
0
6
CONTINUOUS
10
0.011185
20
0.031917
30
0.0
11
0.007401
21
0.033250
31
0.0
0
LINE
8
0
6
CONTINUOUS
10
0.023024
20
0.012493
30
0.0
11
0.019097
21
0.020769
31
0.0
0
LINE
8
0
6
CONTINUOUS
10
0.023112
20
0.010663
30
0.0
11
0.023024
21
0.012493
31
0.0
0
LINE
8
0
6
CONTINUOUS
10
0.013923
20
0.025636
30
0.0
11
0.018168
21
0.018973
31
0.0
0
LINE
8
0
6
CONTINUOUS
10
0.018168
20
0.018973
30
0.0
11
0.023008
21
0.009312
31
0.0
0
LINE
8
0
6
CONTINUOUS
10
0.023008
20
0.009312
30
0.0
11
0.023004
21
0.009603
31
0.0
0
LINE
8
0
6
CONTINUOUS
10
0.091392
20
-0.070588
30
0.0
11
0.090971
21
-0.070788
31
0.0
0
LINE
8
0
6
CONTINUOUS
10
0.091762
20
-0.071518
30
0.0
11
0.091392
21
-0.070588
31
0.0
0
LINE
8
0
6
CONTINUOUS
10
0.079659
20
-0.076175
30
0.0
11
0.076659
21
-0.077603
31
0.0
0
LINE
8
0
6
CONTINUOUS
10
0.087964
20
-0.072220
30
0.0
11
0.085474
21
-0.073406
31
0.0
0
LINE
8
0
6
CONTINUOUS
10
0.089843
20
-0.071325
30
0.0
11
0.087964
21
-0.072220
31
0.0
0
LINE
8
0
6
CONTINUOUS
10
0.067932
20
-0.081758
30
0.0
11
0.068330
21
-0.082676
31
0.0
0
LINE
8
0
6
CONTINUOUS
10
0.068350
20
-0.081559
30
0.0
11
0.067932
21
-0.081758
31
0.0
0
LINE
8
0
6
CONTINUOUS
10
0.085474
20
-0.073406
30
0.0
11
0.082670
21
-0.074741
31
0.0
0
LINE
8
0
6
CONTINUOUS
10
0.090971
20
-0.070788
30
0.0
11
0.089843
21
-0.071325
31
0.0
0
LINE
8
0
6
CONTINUOUS
10
0.082670
20
-0.074741
30
0.0
11
0.079659
21
-0.076175
31
0.0
0
LINE
8
0
6
CONTINUOUS
10
0.076659
20
-0.077603
30
0.0
11
0.073838
21
-0.078946
31
0.0
0
LINE
8
0
6
CONTINUOUS
10
0.073838
20
-0.078946
30
0.0
11
0.071354
21
-0.080129
31
0.0
0
LINE
8
0
6
CONTINUOUS
10
0.071354
20
-0.080129
30
0.0
11
0.069476
21
-0.081023
31
0.0
0
LINE
8
0
6
CONTINUOUS
10
0.069476
20
-0.081023
30
0.0
11
0.068350
21
-0.081559
31
0.0
0
LINE
8
0
6
CONTINUOUS
10
0.086185
20
-0.114000
30
0.0
11
0.092838
21
-0.114000
31
0.0
0
LINE
8
0
6
CONTINUOUS
10
0.112185
20
-0.110000
30
0.0
11
0.112185
21
-0.109000
31
0.0
0
LINE
8
0
6
CONTINUOUS
10
0.112185
20
-0.109000
30
0.0
11
0.111267
21
-0.109000
31
0.0
0
LINE
8
0
6
CONTINUOUS
10
0.108667
20
-0.114000
30
0.0
11
0.111267
21
-0.114000
31
0.0
0
LINE
8
0
6
CONTINUOUS
10
0.060185
20
-0.109000
30
0.0
11
0.060185
21
-0.110000
31
0.0
0
LINE
8
0
6
CONTINUOUS
10
0.061103
20
-0.109000
30
0.0
11
0.060185
21
-0.109000
31
0.0
0
LINE
8
0
6
CONTINUOUS
10
0.099109
20
-0.109000
30
0.0
11
0.092838
21
-0.109000
31
0.0
0
LINE
8
0
6
CONTINUOUS
10
0.073262
20
-0.109000
30
0.0
11
0.067832
21
-0.109000
31
0.0
0
LINE
8
0
6
CONTINUOUS
10
0.104538
20
-0.109000
30
0.0
11
0.099109
21
-0.109000
31
0.0
0
LINE
8
0
6
CONTINUOUS
10
0.073262
20
-0.114000
30
0.0
11
0.079532
21
-0.114000
31
0.0
0
LINE
8
0
6
CONTINUOUS
10
0.104538
20
-0.114000
30
0.0
11
0.108667
21
-0.114000
31
0.0
0
LINE
8
0
6
CONTINUOUS
10
0.086185
20
-0.109000
30
0.0
11
0.079532
21
-0.109000
31
0.0
0
LINE
8
0
6
CONTINUOUS
10
0.067832
20
-0.114000
30
0.0
11
0.073262
21
-0.114000
31
0.0
0
LINE
8
0
6
CONTINUOUS
10
0.108667
20
-0.109000
30
0.0
11
0.104538
21
-0.109000
31
0.0
0
LINE
8
0
6
CONTINUOUS
10
0.079532
20
-0.109000
30
0.0
11
0.073262
21
-0.109000
31
0.0
0
LINE
8
0
6
CONTINUOUS
10
0.089513
20
-0.109000
30
0.0
11
0.092633
21
-0.109000
31
0.0
0
LINE
8
0
6
CONTINUOUS
10
0.082857
20
-0.109000
30
0.0
11
0.086185
21
-0.109000
31
0.0
0
LINE
8
0
6
CONTINUOUS
10
0.073187
20
-0.108000
30
0.0
11
0.073185
21
-0.109000
31
0.0
0
LINE
8
0
6
CONTINUOUS
10
0.073185
20
-0.109000
30
0.0
11
0.073653
21
-0.109000
31
0.0
0
LINE
8
0
6
CONTINUOUS
10
0.092633
20
-0.109000
30
0.0
11
0.095389
21
-0.109000
31
0.0
0
LINE
8
0
6
CONTINUOUS
10
0.095389
20
-0.109000
30
0.0
11
0.097469
21
-0.109000
31
0.0
0
LINE
8
0
6
CONTINUOUS
10
0.092838
20
-0.109000
30
0.0
11
0.086185
21
-0.109000
31
0.0
0
LINE
8
0
6
CONTINUOUS
10
0.097469
20
-0.109000
30
0.0
11
0.098717
21
-0.109000
31
0.0
0
LINE
8
0
6
CONTINUOUS
10
0.067832
20
-0.109000
30
0.0
11
0.063703
21
-0.109000
31
0.0
0
LINE
8
0
6
CONTINUOUS
10
0.063703
20
-0.109000
30
0.0
11
0.061103
21
-0.109000
31
0.0
0
LINE
8
0
6
CONTINUOUS
10
0.111267
20
-0.109000
30
0.0
11
0.108667
21
-0.109000
31
0.0
0
LINE
8
0
6
CONTINUOUS
10
0.112185
20
-0.114000
30
0.0
11
0.112185
21
-0.113000
31
0.0
0
LINE
8
0
6
CONTINUOUS
10
0.111267
20
-0.114000
30
0.0
11
0.112185
21
-0.114000
31
0.0
0
LINE
8
0
6
CONTINUOUS
10
0.063703
20
-0.114000
30
0.0
11
0.067832
21
-0.114000
31
0.0
0
LINE
8
0
6
CONTINUOUS
10
0.061103
20
-0.114000
30
0.0
11
0.063703
21
-0.114000
31
0.0
0
LINE
8
0
6
CONTINUOUS
10
0.060185
20
-0.113000
30
0.0
11
0.060185
21
-0.114000
31
0.0
0
LINE
8
0
6
CONTINUOUS
10
0.060185
20
-0.114000
30
0.0
11
0.061103
21
-0.114000
31
0.0
0
LINE
8
0
6
CONTINUOUS
10
0.074901
20
-0.109000
30
0.0
11
0.076981
21
-0.109000
31
0.0
0
LINE
8
0
6
CONTINUOUS
10
0.073653
20
-0.109000
30
0.0
11
0.074901
21
-0.109000
31
0.0
0
LINE
8
0
6
CONTINUOUS
10
0.099109
20
-0.114000
30
0.0
11
0.104538
21
-0.114000
31
0.0
0
LINE
8
0
6
CONTINUOUS
10
0.099185
20
-0.109000
30
0.0
11
0.099185
21
-0.108000
31
0.0
0
LINE
8
0
6
CONTINUOUS
10
0.098717
20
-0.109000
30
0.0
11
0.099185
21
-0.109000
31
0.0
0
LINE
8
0
6
CONTINUOUS
10
0.076981
20
-0.109000
30
0.0
11
0.079737
21
-0.109000
31
0.0
0
LINE
8
0
6
CONTINUOUS
10
0.079737
20
-0.109000
30
0.0
11
0.082857
21
-0.109000
31
0.0
0
LINE
8
0
6
CONTINUOUS
10
0.086185
20
-0.109000
30
0.0
11
0.089513
21
-0.109000
31
0.0
0
LINE
8
0
6
CONTINUOUS
10
0.079532
20
-0.114000
30
0.0
11
0.086185
21
-0.114000
31
0.0
0
LINE
8
0
6
CONTINUOUS
10
0.092838
20
-0.114000
30
0.0
11
0.099109
21
-0.114000
31
0.0
0
LINE
8
0
6
CONTINUOUS
10
0.073205
20
-0.093931
30
0.0
11
0.073203
21
-0.096250
31
0.0
0
LINE
8
0
6
CONTINUOUS
10
0.073205
20
-0.093931
30
0.0
11
0.073630
21
-0.093815
31
0.0
0
LINE
8
0
6
CONTINUOUS
10
0.072259
20
-0.091747
30
0.0
11
0.073205
21
-0.093931
31
0.0
0
LINE
8
0
6
CONTINUOUS
10
0.099185
20
-0.090157
30
0.0
11
0.098309
21
-0.087957
31
0.0
0
LINE
8
0
6
CONTINUOUS
10
0.099185
20
-0.092477
30
0.0
11
0.099185
21
-0.090157
31
0.0
0
LINE
8
0
6
CONTINUOUS
10
0.112185
20
-0.113000
30
0.0
11
0.112185
21
-0.110000
31
0.0
0
LINE
8
0
6
CONTINUOUS
10
0.060185
20
-0.110000
30
0.0
11
0.060185
21
-0.113000
31
0.0
0
LINE
8
0
6
CONTINUOUS
10
0.099185
20
-0.108000
30
0.0
11
0.099185
21
-0.092477
31
0.0
0
LINE
8
0
6
CONTINUOUS
10
0.073203
20
-0.096250
30
0.0
11
0.073187
21
-0.108000
31
0.0
0
LINE
8
0
6
CONTINUOUS
10
0.068330
20
-0.082676
30
0.0
11
0.072259
21
-0.091747
31
0.0
0
LINE
8
0
6
CONTINUOUS
10
0.098309
20
-0.087957
30
0.0
11
0.091762
21
-0.071518
31
0.0
0
LINE
8
0
6
CONTINUOUS
10
0.110576
20
-0.032776
30
0.0
11
0.110576
21
-0.020253
31
0.0
0
LINE
8
0
6
CONTINUOUS
10
-0.093521
20
-0.006409
30
0.0
11
-0.091530
21
-0.006561
31
0.0
0
LINE
8
0
6
CONTINUOUS
10
-0.119079
20
0.017000
30
0.0
11
-0.121074
21
0.017000
31
0.0
0
LINE
8
0
6
CONTINUOUS
10
-0.123228
20
0.016008
30
0.0
11
-0.123813
21
0.017000
31
0.0
0
LINE
8
0
6
CONTINUOUS
10
-0.123813
20
0.017000
30
0.0
11
-0.123228
21
0.016008
31
0.0
0
LINE
8
0
6
CONTINUOUS
10
-0.121074
20
0.017000
30
0.0
11
-0.123248
21
0.017000
31
0.0
0
LINE
8
0
6
CONTINUOUS
10
-0.123248
20
0.017000
30
0.0
11
-0.123813
21
0.017000
31
0.0
0
LINE
8
0
6
CONTINUOUS
10
-0.122658
20
0.016013
30
0.0
11
-0.123248
21
0.017000
31
0.0
0
LINE
8
0
6
CONTINUOUS
10
-0.123813
20
0.017000
30
0.0
11
-0.123228
21
0.016008
31
0.0
0
LINE
8
0
6
CONTINUOUS
10
0.110576
20
0.017000
30
0.0
11
0.109843
21
0.017000
31
0.0
0
LINE
8
0
6
CONTINUOUS
10
0.110576
20
0.016349
30
0.0
11
0.110576
21
0.017000
31
0.0
0
LINE
8
0
6
CONTINUOUS
10
0.093172
20
0.017000
30
0.0
11
0.087165
21
0.017000
31
0.0
0
LINE
8
0
6
CONTINUOUS
10
0.107489
20
0.017000
30
0.0
11
0.103743
21
0.017000
31
0.0
0
LINE
8
0
6
CONTINUOUS
10
0.103743
20
0.017000
30
0.0
11
0.098859
21
0.017000
31
0.0
0
LINE
8
0
6
CONTINUOUS
10
0.098859
20
0.017000
30
0.0
11
0.093172
21
0.017000
31
0.0
0
LINE
8
0
6
CONTINUOUS
10
0.109843
20
0.017000
30
0.0
11
0.107489
21
0.017000
31
0.0
0
LINE
8
0
6
CONTINUOUS
10
0.087165
20
0.017000
30
0.0
11
0.074417
21
0.017000
31
0.0
0
LINE
8
0
6
CONTINUOUS
10
-0.117900
20
0.011705
30
0.0
11
-0.114037
21
0.007666
31
0.0
0
LINE
8
0
6
CONTINUOUS
10
0.110576
20
0.010571
30
0.0
11
0.110576
21
0.016349
31
0.0
0
LINE
8
0
6
CONTINUOUS
10
0.110576
20
0.000296
30
0.0
11
0.110576
21
0.010571
31
0.0
0
LINE
8
0
6
CONTINUOUS
10
0.074417
20
0.017000
30
0.0
11
0.061670
21
0.017000
31
0.0
0
LINE
8
0
6
CONTINUOUS
10
0.110576
20
-0.020253
30
0.0
11
0.110576
21
-0.009978
31
0.0
0
LINE
8
0
6
CONTINUOUS
10
0.110576
20
-0.009978
30
0.0
11
0.110576
21
0.000296
31
0.0
0
LINE
8
0
6
CONTINUOUS
10
0.110576
20
-0.036180
30
0.0
11
0.110576
21
-0.032776
31
0.0
0
LINE
8
0
6
CONTINUOUS
10
-0.117202
20
0.008057
30
0.0
11
-0.112922
21
0.004504
31
0.0
0
LINE
8
0
6
CONTINUOUS
10
-0.120123
20
0.011763
30
0.0
11
-0.122658
21
0.016013
31
0.0
0
LINE
8
0
6
CONTINUOUS
10
-0.123228
20
0.016008
30
0.0
11
-0.120830
21
0.011939
31
0.0
0
LINE
8
0
6
CONTINUOUS
10
-0.091530
20
-0.006561
30
0.0
11
0.034042
21
-0.013749
31
0.0
0
LINE
8
0
6
CONTINUOUS
10
-0.112922
20
0.004504
30
0.0
11
-0.108506
21
0.001517
31
0.0
0
LINE
8
0
6
CONTINUOUS
10
0.070463
20
-0.014548
30
0.0
11
0.068095
21
-0.008270
31
0.0
0
LINE
8
0
6
CONTINUOUS
10
-0.096047
20
-0.005944
30
0.0
11
-0.093521
21
-0.006409
31
0.0
0
LINE
8
0
6
CONTINUOUS
10
0.059810
20
-0.002561
30
0.0
11
0.068095
21
-0.008270
31
0.0
0
LINE
8
0
6
CONTINUOUS
10
-0.109071
20
0.003702
30
0.0
11
-0.114037
21
0.007666
31
0.0
0
LINE
8
0
6
CONTINUOUS
10
-0.116323
20
0.007766
30
0.0
11
-0.111507
21
0.003887
31
0.0
0
LINE
8
0
6
CONTINUOUS
10
0.070463
20
-0.014548
30
0.0
11
0.071398
21
-0.020604
31
0.0
0
LINE
8
0
6
CONTINUOUS
10
-0.101384
20
-0.002346
30
0.0
11
-0.106102
21
0.000410
31
0.0
0
LINE
8
0
6
CONTINUOUS
10
0.061670
20
0.017000
30
0.0
11
0.044708
21
0.017000
31
0.0
0
LINE
8
0
6
CONTINUOUS
10
0.019157
20
0.017000
30
0.0
11
-0.119079
21
0.017000
31
0.0
0
LINE
8
0
6
CONTINUOUS
10
-0.116323
20
0.007766
30
0.0
11
-0.120123
21
0.011763
31
0.0
0
LINE
8
0
6
CONTINUOUS
10
-0.120830
20
0.011939
30
0.0
11
-0.117202
21
0.008057
31
0.0
0
LINE
8
0
6
CONTINUOUS
10
-0.111507
20
0.003887
30
0.0
11
-0.106102
21
0.000410
31
0.0
0
LINE
8
0
6
CONTINUOUS
10
0.110576
20
-0.108000
30
0.0
11
0.110576
21
-0.042988
31
0.0
0
LINE
8
0
6
CONTINUOUS
10
0.110576
20
-0.037373
30
0.0
11
0.110576
21
-0.036180
31
0.0
0
LINE
8
0
6
CONTINUOUS
10
0.063754
20
-0.070852
30
0.0
11
0.063754
21
-0.108000
31
0.0
0
LINE
8
0
6
CONTINUOUS
10
0.123313
20
-0.037373
30
0.0
11
0.110576
21
-0.037373
31
0.0
0
LINE
8
0
6
CONTINUOUS
10
0.110576
20
-0.040180
30
0.0
11
0.123313
21
-0.040180
31
0.0
0
LINE
8
0
6
CONTINUOUS
10
0.123313
20
-0.038195
30
0.0
11
0.110337
21
-0.038195
31
0.0
0
LINE
8
0
6
CONTINUOUS
10
0.110576
20
-0.042988
30
0.0
11
0.123313
21
-0.042988
31
0.0
0
LINE
8
0
6
CONTINUOUS
10
0.123313
20
-0.042166
30
0.0
11
0.110337
21
-0.042166
31
0.0
0
LINE
8
0
6
CONTINUOUS
10
0.123813
20
-0.042988
30
0.0
11
0.123813
21
-0.042166
31
0.0
0
LINE
8
0
6
CONTINUOUS
10
0.123313
20
-0.042988
30
0.0
11
0.123813
21
-0.042988
31
0.0
0
LINE
8
0
6
CONTINUOUS
10
0.123813
20
-0.037373
30
0.0
11
0.123313
21
-0.037373
31
0.0
0
LINE
8
0
6
CONTINUOUS
10
0.123813
20
-0.038195
30
0.0
11
0.123813
21
-0.037373
31
0.0
0
LINE
8
0
6
CONTINUOUS
10
0.123813
20
-0.038195
30
0.0
11
0.123313
21
-0.038195
31
0.0
0
LINE
8
0
6
CONTINUOUS
10
0.123813
20
-0.040180
30
0.0
11
0.123813
21
-0.038195
31
0.0
0
LINE
8
0
6
CONTINUOUS
10
0.123813
20
-0.040180
30
0.0
11
0.123313
21
-0.040180
31
0.0
0
LINE
8
0
6
CONTINUOUS
10
0.123813
20
-0.042166
30
0.0
11
0.123813
21
-0.040180
31
0.0
0
LINE
8
0
6
CONTINUOUS
10
0.123313
20
-0.042166
30
0.0
11
0.123813
21
-0.042166
31
0.0
0
LINE
8
0
6
CONTINUOUS
10
-0.097534
20
-0.008586
30
0.0
11
-0.097289
21
-0.008150
31
0.0
0
LINE
8
0
6
CONTINUOUS
10
-0.098015
20
-0.008315
30
0.0
11
-0.097534
21
-0.008586
31
0.0
0
LINE
8
0
6
CONTINUOUS
10
-0.099411
20
-0.007529
30
0.0
11
-0.098015
21
-0.008315
31
0.0
0
LINE
8
0
6
CONTINUOUS
10
-0.101584
20
-0.006306
30
0.0
11
-0.099411
21
-0.007529
31
0.0
0
LINE
8
0
6
CONTINUOUS
10
-0.104322
20
-0.004764
30
0.0
11
-0.101584
21
-0.006306
31
0.0
0
LINE
8
0
6
CONTINUOUS
10
-0.107358
20
-0.003055
30
0.0
11
-0.104322
21
-0.004764
31
0.0
0
LINE
8
0
6
CONTINUOUS
10
-0.110394
20
-0.001346
30
0.0
11
-0.107358
21
-0.003055
31
0.0
0
LINE
8
0
6
CONTINUOUS
10
-0.113132
20
0.000196
30
0.0
11
-0.110394
21
-0.001346
31
0.0
0
LINE
8
0
6
CONTINUOUS
10
-0.115306
20
0.001420
30
0.0
11
-0.113132
21
0.000196
31
0.0
0
LINE
8
0
6
CONTINUOUS
10
-0.116701
20
0.002205
30
0.0
11
-0.115306
21
0.001420
31
0.0
0
LINE
8
0
6
CONTINUOUS
10
-0.117182
20
0.002476
30
0.0
11
-0.116701
21
0.002205
31
0.0
0
LINE
8
0
6
CONTINUOUS
10
-0.116936
20
0.002912
30
0.0
11
-0.117182
21
0.002476
31
0.0
0
LINE
8
0
6
CONTINUOUS
10
-0.115047
20
0.006268
30
0.0
11
-0.116936
21
0.002912
31
0.0
0
LINE
8
0
6
CONTINUOUS
10
-0.097289
20
-0.008150
30
0.0
11
-0.096047
21
-0.005944
31
0.0
0
LINE
8
0
6
CONTINUOUS
10
0.117719
20
-0.114000
30
0.0
11
0.120307
21
-0.114000
31
0.0
0
LINE
8
0
6
CONTINUOUS
10
0.121185
20
-0.114000
30
0.0
11
0.121185
21
-0.113734
31
0.0
0
LINE
8
0
6
CONTINUOUS
10
0.120307
20
-0.114000
30
0.0
11
0.121185
21
-0.114000
31
0.0
0
LINE
8
0
6
CONTINUOUS
10
0.051185
20
-0.113734
30
0.0
11
0.051185
21
-0.114000
31
0.0
0
LINE
8
0
6
CONTINUOUS
10
0.051185
20
-0.114000
30
0.0
11
0.052063
21
-0.114000
31
0.0
0
LINE
8
0
6
CONTINUOUS
10
0.052063
20
-0.114000
30
0.0
11
0.054651
21
-0.114000
31
0.0
0
LINE
8
0
6
CONTINUOUS
10
0.101371
20
-0.108000
30
0.0
11
0.101137
21
-0.108000
31
0.0
0
LINE
8
0
6
CONTINUOUS
10
0.108007
20
-0.108000
30
0.0
11
0.101371
21
-0.108000
31
0.0
0
LINE
8
0
6
CONTINUOUS
10
0.113549
20
-0.108000
30
0.0
11
0.108007
21
-0.108000
31
0.0
0
LINE
8
0
6
CONTINUOUS
10
0.117719
20
-0.108000
30
0.0
11
0.113549
21
-0.108000
31
0.0
0
LINE
8
0
6
CONTINUOUS
10
0.120307
20
-0.108000
30
0.0
11
0.117719
21
-0.108000
31
0.0
0
LINE
8
0
6
CONTINUOUS
10
0.121185
20
-0.108000
30
0.0
11
0.120307
21
-0.108000
31
0.0
0
LINE
8
0
6
CONTINUOUS
10
0.121185
20
-0.108266
30
0.0
11
0.121185
21
-0.108000
31
0.0
0
LINE
8
0
6
CONTINUOUS
10
0.052063
20
-0.108000
30
0.0
11
0.051185
21
-0.108000
31
0.0
0
LINE
8
0
6
CONTINUOUS
10
0.051185
20
-0.108000
30
0.0
11
0.051185
21
-0.108266
31
0.0
0
LINE
8
0
6
CONTINUOUS
10
0.054651
20
-0.108000
30
0.0
11
0.052063
21
-0.108000
31
0.0
0
LINE
8
0
6
CONTINUOUS
10
0.058821
20
-0.108000
30
0.0
11
0.054651
21
-0.108000
31
0.0
0
LINE
8
0
6
CONTINUOUS
10
0.064363
20
-0.108000
30
0.0
11
0.058821
21
-0.108000
31
0.0
0
LINE
8
0
6
CONTINUOUS
10
0.070999
20
-0.108000
30
0.0
11
0.064363
21
-0.108000
31
0.0
0
LINE
8
0
6
CONTINUOUS
10
0.071233
20
-0.108000
30
0.0
11
0.070999
21
-0.108000
31
0.0
0
LINE
8
0
6
CONTINUOUS
10
0.051185
20
-0.108266
30
0.0
11
0.051185
21
-0.113734
31
0.0
0
LINE
8
0
6
CONTINUOUS
10
0.121185
20
-0.113734
30
0.0
11
0.121185
21
-0.108266
31
0.0
0
LINE
8
0
6
CONTINUOUS
10
0.071233
20
-0.105557
30
0.0
11
0.071233
21
-0.108000
31
0.0
0
LINE
8
0
6
CONTINUOUS
10
0.083654
20
-0.047673
30
0.0
11
0.086185
21
-0.047673
31
0.0
0
LINE
8
0
6
CONTINUOUS
10
0.079165
20
-0.048794
30
0.0
11
0.078665
21
-0.048017
31
0.0
0
LINE
8
0
6
CONTINUOUS
10
0.079165
20
-0.048794
30
0.0
11
0.079113
21
-0.048846
31
0.0
0
LINE
8
0
6
CONTINUOUS
10
0.078665
20
-0.048017
30
0.0
11
0.081123
21
-0.047673
31
0.0
0
LINE
8
0
6
CONTINUOUS
10
0.078655
20
-0.047970
30
0.0
11
0.078329
21
-0.046451
31
0.0
0
LINE
8
0
6
CONTINUOUS
10
0.086185
20
-0.046001
30
0.0
11
0.083544
21
-0.046001
31
0.0
0
LINE
8
0
6
CONTINUOUS
10
0.081123
20
-0.047673
30
0.0
11
0.083654
21
-0.047673
31
0.0
0
LINE
8
0
6
CONTINUOUS
10
0.081123
20
-0.046466
30
0.0
11
0.081123
21
-0.047673
31
0.0
0
LINE
8
0
6
CONTINUOUS
10
0.081123
20
-0.046001
30
0.0
11
0.078249
21
-0.046001
31
0.0
0
LINE
8
0
6
CONTINUOUS
10
0.078329
20
-0.046451
30
0.0
11
0.078249
21
-0.046001
31
0.0
0
LINE
8
0
6
CONTINUOUS
10
0.078249
20
-0.046001
30
0.0
11
0.077625
21
-0.046001
31
0.0
0
LINE
8
0
6
CONTINUOUS
10
0.083654
20
-0.046001
30
0.0
11
0.081123
21
-0.046001
31
0.0
0
LINE
8
0
6
CONTINUOUS
10
0.086185
20
-0.046001
30
0.0
11
0.083654
21
-0.046001
31
0.0
0
LINE
8
0
6
CONTINUOUS
10
0.097046
20
-0.051709
30
0.0
11
0.095941
21
-0.050947
31
0.0
0
LINE
8
0
6
CONTINUOUS
10
0.101137
20
-0.061837
30
0.0
11
0.101137
21
-0.059619
31
0.0
0
LINE
8
0
6
CONTINUOUS
10
0.101137
20
-0.108000
30
0.0
11
0.101137
21
-0.105557
31
0.0
0
LINE
8
0
6
CONTINUOUS
10
0.096738
20
-0.055175
30
0.0
11
0.099107
21
-0.055175
31
0.0
0
LINE
8
0
6
CONTINUOUS
10
0.098516
20
-0.052276
30
0.0
11
0.099107
21
-0.055175
31
0.0
0
LINE
8
0
6
CONTINUOUS
10
0.093630
20
-0.055175
30
0.0
11
0.096738
21
-0.055175
31
0.0
0
LINE
8
0
6
CONTINUOUS
10
0.093705
20
-0.054305
30
0.0
11
0.096738
21
-0.055175
31
0.0
0
LINE
8
0
6
CONTINUOUS
10
0.090040
20
-0.055175
30
0.0
11
0.093630
21
-0.055175
31
0.0
0
LINE
8
0
6
CONTINUOUS
10
0.101137
20
-0.067662
30
0.0
11
0.101137
21
-0.061837
31
0.0
0
LINE
8
0
6
CONTINUOUS
10
0.097274
20
-0.049160
30
0.0
11
0.097973
21
-0.049943
31
0.0
0
LINE
8
0
6
CONTINUOUS
10
0.093986
20
-0.049576
30
0.0
11
0.094838
21
-0.050483
31
0.0
0
LINE
8
0
6
CONTINUOUS
10
0.086185
20
-0.047673
30
0.0
11
0.088716
21
-0.047673
31
0.0
0
LINE
8
0
6
CONTINUOUS
10
0.101137
20
-0.057400
30
0.0
11
0.101137
21
-0.055175
31
0.0
0
LINE
8
0
6
CONTINUOUS
10
0.093705
20
-0.048017
30
0.0
11
0.093205
21
-0.048794
31
0.0
0
LINE
8
0
6
CONTINUOUS
10
0.093986
20
-0.049576
30
0.0
11
0.093205
21
-0.048794
31
0.0
0
LINE
8
0
6
CONTINUOUS
10
0.101137
20
-0.059619
30
0.0
11
0.101137
21
-0.057400
31
0.0
0
LINE
8
0
6
CONTINUOUS
10
0.091247
20
-0.047673
30
0.0
11
0.093705
21
-0.048017
31
0.0
0
LINE
8
0
6
CONTINUOUS
10
0.093705
20
-0.048017
30
0.0
11
0.095484
21
-0.048540
31
0.0
0
LINE
8
0
6
CONTINUOUS
10
0.094041
20
-0.046451
30
0.0
11
0.093705
21
-0.048017
31
0.0
0
LINE
8
0
6
CONTINUOUS
10
0.088826
20
-0.046001
30
0.0
11
0.086185
21
-0.046001
31
0.0
0
LINE
8
0
6
CONTINUOUS
10
0.100614
20
-0.046001
30
0.0
11
0.100079
21
-0.046001
31
0.0
0
LINE
8
0
6
CONTINUOUS
10
0.096313
20
-0.046001
30
0.0
11
0.100614
21
-0.046001
31
0.0
0
LINE
8
0
6
CONTINUOUS
10
0.096535
20
-0.046001
30
0.0
11
0.096313
21
-0.046001
31
0.0
0
LINE
8
0
6
CONTINUOUS
10
0.100079
20
-0.046001
30
0.0
11
0.096535
21
-0.046001
31
0.0
0
LINE
8
0
6
CONTINUOUS
10
0.095484
20
-0.048540
30
0.0
11
0.096611
21
-0.049059
31
0.0
0
LINE
8
0
6
CONTINUOUS
10
0.096178
20
-0.046448
30
0.0
11
0.095484
21
-0.048540
31
0.0
0
LINE
8
0
6
CONTINUOUS
10
0.097274
20
-0.049160
30
0.0
11
0.096611
21
-0.049059
31
0.0
0
LINE
8
0
6
CONTINUOUS
10
0.094838
20
-0.050483
30
0.0
11
0.095941
21
-0.050947
31
0.0
0
LINE
8
0
6
CONTINUOUS
10
0.091247
20
-0.047673
30
0.0
11
0.091247
21
-0.046466
31
0.0
0
LINE
8
0
6
CONTINUOUS
10
0.088716
20
-0.047673
30
0.0
11
0.091247
21
-0.047673
31
0.0
0
LINE
8
0
6
CONTINUOUS
10
0.094121
20
-0.046001
30
0.0
11
0.091247
21
-0.046001
31
0.0
0
LINE
8
0
6
CONTINUOUS
10
0.096302
20
-0.046001
30
0.0
11
0.094121
21
-0.046001
31
0.0
0
LINE
8
0
6
CONTINUOUS
10
0.094121
20
-0.046001
30
0.0
11
0.094041
21
-0.046451
31
0.0
0
LINE
8
0
6
CONTINUOUS
10
0.091247
20
-0.046001
30
0.0
11
0.088716
21
-0.046001
31
0.0
0
LINE
8
0
6
CONTINUOUS
10
0.101137
20
-0.046001
30
0.0
11
0.100867
21
-0.046001
31
0.0
0
LINE
8
0
6
CONTINUOUS
10
0.101137
20
-0.046435
30
0.0
11
0.101137
21
-0.046001
31
0.0
0
LINE
8
0
6
CONTINUOUS
10
0.098460
20
-0.046001
30
0.0
11
0.097862
21
-0.046001
31
0.0
0
LINE
8
0
6
CONTINUOUS
10
0.088716
20
-0.046001
30
0.0
11
0.086185
21
-0.046001
31
0.0
0
LINE
8
0
6
CONTINUOUS
10
0.099657
20
-0.046001
30
0.0
11
0.099258
21
-0.046001
31
0.0
0
LINE
8
0
6
CONTINUOUS
10
0.096302
20
-0.046001
30
0.0
11
0.096178
21
-0.046448
31
0.0
0
LINE
8
0
6
CONTINUOUS
10
0.097263
20
-0.046001
30
0.0
11
0.096302
21
-0.046001
31
0.0
0
LINE
8
0
6
CONTINUOUS
10
0.097862
20
-0.046001
30
0.0
11
0.097263
21
-0.046001
31
0.0
0
LINE
8
0
6
CONTINUOUS
10
0.099258
20
-0.046001
30
0.0
11
0.098859
21
-0.046001
31
0.0
0
LINE
8
0
6
CONTINUOUS
10
0.098859
20
-0.046001
30
0.0
11
0.098460
21
-0.046001
31
0.0
0
LINE
8
0
6
CONTINUOUS
10
0.097046
20
-0.051709
30
0.0
11
0.097787
21
-0.051974
31
0.0
0
LINE
8
0
6
CONTINUOUS
10
0.097973
20
-0.049943
30
0.0
11
0.098523
21
-0.050024
31
0.0
0
LINE
8
0
6
CONTINUOUS
10
0.098516
20
-0.052276
30
0.0
11
0.097787
21
-0.051974
31
0.0
0
LINE
8
0
6
CONTINUOUS
10
0.100867
20
-0.046001
30
0.0
11
0.100262
21
-0.046001
31
0.0
0
LINE
8
0
6
CONTINUOUS
10
0.101137
20
-0.050401
30
0.0
11
0.101137
21
-0.046435
31
0.0
0
LINE
8
0
6
CONTINUOUS
10
0.101137
20
-0.052964
30
0.0
11
0.101137
21
-0.050401
31
0.0
0
LINE
8
0
6
CONTINUOUS
10
0.100262
20
-0.046001
30
0.0
11
0.099657
21
-0.046001
31
0.0
0
LINE
8
0
6
CONTINUOUS
10
0.101137
20
-0.055175
30
0.0
11
0.101137
21
-0.052964
31
0.0
0
LINE
8
0
6
CONTINUOUS
10
0.101137
20
-0.105042
30
0.0
11
0.101137
21
-0.067662
31
0.0
0
LINE
8
0
6
CONTINUOUS
10
0.071233
20
-0.089377
30
0.0
11
0.071233
21
-0.105042
31
0.0
0
LINE
8
0
6
CONTINUOUS
10
0.100628
20
-0.105170
30
0.0
11
0.099185
21
-0.105170
31
0.0
0
LINE
8
0
6
CONTINUOUS
10
0.100145
20
-0.105299
30
0.0
11
0.099185
21
-0.105299
31
0.0
0
LINE
8
0
6
CONTINUOUS
10
0.100628
20
-0.105428
30
0.0
11
0.099185
21
-0.105428
31
0.0
0
LINE
8
0
6
CONTINUOUS
10
0.101137
20
-0.105170
30
0.0
11
0.101137
21
-0.105042
31
0.0
0
LINE
8
0
6
CONTINUOUS
10
0.100637
20
-0.105299
30
0.0
11
0.101137
21
-0.105170
31
0.0
0
LINE
8
0
6
CONTINUOUS
10
0.101137
20
-0.105170
30
0.0
11
0.100628
21
-0.105170
31
0.0
0
LINE
8
0
6
CONTINUOUS
10
0.101137
20
-0.105428
30
0.0
11
0.100637
21
-0.105299
31
0.0
0
LINE
8
0
6
CONTINUOUS
10
0.100637
20
-0.105299
30
0.0
11
0.100145
21
-0.105299
31
0.0
0
LINE
8
0
6
CONTINUOUS
10
0.101137
20
-0.105557
30
0.0
11
0.101137
21
-0.105428
31
0.0
0
LINE
8
0
6
CONTINUOUS
10
0.101137
20
-0.105428
30
0.0
11
0.100628
21
-0.105428
31
0.0
0
LINE
8
0
6
CONTINUOUS
10
0.073191
20
-0.105170
30
0.0
11
0.071742
21
-0.105170
31
0.0
0
LINE
8
0
6
CONTINUOUS
10
0.073190
20
-0.105299
30
0.0
11
0.072225
21
-0.105299
31
0.0
0
LINE
8
0
6
CONTINUOUS
10
0.073190
20
-0.105428
30
0.0
11
0.071742
21
-0.105428
31
0.0
0
LINE
8
0
6
CONTINUOUS
10
0.071233
20
-0.105042
30
0.0
11
0.071233
21
-0.105170
31
0.0
0
LINE
8
0
6
CONTINUOUS
10
0.071233
20
-0.105170
30
0.0
11
0.071733
21
-0.105299
31
0.0
0
LINE
8
0
6
CONTINUOUS
10
0.071742
20
-0.105170
30
0.0
11
0.071233
21
-0.105170
31
0.0
0
LINE
8
0
6
CONTINUOUS
10
0.071733
20
-0.105299
30
0.0
11
0.071233
21
-0.105428
31
0.0
0
LINE
8
0
6
CONTINUOUS
10
0.072225
20
-0.105299
30
0.0
11
0.071733
21
-0.105299
31
0.0
0
LINE
8
0
6
CONTINUOUS
10
0.071233
20
-0.105428
30
0.0
11
0.071233
21
-0.105557
31
0.0
0
LINE
8
0
6
CONTINUOUS
10
0.071742
20
-0.105428
30
0.0
11
0.071233
21
-0.105428
31
0.0
0
LINE
8
0
6
CONTINUOUS
10
0.113214
20
-0.114000
30
0.0
11
0.115433
21
-0.114000
31
0.0
0
LINE
8
0
6
CONTINUOUS
10
0.116185
20
-0.114000
30
0.0
11
0.116185
21
-0.113734
31
0.0
0
LINE
8
0
6
CONTINUOUS
10
0.115433
20
-0.114000
30
0.0
11
0.116185
21
-0.114000
31
0.0
0
LINE
8
0
6
CONTINUOUS
10
0.056185
20
-0.113734
30
0.0
11
0.056185
21
-0.114000
31
0.0
0
LINE
8
0
6
CONTINUOUS
10
0.056185
20
-0.114000
30
0.0
11
0.056937
21
-0.114000
31
0.0
0
LINE
8
0
6
CONTINUOUS
10
0.056937
20
-0.114000
30
0.0
11
0.059156
21
-0.114000
31
0.0
0
LINE
8
0
6
CONTINUOUS
10
0.104890
20
-0.108000
30
0.0
11
0.099201
21
-0.108000
31
0.0
0
LINE
8
0
6
CONTINUOUS
10
0.109640
20
-0.108000
30
0.0
11
0.104890
21
-0.108000
31
0.0
0
LINE
8
0
6
CONTINUOUS
10
0.113214
20
-0.108000
30
0.0
11
0.109640
21
-0.108000
31
0.0
0
LINE
8
0
6
CONTINUOUS
10
0.115433
20
-0.108000
30
0.0
11
0.113214
21
-0.108000
31
0.0
0
LINE
8
0
6
CONTINUOUS
10
0.116185
20
-0.108000
30
0.0
11
0.115433
21
-0.108000
31
0.0
0
LINE
8
0
6
CONTINUOUS
10
0.116185
20
-0.108266
30
0.0
11
0.116185
21
-0.108000
31
0.0
0
LINE
8
0
6
CONTINUOUS
10
0.056937
20
-0.108000
30
0.0
11
0.056185
21
-0.108000
31
0.0
0
LINE
8
0
6
CONTINUOUS
10
0.056185
20
-0.108000
30
0.0
11
0.056185
21
-0.108266
31
0.0
0
LINE
8
0
6
CONTINUOUS
10
0.059156
20
-0.108000
30
0.0
11
0.056937
21
-0.108000
31
0.0
0
LINE
8
0
6
CONTINUOUS
10
0.062730
20
-0.108000
30
0.0
11
0.059156
21
-0.108000
31
0.0
0
LINE
8
0
6
CONTINUOUS
10
0.067480
20
-0.108000
30
0.0
11
0.062730
21
-0.108000
31
0.0
0
LINE
8
0
6
CONTINUOUS
10
0.073168
20
-0.108000
30
0.0
11
0.067480
21
-0.108000
31
0.0
0
LINE
8
0
6
CONTINUOUS
10
0.056185
20
-0.108266
30
0.0
11
0.056185
21
-0.113734
31
0.0
0
LINE
8
0
6
CONTINUOUS
10
0.116185
20
-0.113734
30
0.0
11
0.116185
21
-0.108266
31
0.0
0
LINE
8
0
6
CONTINUOUS
10
0.113214
20
-0.108000
30
0.0
11
0.110576
21
-0.108000
31
0.0
0
LINE
8
0
6
CONTINUOUS
10
0.115433
20
-0.108000
30
0.0
11
0.113214
21
-0.108000
31
0.0
0
LINE
8
0
6
CONTINUOUS
10
0.116185
20
-0.108000
30
0.0
11
0.115433
21
-0.108000
31
0.0
0
LINE
8
0
6
CONTINUOUS
10
0.056937
20
-0.108000
30
0.0
11
0.056185
21
-0.108000
31
0.0
0
LINE
8
0
6
CONTINUOUS
10
0.059156
20
-0.108000
30
0.0
11
0.056937
21
-0.108000
31
0.0
0
LINE
8
0
6
CONTINUOUS
10
0.062730
20
-0.108000
30
0.0
11
0.059156
21
-0.108000
31
0.0
0
LINE
8
0
6
CONTINUOUS
10
0.063754
20
-0.108000
30
0.0
11
0.062730
21
-0.108000
31
0.0
0
LINE
8
0
6
CONTINUOUS
10
0.110576
20
-0.037373
30
0.0
11
0.110337
21
-0.038195
31
0.0
0
LINE
8
0
6
CONTINUOUS
10
-0.096100
20
-0.005842
30
0.0
11
-0.096355
21
-0.005367
31
0.0
0
LINE
8
0
6
CONTINUOUS
10
-0.096355
20
-0.005367
30
0.0
11
-0.097454
21
-0.004816
31
0.0
0
LINE
8
0
6
CONTINUOUS
10
0.003736
20
0.036729
30
0.0
11
0.004495
21
0.036189
31
0.0
0
LINE
8
0
6
CONTINUOUS
10
-0.102053
20
-0.002029
30
0.0
11
-0.101280
21
-0.002459
31
0.0
0
LINE
8
0
6
CONTINUOUS
10
-0.046285
20
0.073697
30
0.0
11
-0.046241
21
0.073697
31
0.0
0
LINE
8
0
6
CONTINUOUS
10
-0.055754
20
0.085300
30
0.0
11
-0.055580
21
0.085401
31
0.0
0
LINE
8
0
6
CONTINUOUS
10
-0.102608
20
-0.001720
30
0.0
11
-0.102053
21
-0.002029
31
0.0
0
LINE
8
0
6
CONTINUOUS
10
-0.104922
20
-0.000491
30
0.0
11
-0.102608
21
-0.001720
31
0.0
0
LINE
8
0
6
CONTINUOUS
10
-0.018760
20
0.050458
30
0.0
11
-0.017428
21
0.049528
31
0.0
0
LINE
8
0
6
CONTINUOUS
10
-0.096047
20
-0.005944
30
0.0
11
-0.096100
21
-0.005842
31
0.0
0
LINE
8
0
6
CONTINUOUS
10
-0.046863
20
0.077680
30
0.0
11
-0.047499
21
0.078753
31
0.0
0
LINE
8
0
6
CONTINUOUS
10
-0.049137
20
0.079914
30
0.0
11
-0.048886
21
0.079892
31
0.0
0
LINE
8
0
6
CONTINUOUS
10
-0.039098
20
0.071736
30
0.0
11
-0.038386
21
0.071435
31
0.0
0
LINE
8
0
6
CONTINUOUS
10
-0.032811
20
0.068709
30
0.0
11
-0.033000
21
0.069359
31
0.0
0
LINE
8
0
6
CONTINUOUS
10
-0.032293
20
0.061969
30
0.0
11
-0.032672
21
0.062429
31
0.0
0
LINE
8
0
6
CONTINUOUS
10
-0.021898
20
0.052377
30
0.0
11
-0.022305
21
0.052745
31
0.0
0
LINE
8
0
6
CONTINUOUS
10
-0.055660
20
0.087752
30
0.0
11
-0.054522
21
0.086637
31
0.0
0
LINE
8
0
6
CONTINUOUS
10
-0.044230
20
0.071657
30
0.0
11
-0.045189
21
0.072678
31
0.0
0
LINE
8
0
6
CONTINUOUS
10
-0.022892
20
0.053231
30
0.0
11
-0.023645
21
0.053824
31
0.0
0
LINE
8
0
6
CONTINUOUS
10
-0.001970
20
0.042770
30
0.0
11
-0.001070
21
0.042242
31
0.0
0
LINE
8
0
6
CONTINUOUS
10
-0.022305
20
0.052745
30
0.0
11
-0.022892
21
0.053231
31
0.0
0
LINE
8
0
6
CONTINUOUS
10
-0.017016
20
0.052669
30
0.0
11
-0.016369
21
0.052578
31
0.0
0
LINE
8
0
6
CONTINUOUS
10
-0.036865
20
0.069944
30
0.0
11
-0.037145
21
0.070357
31
0.0
0
LINE
8
0
6
CONTINUOUS
10
0.004597
20
0.035995
30
0.0
11
0.004495
21
0.036189
31
0.0
0
LINE
8
0
6
CONTINUOUS
10
0.004856
20
0.035749
30
0.0
11
0.004597
21
0.035995
31
0.0
0
LINE
8
0
6
CONTINUOUS
10
-0.003587
20
0.040323
30
0.0
11
-0.002596
21
0.039662
31
0.0
0
LINE
8
0
6
CONTINUOUS
10
-0.002596
20
0.039662
30
0.0
11
-0.002409
21
0.039550
31
0.0
0
LINE
8
0
6
CONTINUOUS
10
-0.059904
20
0.090593
30
0.0
11
-0.060510
21
0.091382
31
0.0
0
LINE
8
0
6
CONTINUOUS
10
-0.060510
20
0.091382
30
0.0
11
-0.060854
21
0.091871
31
0.0
0
LINE
8
0
6
CONTINUOUS
10
-0.024883
20
0.059837
30
0.0
11
-0.025063
21
0.060220
31
0.0
0
ENDSEC
0
EOF
