999
Erzeugt mit innoplus bad 
0
SECTION
2
HEADER
9
$ACADVER
1
AC1009
9
$DWGCODEPAGE
3
ISO8859-1
0
ENDSEC
0
SECTION
2
TABLES
0
TABLE
2
LAYER
70
1
0
LAYER
2
0
70
0
62
7
6
CONTINUOUS
0
ENDTAB
0
ENDSEC
0
SECTION
2
ENTITIES
0
LINE
8
0
6
CONTINUOUS
10
62.239000
20
76.630500
30
0.0
11
-54.012000
21
76.630500
31
0.0
0
LINE
8
0
6
CONTINUOUS
10
62.376000
20
76.630500
30
0.0
11
62.239000
21
76.630500
31
0.0
0
LINE
8
0
6
CONTINUOUS
10
63.299000
20
76.630500
30
0.0
11
62.376000
21
76.630500
31
0.0
0
LINE
8
0
6
CONTINUOUS
10
63.985000
20
76.630500
30
0.0
11
63.692000
21
76.630500
31
0.0
0
LINE
8
0
6
CONTINUOUS
10
63.299000
20
72.630500
30
0.0
11
63.409000
21
73.618500
31
0.0
0
LINE
8
0
6
CONTINUOUS
10
63.692000
20
76.630500
30
0.0
11
63.985000
21
76.630500
31
0.0
0
LINE
8
0
6
CONTINUOUS
10
-62.093000
20
76.630500
30
0.0
11
-59.883000
21
76.630500
31
0.0
0
LINE
8
0
6
CONTINUOUS
10
-64.001000
20
76.630500
30
0.0
11
-63.512000
21
76.630500
31
0.0
0
LINE
8
0
6
CONTINUOUS
10
-63.512000
20
76.630500
30
0.0
11
-62.093000
21
76.630500
31
0.0
0
LINE
8
0
6
CONTINUOUS
10
-54.012000
20
76.630500
30
0.0
11
62.239000
21
76.630500
31
0.0
0
LINE
8
0
6
CONTINUOUS
10
62.376000
20
76.630500
30
0.0
11
63.299000
21
76.630500
31
0.0
0
LINE
8
0
6
CONTINUOUS
10
62.239000
20
76.630500
30
0.0
11
62.376000
21
76.630500
31
0.0
0
LINE
8
0
6
CONTINUOUS
10
-59.883000
20
76.630500
30
0.0
11
-62.093000
21
76.630500
31
0.0
0
LINE
8
0
6
CONTINUOUS
10
-62.093000
20
76.630500
30
0.0
11
-63.512000
21
76.630500
31
0.0
0
LINE
8
0
6
CONTINUOUS
10
-63.512000
20
76.630500
30
0.0
11
-64.001000
21
76.630500
31
0.0
0
LINE
8
0
6
CONTINUOUS
10
-54.012000
20
76.630500
30
0.0
11
-57.098000
21
76.630500
31
0.0
0
LINE
8
0
6
CONTINUOUS
10
-57.098000
20
76.630500
30
0.0
11
-59.883000
21
76.630500
31
0.0
0
LINE
8
0
6
CONTINUOUS
10
-64.500000
20
74.630500
30
0.0
11
-64.001000
21
76.630500
31
0.0
0
LINE
8
0
6
CONTINUOUS
10
-64.001000
20
72.630500
30
0.0
11
-64.500000
21
74.630500
31
0.0
0
LINE
8
0
6
CONTINUOUS
10
63.409000
20
73.618500
30
0.0
11
63.299000
21
72.630500
31
0.0
0
LINE
8
0
6
CONTINUOUS
10
63.692000
20
76.630500
30
0.0
11
63.299000
21
76.630500
31
0.0
0
LINE
8
0
6
CONTINUOUS
10
64.146000
20
72.932500
30
0.0
11
64.001000
21
72.630500
31
0.0
0
LINE
8
0
6
CONTINUOUS
10
64.500000
20
74.630500
30
0.0
11
64.146000
21
72.932500
31
0.0
0
LINE
8
0
6
CONTINUOUS
10
64.146000
20
76.327500
30
0.0
11
64.500000
21
74.630500
31
0.0
0
LINE
8
0
6
CONTINUOUS
10
64.001000
20
76.630500
30
0.0
11
64.146000
21
76.327500
31
0.0
0
LINE
8
0
6
CONTINUOUS
10
-59.883000
20
76.630500
30
0.0
11
-57.098000
21
76.630500
31
0.0
0
LINE
8
0
6
CONTINUOUS
10
-57.098000
20
76.630500
30
0.0
11
-54.012000
21
76.630500
31
0.0
0
LINE
8
0
6
CONTINUOUS
10
63.299000
20
76.630500
30
0.0
11
63.692000
21
76.630500
31
0.0
0
LINE
8
0
6
CONTINUOUS
10
-20.559000
20
61.689300
30
0.0
11
-21.459000
21
60.489300
31
0.0
0
LINE
8
0
6
CONTINUOUS
10
-21.459000
20
60.489300
30
0.0
11
-22.023000
21
59.112900
31
0.0
0
LINE
8
0
6
CONTINUOUS
10
-22.023000
20
59.112900
30
0.0
11
-22.235000
21
57.630500
31
0.0
0
LINE
8
0
6
CONTINUOUS
10
-21.459000
20
60.489300
30
0.0
11
-20.559000
21
61.689300
31
0.0
0
LINE
8
0
6
CONTINUOUS
10
-22.023000
20
59.112900
30
0.0
11
-21.459000
21
60.489300
31
0.0
0
LINE
8
0
6
CONTINUOUS
10
-22.235000
20
57.630500
30
0.0
11
-22.023000
21
59.112900
31
0.0
0
LINE
8
0
6
CONTINUOUS
10
-21.688000
20
60.612900
30
0.0
11
-20.735000
21
61.865800
31
0.0
0
LINE
8
0
6
CONTINUOUS
10
-21.688000
20
60.612900
30
0.0
11
-22.288000
21
59.165800
31
0.0
0
LINE
8
0
6
CONTINUOUS
10
-22.288000
20
59.165800
30
0.0
11
-21.688000
21
60.612900
31
0.0
0
LINE
8
0
6
CONTINUOUS
10
-22.500000
20
57.630500
30
0.0
11
-22.288000
21
59.165800
31
0.0
0
LINE
8
0
6
CONTINUOUS
10
-22.288000
20
59.165800
30
0.0
11
-21.688000
21
60.612900
31
0.0
0
LINE
8
0
6
CONTINUOUS
10
-19.359000
20
62.589300
30
0.0
11
-20.559000
21
61.689300
31
0.0
0
LINE
8
0
6
CONTINUOUS
10
-17.982000
20
63.154000
30
0.0
11
-19.359000
21
62.589300
31
0.0
0
LINE
8
0
6
CONTINUOUS
10
-16.500000
20
63.365800
30
0.0
11
-17.982000
21
63.154000
31
0.0
0
LINE
8
0
6
CONTINUOUS
10
-20.559000
20
61.689300
30
0.0
11
-19.359000
21
62.589300
31
0.0
0
LINE
8
0
6
CONTINUOUS
10
-19.359000
20
62.589300
30
0.0
11
-17.982000
21
63.154000
31
0.0
0
LINE
8
0
6
CONTINUOUS
10
-17.982000
20
63.154000
30
0.0
11
-16.500000
21
63.365800
31
0.0
0
LINE
8
0
6
CONTINUOUS
10
-20.735000
20
61.865800
30
0.0
11
-19.482000
21
62.818700
31
0.0
0
LINE
8
0
6
CONTINUOUS
10
-19.482000
20
62.818700
30
0.0
11
-18.035000
21
63.418700
31
0.0
0
LINE
8
0
6
CONTINUOUS
10
-18.035000
20
63.418700
30
0.0
11
-16.500000
21
63.630500
31
0.0
0
LINE
8
0
6
CONTINUOUS
10
-21.459000
20
26.771700
30
0.0
11
-20.559000
21
25.571700
31
0.0
0
LINE
8
0
6
CONTINUOUS
10
-22.023000
20
28.148100
30
0.0
11
-21.459000
21
26.771700
31
0.0
0
LINE
8
0
6
CONTINUOUS
10
-22.235000
20
29.630500
30
0.0
11
-22.023000
21
28.148100
31
0.0
0
LINE
8
0
6
CONTINUOUS
10
-20.559000
20
25.571700
30
0.0
11
-21.459000
21
26.771700
31
0.0
0
LINE
8
0
6
CONTINUOUS
10
-21.459000
20
26.771700
30
0.0
11
-22.023000
21
28.148100
31
0.0
0
LINE
8
0
6
CONTINUOUS
10
-22.023000
20
28.148100
30
0.0
11
-22.235000
21
29.630500
31
0.0
0
LINE
8
0
6
CONTINUOUS
10
-20.735000
20
25.395200
30
0.0
11
-21.688000
21
26.648100
31
0.0
0
LINE
8
0
6
CONTINUOUS
10
-21.688000
20
26.648100
30
0.0
11
-22.288000
21
28.095200
31
0.0
0
LINE
8
0
6
CONTINUOUS
10
-22.288000
20
28.095200
30
0.0
11
-22.500000
21
29.630500
31
0.0
0
LINE
8
0
6
CONTINUOUS
10
-20.559000
20
25.571700
30
0.0
11
-19.359000
21
24.671700
31
0.0
0
LINE
8
0
6
CONTINUOUS
10
-19.359000
20
24.671700
30
0.0
11
-17.982000
21
24.107000
31
0.0
0
LINE
8
0
6
CONTINUOUS
10
-17.982000
20
24.107000
30
0.0
11
-16.500000
21
23.895200
31
0.0
0
LINE
8
0
6
CONTINUOUS
10
-19.359000
20
24.671700
30
0.0
11
-20.559000
21
25.571700
31
0.0
0
LINE
8
0
6
CONTINUOUS
10
-17.982000
20
24.107000
30
0.0
11
-19.359000
21
24.671700
31
0.0
0
LINE
8
0
6
CONTINUOUS
10
-16.500000
20
23.895200
30
0.0
11
-17.982000
21
24.107000
31
0.0
0
LINE
8
0
6
CONTINUOUS
10
-19.482000
20
24.442300
30
0.0
11
-20.735000
21
25.395200
31
0.0
0
LINE
8
0
6
CONTINUOUS
10
-18.035000
20
23.842300
30
0.0
11
-19.482000
21
24.442300
31
0.0
0
LINE
8
0
6
CONTINUOUS
10
-16.500000
20
23.630500
30
0.0
11
-18.035000
21
23.842300
31
0.0
0
LINE
8
0
6
CONTINUOUS
10
-19.206000
20
18.630500
30
0.0
11
-19.806000
21
18.630500
31
0.0
0
LINE
8
0
6
CONTINUOUS
10
-19.806000
20
18.630500
30
0.0
11
-20.182000
21
18.630500
31
0.0
0
LINE
8
0
6
CONTINUOUS
10
-20.182000
20
18.630500
30
0.0
11
-20.324000
21
18.630500
31
0.0
0
LINE
8
0
6
CONTINUOUS
10
-19.806000
20
18.630500
30
0.0
11
-19.206000
21
18.630500
31
0.0
0
LINE
8
0
6
CONTINUOUS
10
-20.182000
20
18.630500
30
0.0
11
-19.806000
21
18.630500
31
0.0
0
LINE
8
0
6
CONTINUOUS
10
-20.324000
20
18.630500
30
0.0
11
-20.182000
21
18.630500
31
0.0
0
LINE
8
0
6
CONTINUOUS
10
-18.406000
20
18.630500
30
0.0
11
-19.206000
21
18.630500
31
0.0
0
LINE
8
0
6
CONTINUOUS
10
-17.488000
20
18.630500
30
0.0
11
-18.406000
21
18.630500
31
0.0
0
LINE
8
0
6
CONTINUOUS
10
-16.500000
20
18.630500
30
0.0
11
-17.488000
21
18.630500
31
0.0
0
LINE
8
0
6
CONTINUOUS
10
-19.206000
20
18.630500
30
0.0
11
-18.406000
21
18.630500
31
0.0
0
LINE
8
0
6
CONTINUOUS
10
-18.406000
20
18.630500
30
0.0
11
-17.488000
21
18.630500
31
0.0
0
LINE
8
0
6
CONTINUOUS
10
-17.488000
20
18.630500
30
0.0
11
-16.500000
21
18.630500
31
0.0
0
LINE
8
0
6
CONTINUOUS
10
-20.324000
20
18.630500
30
0.0
11
-20.441000
21
18.784300
31
0.0
0
LINE
8
0
6
CONTINUOUS
10
-20.441000
20
18.784300
30
0.0
11
-20.500000
21
19.092000
31
0.0
0
LINE
8
0
6
CONTINUOUS
10
-20.500000
20
19.092000
30
0.0
11
-20.500000
21
22.630500
31
0.0
0
LINE
8
0
6
CONTINUOUS
10
-19.882000
20
22.630500
30
0.0
11
-20.632000
21
22.630500
31
0.0
0
LINE
8
0
6
CONTINUOUS
10
-20.632000
20
22.630500
30
0.0
11
-21.103000
21
22.630500
31
0.0
0
LINE
8
0
6
CONTINUOUS
10
-21.103000
20
22.630500
30
0.0
11
-21.279000
21
22.630500
31
0.0
0
LINE
8
0
6
CONTINUOUS
10
-20.632000
20
22.630500
30
0.0
11
-19.882000
21
22.630500
31
0.0
0
LINE
8
0
6
CONTINUOUS
10
-21.103000
20
22.630500
30
0.0
11
-20.632000
21
22.630500
31
0.0
0
LINE
8
0
6
CONTINUOUS
10
-21.279000
20
22.630500
30
0.0
11
-21.103000
21
22.630500
31
0.0
0
LINE
8
0
6
CONTINUOUS
10
-18.882000
20
22.630500
30
0.0
11
-19.882000
21
22.630500
31
0.0
0
LINE
8
0
6
CONTINUOUS
10
-17.735000
20
22.630500
30
0.0
11
-18.882000
21
22.630500
31
0.0
0
LINE
8
0
6
CONTINUOUS
10
-16.500000
20
22.630500
30
0.0
11
-17.735000
21
22.630500
31
0.0
0
LINE
8
0
6
CONTINUOUS
10
-19.882000
20
22.630500
30
0.0
11
-18.882000
21
22.630500
31
0.0
0
LINE
8
0
6
CONTINUOUS
10
-18.882000
20
22.630500
30
0.0
11
-17.735000
21
22.630500
31
0.0
0
LINE
8
0
6
CONTINUOUS
10
-17.735000
20
22.630500
30
0.0
11
-16.500000
21
22.630500
31
0.0
0
LINE
8
0
6
CONTINUOUS
10
-21.279000
20
22.630500
30
0.0
11
-21.426000
21
22.822800
31
0.0
0
LINE
8
0
6
CONTINUOUS
10
-21.426000
20
22.822800
30
0.0
11
-21.500000
21
23.207400
31
0.0
0
LINE
8
0
6
CONTINUOUS
10
-21.500000
20
23.207400
30
0.0
11
-21.500000
21
27.630500
31
0.0
0
LINE
8
0
6
CONTINUOUS
10
-22.235000
20
57.630500
30
0.0
11
-22.235000
21
29.630500
31
0.0
0
LINE
8
0
6
CONTINUOUS
10
-22.235000
20
29.630500
30
0.0
11
-22.235000
21
57.630500
31
0.0
0
LINE
8
0
6
CONTINUOUS
10
-22.500000
20
29.630500
30
0.0
11
-22.500000
21
57.630500
31
0.0
0
LINE
8
0
6
CONTINUOUS
10
-31.333000
20
58.463100
30
0.0
11
-33.123000
21
56.407300
31
0.0
0
LINE
8
0
6
CONTINUOUS
10
-33.123000
20
56.407300
30
0.0
11
-34.693000
21
54.086300
31
0.0
0
LINE
8
0
6
CONTINUOUS
10
-34.693000
20
54.086300
30
0.0
11
-35.864000
21
51.654700
31
0.0
0
LINE
8
0
6
CONTINUOUS
10
-35.864000
20
51.654700
30
0.0
11
-36.748000
21
49.046300
31
0.0
0
LINE
8
0
6
CONTINUOUS
10
-36.748000
20
49.046300
30
0.0
11
-37.279000
21
46.371600
31
0.0
0
LINE
8
0
6
CONTINUOUS
10
-37.279000
20
46.371600
30
0.0
11
-37.500000
21
43.630500
31
0.0
0
LINE
8
0
6
CONTINUOUS
10
-33.123000
20
56.407300
30
0.0
11
-31.333000
21
58.463100
31
0.0
0
LINE
8
0
6
CONTINUOUS
10
-34.693000
20
54.086300
30
0.0
11
-33.123000
21
56.407300
31
0.0
0
LINE
8
0
6
CONTINUOUS
10
-35.864000
20
51.654700
30
0.0
11
-34.693000
21
54.086300
31
0.0
0
LINE
8
0
6
CONTINUOUS
10
-36.748000
20
49.046300
30
0.0
11
-35.864000
21
51.654700
31
0.0
0
LINE
8
0
6
CONTINUOUS
10
-37.279000
20
46.371600
30
0.0
11
-36.748000
21
49.046300
31
0.0
0
LINE
8
0
6
CONTINUOUS
10
-37.500000
20
43.630500
30
0.0
11
-37.279000
21
46.371600
31
0.0
0
LINE
8
0
6
CONTINUOUS
10
-29.277000
20
60.253700
30
0.0
11
-31.333000
21
58.463100
31
0.0
0
LINE
8
0
6
CONTINUOUS
10
-26.956000
20
61.823100
30
0.0
11
-29.277000
21
60.253700
31
0.0
0
LINE
8
0
6
CONTINUOUS
10
-24.524000
20
62.994700
30
0.0
11
-26.956000
21
61.823100
31
0.0
0
LINE
8
0
6
CONTINUOUS
10
-21.916000
20
63.878900
30
0.0
11
-24.524000
21
62.994700
31
0.0
0
LINE
8
0
6
CONTINUOUS
10
-19.241000
20
64.409400
30
0.0
11
-21.916000
21
63.878900
31
0.0
0
LINE
8
0
6
CONTINUOUS
10
-16.500000
20
64.630500
30
0.0
11
-19.241000
21
64.409400
31
0.0
0
LINE
8
0
6
CONTINUOUS
10
-31.333000
20
58.463100
30
0.0
11
-29.277000
21
60.253700
31
0.0
0
LINE
8
0
6
CONTINUOUS
10
-29.277000
20
60.253700
30
0.0
11
-26.956000
21
61.823100
31
0.0
0
LINE
8
0
6
CONTINUOUS
10
-26.956000
20
61.823100
30
0.0
11
-24.524000
21
62.994700
31
0.0
0
LINE
8
0
6
CONTINUOUS
10
-24.524000
20
62.994700
30
0.0
11
-21.916000
21
63.878900
31
0.0
0
LINE
8
0
6
CONTINUOUS
10
-21.916000
20
63.878900
30
0.0
11
-19.241000
21
64.409400
31
0.0
0
LINE
8
0
6
CONTINUOUS
10
-19.241000
20
64.409400
30
0.0
11
-16.500000
21
64.630500
31
0.0
0
LINE
8
0
6
CONTINUOUS
10
-33.123000
20
30.853700
30
0.0
11
-31.333000
21
28.797900
31
0.0
0
LINE
8
0
6
CONTINUOUS
10
-34.693000
20
33.174700
30
0.0
11
-33.123000
21
30.853700
31
0.0
0
LINE
8
0
6
CONTINUOUS
10
-35.864000
20
35.606300
30
0.0
11
-34.693000
21
33.174700
31
0.0
0
LINE
8
0
6
CONTINUOUS
10
-36.748000
20
38.214700
30
0.0
11
-35.864000
21
35.606300
31
0.0
0
LINE
8
0
6
CONTINUOUS
10
-37.279000
20
40.889400
30
0.0
11
-36.748000
21
38.214700
31
0.0
0
LINE
8
0
6
CONTINUOUS
10
-37.500000
20
43.630500
30
0.0
11
-37.279000
21
40.889400
31
0.0
0
LINE
8
0
6
CONTINUOUS
10
-31.333000
20
28.797900
30
0.0
11
-33.123000
21
30.853700
31
0.0
0
LINE
8
0
6
CONTINUOUS
10
-33.123000
20
30.853700
30
0.0
11
-34.693000
21
33.174700
31
0.0
0
LINE
8
0
6
CONTINUOUS
10
-34.693000
20
33.174700
30
0.0
11
-35.864000
21
35.606300
31
0.0
0
LINE
8
0
6
CONTINUOUS
10
-35.864000
20
35.606300
30
0.0
11
-36.748000
21
38.214700
31
0.0
0
LINE
8
0
6
CONTINUOUS
10
-36.748000
20
38.214700
30
0.0
11
-37.279000
21
40.889400
31
0.0
0
LINE
8
0
6
CONTINUOUS
10
-37.279000
20
40.889400
30
0.0
11
-37.500000
21
43.630500
31
0.0
0
LINE
8
0
6
CONTINUOUS
10
-31.333000
20
28.797900
30
0.0
11
-29.277000
21
27.007300
31
0.0
0
LINE
8
0
6
CONTINUOUS
10
-29.277000
20
27.007300
30
0.0
11
-26.956000
21
25.437900
31
0.0
0
LINE
8
0
6
CONTINUOUS
10
-26.956000
20
25.437900
30
0.0
11
-24.524000
21
24.266300
31
0.0
0
LINE
8
0
6
CONTINUOUS
10
-24.524000
20
24.266300
30
0.0
11
-21.916000
21
23.382100
31
0.0
0
LINE
8
0
6
CONTINUOUS
10
-21.916000
20
23.382100
30
0.0
11
-21.500000
21
23.299600
31
0.0
0
LINE
8
0
6
CONTINUOUS
10
-29.277000
20
27.007300
30
0.0
11
-31.333000
21
28.797900
31
0.0
0
LINE
8
0
6
CONTINUOUS
10
-26.956000
20
25.437900
30
0.0
11
-29.277000
21
27.007300
31
0.0
0
LINE
8
0
6
CONTINUOUS
10
-24.524000
20
24.266300
30
0.0
11
-26.956000
21
25.437900
31
0.0
0
LINE
8
0
6
CONTINUOUS
10
-21.916000
20
23.382100
30
0.0
11
-24.524000
21
24.266300
31
0.0
0
LINE
8
0
6
CONTINUOUS
10
-21.500000
20
23.299600
30
0.0
11
-21.916000
21
23.382100
31
0.0
0
LINE
8
0
6
CONTINUOUS
10
-12.368000
20
22.630500
30
0.0
11
-13.118000
21
22.630500
31
0.0
0
LINE
8
0
6
CONTINUOUS
10
-11.897000
20
22.630500
30
0.0
11
-12.368000
21
22.630500
31
0.0
0
LINE
8
0
6
CONTINUOUS
10
-11.721000
20
22.630500
30
0.0
11
-11.897000
21
22.630500
31
0.0
0
LINE
8
0
6
CONTINUOUS
10
-13.118000
20
22.630500
30
0.0
11
-12.368000
21
22.630500
31
0.0
0
LINE
8
0
6
CONTINUOUS
10
-12.368000
20
22.630500
30
0.0
11
-11.897000
21
22.630500
31
0.0
0
LINE
8
0
6
CONTINUOUS
10
-11.897000
20
22.630500
30
0.0
11
-11.721000
21
22.630500
31
0.0
0
LINE
8
0
6
CONTINUOUS
10
-13.118000
20
22.630500
30
0.0
11
-14.118000
21
22.630500
31
0.0
0
LINE
8
0
6
CONTINUOUS
10
-14.118000
20
22.630500
30
0.0
11
-15.265000
21
22.630500
31
0.0
0
LINE
8
0
6
CONTINUOUS
10
-15.265000
20
22.630500
30
0.0
11
-16.500000
21
22.630500
31
0.0
0
LINE
8
0
6
CONTINUOUS
10
-14.118000
20
22.630500
30
0.0
11
-13.118000
21
22.630500
31
0.0
0
LINE
8
0
6
CONTINUOUS
10
-15.265000
20
22.630500
30
0.0
11
-14.118000
21
22.630500
31
0.0
0
LINE
8
0
6
CONTINUOUS
10
-16.500000
20
22.630500
30
0.0
11
-15.265000
21
22.630500
31
0.0
0
LINE
8
0
6
CONTINUOUS
10
-11.574000
20
22.822800
30
0.0
11
-11.721000
21
22.630500
31
0.0
0
LINE
8
0
6
CONTINUOUS
10
-11.500000
20
23.207400
30
0.0
11
-11.574000
21
22.822800
31
0.0
0
LINE
8
0
6
CONTINUOUS
10
-11.500000
20
27.630500
30
0.0
11
-11.500000
21
23.207400
31
0.0
0
LINE
8
0
6
CONTINUOUS
10
-10.765000
20
29.630500
30
0.0
11
-10.765000
21
57.630500
31
0.0
0
LINE
8
0
6
CONTINUOUS
10
-10.765000
20
57.630500
30
0.0
11
-10.765000
21
29.630500
31
0.0
0
LINE
8
0
6
CONTINUOUS
10
-10.500000
20
57.630500
30
0.0
11
-10.500000
21
29.630500
31
0.0
0
LINE
8
0
6
CONTINUOUS
10
-12.441000
20
25.571700
30
0.0
11
-11.541000
21
26.771700
31
0.0
0
LINE
8
0
6
CONTINUOUS
10
-11.541000
20
26.771700
30
0.0
11
-10.977000
21
28.148100
31
0.0
0
LINE
8
0
6
CONTINUOUS
10
-10.977000
20
28.148100
30
0.0
11
-10.765000
21
29.630500
31
0.0
0
LINE
8
0
6
CONTINUOUS
10
-11.541000
20
26.771700
30
0.0
11
-12.441000
21
25.571700
31
0.0
0
LINE
8
0
6
CONTINUOUS
10
-10.977000
20
28.148100
30
0.0
11
-11.541000
21
26.771700
31
0.0
0
LINE
8
0
6
CONTINUOUS
10
-10.765000
20
29.630500
30
0.0
11
-10.977000
21
28.148100
31
0.0
0
LINE
8
0
6
CONTINUOUS
10
-11.312000
20
26.648100
30
0.0
11
-12.265000
21
25.395200
31
0.0
0
LINE
8
0
6
CONTINUOUS
10
-11.312000
20
26.648100
30
0.0
11
-10.712000
21
28.095200
31
0.0
0
LINE
8
0
6
CONTINUOUS
10
-10.712000
20
28.095200
30
0.0
11
-11.312000
21
26.648100
31
0.0
0
LINE
8
0
6
CONTINUOUS
10
-10.500000
20
29.630500
30
0.0
11
-10.712000
21
28.095200
31
0.0
0
LINE
8
0
6
CONTINUOUS
10
-10.712000
20
28.095200
30
0.0
11
-11.312000
21
26.648100
31
0.0
0
LINE
8
0
6
CONTINUOUS
10
-13.641000
20
24.671700
30
0.0
11
-12.441000
21
25.571700
31
0.0
0
LINE
8
0
6
CONTINUOUS
10
-15.018000
20
24.107000
30
0.0
11
-13.641000
21
24.671700
31
0.0
0
LINE
8
0
6
CONTINUOUS
10
-16.500000
20
23.895200
30
0.0
11
-15.018000
21
24.107000
31
0.0
0
LINE
8
0
6
CONTINUOUS
10
-12.441000
20
25.571700
30
0.0
11
-13.641000
21
24.671700
31
0.0
0
LINE
8
0
6
CONTINUOUS
10
-13.641000
20
24.671700
30
0.0
11
-15.018000
21
24.107000
31
0.0
0
LINE
8
0
6
CONTINUOUS
10
-15.018000
20
24.107000
30
0.0
11
-16.500000
21
23.895200
31
0.0
0
LINE
8
0
6
CONTINUOUS
10
-12.265000
20
25.395200
30
0.0
11
-13.518000
21
24.442300
31
0.0
0
LINE
8
0
6
CONTINUOUS
10
-13.518000
20
24.442300
30
0.0
11
-14.965000
21
23.842300
31
0.0
0
LINE
8
0
6
CONTINUOUS
10
-14.965000
20
23.842300
30
0.0
11
-16.500000
21
23.630500
31
0.0
0
LINE
8
0
6
CONTINUOUS
10
-1.667000
20
28.797900
30
0.0
11
0.123000
21
30.853700
31
0.0
0
LINE
8
0
6
CONTINUOUS
10
0.123000
20
30.853700
30
0.0
11
1.693000
21
33.174700
31
0.0
0
LINE
8
0
6
CONTINUOUS
10
1.693000
20
33.174700
30
0.0
11
2.864000
21
35.606300
31
0.0
0
LINE
8
0
6
CONTINUOUS
10
2.864000
20
35.606300
30
0.0
11
3.748000
21
38.214700
31
0.0
0
LINE
8
0
6
CONTINUOUS
10
3.748000
20
38.214700
30
0.0
11
4.279000
21
40.889400
31
0.0
0
LINE
8
0
6
CONTINUOUS
10
4.279000
20
40.889400
30
0.0
11
4.500000
21
43.630500
31
0.0
0
LINE
8
0
6
CONTINUOUS
10
0.123000
20
30.853700
30
0.0
11
-1.667000
21
28.797900
31
0.0
0
LINE
8
0
6
CONTINUOUS
10
1.693000
20
33.174700
30
0.0
11
0.123000
21
30.853700
31
0.0
0
LINE
8
0
6
CONTINUOUS
10
2.864000
20
35.606300
30
0.0
11
1.693000
21
33.174700
31
0.0
0
LINE
8
0
6
CONTINUOUS
10
3.748000
20
38.214700
30
0.0
11
2.864000
21
35.606300
31
0.0
0
LINE
8
0
6
CONTINUOUS
10
4.279000
20
40.889400
30
0.0
11
3.748000
21
38.214700
31
0.0
0
LINE
8
0
6
CONTINUOUS
10
4.500000
20
43.630500
30
0.0
11
4.279000
21
40.889400
31
0.0
0
LINE
8
0
6
CONTINUOUS
10
-3.723000
20
27.007300
30
0.0
11
-1.667000
21
28.797900
31
0.0
0
LINE
8
0
6
CONTINUOUS
10
-6.044000
20
25.437900
30
0.0
11
-3.723000
21
27.007300
31
0.0
0
LINE
8
0
6
CONTINUOUS
10
-8.476000
20
24.266300
30
0.0
11
-6.044000
21
25.437900
31
0.0
0
LINE
8
0
6
CONTINUOUS
10
-11.084000
20
23.382100
30
0.0
11
-8.476000
21
24.266300
31
0.0
0
LINE
8
0
6
CONTINUOUS
10
-11.500000
20
23.299600
30
0.0
11
-11.084000
21
23.382100
31
0.0
0
LINE
8
0
6
CONTINUOUS
10
-1.667000
20
28.797900
30
0.0
11
-3.723000
21
27.007300
31
0.0
0
LINE
8
0
6
CONTINUOUS
10
-3.723000
20
27.007300
30
0.0
11
-6.044000
21
25.437900
31
0.0
0
LINE
8
0
6
CONTINUOUS
10
-6.044000
20
25.437900
30
0.0
11
-8.476000
21
24.266300
31
0.0
0
LINE
8
0
6
CONTINUOUS
10
-8.476000
20
24.266300
30
0.0
11
-11.084000
21
23.382100
31
0.0
0
LINE
8
0
6
CONTINUOUS
10
-11.084000
20
23.382100
30
0.0
11
-11.500000
21
23.299600
31
0.0
0
LINE
8
0
6
CONTINUOUS
10
0.123000
20
56.407300
30
0.0
11
-1.667000
21
58.463100
31
0.0
0
LINE
8
0
6
CONTINUOUS
10
1.693000
20
54.086300
30
0.0
11
0.123000
21
56.407300
31
0.0
0
LINE
8
0
6
CONTINUOUS
10
2.864000
20
51.654700
30
0.0
11
1.693000
21
54.086300
31
0.0
0
LINE
8
0
6
CONTINUOUS
10
3.748000
20
49.046300
30
0.0
11
2.864000
21
51.654700
31
0.0
0
LINE
8
0
6
CONTINUOUS
10
4.279000
20
46.371600
30
0.0
11
3.748000
21
49.046300
31
0.0
0
LINE
8
0
6
CONTINUOUS
10
4.500000
20
43.630500
30
0.0
11
4.279000
21
46.371600
31
0.0
0
LINE
8
0
6
CONTINUOUS
10
-1.667000
20
58.463100
30
0.0
11
0.123000
21
56.407300
31
0.0
0
LINE
8
0
6
CONTINUOUS
10
0.123000
20
56.407300
30
0.0
11
1.693000
21
54.086300
31
0.0
0
LINE
8
0
6
CONTINUOUS
10
1.693000
20
54.086300
30
0.0
11
2.864000
21
51.654700
31
0.0
0
LINE
8
0
6
CONTINUOUS
10
2.864000
20
51.654700
30
0.0
11
3.748000
21
49.046300
31
0.0
0
LINE
8
0
6
CONTINUOUS
10
3.748000
20
49.046300
30
0.0
11
4.279000
21
46.371600
31
0.0
0
LINE
8
0
6
CONTINUOUS
10
4.279000
20
46.371600
30
0.0
11
4.500000
21
43.630500
31
0.0
0
LINE
8
0
6
CONTINUOUS
10
-1.667000
20
58.463100
30
0.0
11
-3.723000
21
60.253700
31
0.0
0
LINE
8
0
6
CONTINUOUS
10
-3.723000
20
60.253700
30
0.0
11
-6.044000
21
61.823100
31
0.0
0
LINE
8
0
6
CONTINUOUS
10
-6.044000
20
61.823100
30
0.0
11
-8.476000
21
62.994700
31
0.0
0
LINE
8
0
6
CONTINUOUS
10
-8.476000
20
62.994700
30
0.0
11
-11.084000
21
63.878900
31
0.0
0
LINE
8
0
6
CONTINUOUS
10
-11.084000
20
63.878900
30
0.0
11
-13.759000
21
64.409400
31
0.0
0
LINE
8
0
6
CONTINUOUS
10
-13.759000
20
64.409400
30
0.0
11
-16.500000
21
64.630500
31
0.0
0
LINE
8
0
6
CONTINUOUS
10
-3.723000
20
60.253700
30
0.0
11
-1.667000
21
58.463100
31
0.0
0
LINE
8
0
6
CONTINUOUS
10
-6.044000
20
61.823100
30
0.0
11
-3.723000
21
60.253700
31
0.0
0
LINE
8
0
6
CONTINUOUS
10
-8.476000
20
62.994700
30
0.0
11
-6.044000
21
61.823100
31
0.0
0
LINE
8
0
6
CONTINUOUS
10
-11.084000
20
63.878900
30
0.0
11
-8.476000
21
62.994700
31
0.0
0
LINE
8
0
6
CONTINUOUS
10
-13.759000
20
64.409400
30
0.0
11
-11.084000
21
63.878900
31
0.0
0
LINE
8
0
6
CONTINUOUS
10
-16.500000
20
64.630500
30
0.0
11
-13.759000
21
64.409400
31
0.0
0
LINE
8
0
6
CONTINUOUS
10
-11.541000
20
60.489300
30
0.0
11
-12.441000
21
61.689300
31
0.0
0
LINE
8
0
6
CONTINUOUS
10
-10.977000
20
59.112900
30
0.0
11
-11.541000
21
60.489300
31
0.0
0
LINE
8
0
6
CONTINUOUS
10
-10.765000
20
57.630500
30
0.0
11
-10.977000
21
59.112900
31
0.0
0
LINE
8
0
6
CONTINUOUS
10
-12.441000
20
61.689300
30
0.0
11
-11.541000
21
60.489300
31
0.0
0
LINE
8
0
6
CONTINUOUS
10
-11.541000
20
60.489300
30
0.0
11
-10.977000
21
59.112900
31
0.0
0
LINE
8
0
6
CONTINUOUS
10
-10.977000
20
59.112900
30
0.0
11
-10.765000
21
57.630500
31
0.0
0
LINE
8
0
6
CONTINUOUS
10
-12.265000
20
61.865800
30
0.0
11
-11.312000
21
60.612900
31
0.0
0
LINE
8
0
6
CONTINUOUS
10
-11.312000
20
60.612900
30
0.0
11
-10.712000
21
59.165800
31
0.0
0
LINE
8
0
6
CONTINUOUS
10
-10.712000
20
59.165800
30
0.0
11
-10.500000
21
57.630500
31
0.0
0
LINE
8
0
6
CONTINUOUS
10
-12.441000
20
61.689300
30
0.0
11
-13.641000
21
62.589300
31
0.0
0
LINE
8
0
6
CONTINUOUS
10
-13.641000
20
62.589300
30
0.0
11
-15.018000
21
63.154000
31
0.0
0
LINE
8
0
6
CONTINUOUS
10
-15.018000
20
63.154000
30
0.0
11
-16.500000
21
63.365800
31
0.0
0
LINE
8
0
6
CONTINUOUS
10
-13.641000
20
62.589300
30
0.0
11
-12.441000
21
61.689300
31
0.0
0
LINE
8
0
6
CONTINUOUS
10
-15.018000
20
63.154000
30
0.0
11
-13.641000
21
62.589300
31
0.0
0
LINE
8
0
6
CONTINUOUS
10
-16.500000
20
63.365800
30
0.0
11
-15.018000
21
63.154000
31
0.0
0
LINE
8
0
6
CONTINUOUS
10
-13.518000
20
62.818700
30
0.0
11
-12.265000
21
61.865800
31
0.0
0
LINE
8
0
6
CONTINUOUS
10
-13.518000
20
62.818700
30
0.0
11
-14.965000
21
63.418700
31
0.0
0
LINE
8
0
6
CONTINUOUS
10
-14.965000
20
63.418700
30
0.0
11
-13.518000
21
62.818700
31
0.0
0
LINE
8
0
6
CONTINUOUS
10
-16.500000
20
63.630500
30
0.0
11
-14.965000
21
63.418700
31
0.0
0
LINE
8
0
6
CONTINUOUS
10
-14.965000
20
63.418700
30
0.0
11
-13.518000
21
62.818700
31
0.0
0
LINE
8
0
6
CONTINUOUS
10
-13.194000
20
18.630500
30
0.0
11
-13.794000
21
18.630500
31
0.0
0
LINE
8
0
6
CONTINUOUS
10
-12.818000
20
18.630500
30
0.0
11
-13.194000
21
18.630500
31
0.0
0
LINE
8
0
6
CONTINUOUS
10
-12.676000
20
18.630500
30
0.0
11
-12.818000
21
18.630500
31
0.0
0
LINE
8
0
6
CONTINUOUS
10
-13.794000
20
18.630500
30
0.0
11
-13.194000
21
18.630500
31
0.0
0
LINE
8
0
6
CONTINUOUS
10
-13.194000
20
18.630500
30
0.0
11
-12.818000
21
18.630500
31
0.0
0
LINE
8
0
6
CONTINUOUS
10
-12.818000
20
18.630500
30
0.0
11
-12.676000
21
18.630500
31
0.0
0
LINE
8
0
6
CONTINUOUS
10
-13.794000
20
18.630500
30
0.0
11
-14.594000
21
18.630500
31
0.0
0
LINE
8
0
6
CONTINUOUS
10
-14.594000
20
18.630500
30
0.0
11
-15.512000
21
18.630500
31
0.0
0
LINE
8
0
6
CONTINUOUS
10
-15.512000
20
18.630500
30
0.0
11
-16.500000
21
18.630500
31
0.0
0
LINE
8
0
6
CONTINUOUS
10
-14.594000
20
18.630500
30
0.0
11
-13.794000
21
18.630500
31
0.0
0
LINE
8
0
6
CONTINUOUS
10
-15.512000
20
18.630500
30
0.0
11
-14.594000
21
18.630500
31
0.0
0
LINE
8
0
6
CONTINUOUS
10
-16.500000
20
18.630500
30
0.0
11
-15.512000
21
18.630500
31
0.0
0
LINE
8
0
6
CONTINUOUS
10
-12.559000
20
18.784300
30
0.0
11
-12.676000
21
18.630500
31
0.0
0
LINE
8
0
6
CONTINUOUS
10
-12.500000
20
19.092000
30
0.0
11
-12.559000
21
18.784300
31
0.0
0
LINE
8
0
6
CONTINUOUS
10
-12.500000
20
22.630500
30
0.0
11
-12.500000
21
19.092000
31
0.0
0
LINE
8
0
6
CONTINUOUS
10
-3.372800
20
27.312294
30
0.0
11
-3.372800
21
27.080955
31
0.0
0
LINE
8
0
6
CONTINUOUS
10
-3.372800
20
14.635471
30
0.0
11
-3.372800
21
13.449365
31
0.0
0
LINE
8
0
6
CONTINUOUS
10
14.627200
20
13.278891
30
0.0
11
14.627200
21
14.650465
31
0.0
0
LINE
8
0
6
CONTINUOUS
10
12.180200
20
-72.440500
30
0.0
11
11.861400
21
-74.423500
31
0.0
0
LINE
8
0
6
CONTINUOUS
10
11.861400
20
-74.423500
30
0.0
11
11.150800
21
-75.541500
31
0.0
0
LINE
8
0
6
CONTINUOUS
10
11.150800
20
-75.541500
30
0.0
11
9.944500
21
-76.204500
31
0.0
0
LINE
8
0
6
CONTINUOUS
10
9.944500
20
-76.204500
30
0.0
11
8.341000
21
-76.564500
31
0.0
0
LINE
8
0
6
CONTINUOUS
10
8.341000
20
-76.564500
30
0.0
11
6.540400
21
-76.622500
31
0.0
0
LINE
8
0
6
CONTINUOUS
10
6.540400
20
-76.622500
30
0.0
11
4.640200
21
-76.630500
31
0.0
0
LINE
8
0
6
CONTINUOUS
10
11.893000
20
-71.087500
30
0.0
11
12.180200
21
-72.440500
31
0.0
0
LINE
8
0
6
CONTINUOUS
10
12.180200
20
-72.440500
30
0.0
11
12.708100
21
-16.704335
31
0.0
0
LINE
8
0
6
CONTINUOUS
10
11.204400
20
-69.881500
30
0.0
11
11.893000
21
-71.087500
31
0.0
0
LINE
8
0
6
CONTINUOUS
10
10.015800
20
-68.671500
30
0.0
11
11.204400
21
-69.881500
31
0.0
0
LINE
8
0
6
CONTINUOUS
10
8.425800
20
-67.606500
30
0.0
11
10.015800
21
-68.671500
31
0.0
0
LINE
8
0
6
CONTINUOUS
10
6.632600
20
-66.877500
30
0.0
11
8.425800
21
-67.606500
31
0.0
0
LINE
8
0
6
CONTINUOUS
10
4.734900
20
-66.631500
30
0.0
11
6.632600
21
-66.877500
31
0.0
0
LINE
8
0
6
CONTINUOUS
10
-2.819100
20
-72.297500
30
0.0
11
-2.506300
21
-70.951500
31
0.0
0
LINE
8
0
6
CONTINUOUS
10
-2.506300
20
-70.951500
30
0.0
11
-1.795000
21
-69.758500
31
0.0
0
LINE
8
0
6
CONTINUOUS
10
-1.795000
20
-69.758500
30
0.0
11
-0.583700
21
-68.570500
31
0.0
0
LINE
8
0
6
CONTINUOUS
10
-0.583700
20
-68.570500
30
0.0
11
1.026200
21
-67.536500
31
0.0
0
LINE
8
0
6
CONTINUOUS
10
1.026200
20
-67.536500
30
0.0
11
2.832800
21
-66.841500
31
0.0
0
LINE
8
0
6
CONTINUOUS
10
3.308500
20
-16.615300
30
0.0
11
1.508600
21
-16.598200
31
0.0
0
LINE
8
0
6
CONTINUOUS
10
2.832800
20
-66.841500
30
0.0
11
4.734900
21
-66.631500
31
0.0
0
LINE
8
0
6
CONTINUOUS
10
5.208400
20
-16.633300
30
0.0
11
3.308500
21
-16.615300
31
0.0
0
LINE
8
0
6
CONTINUOUS
10
-2.537900
20
-74.287500
30
0.0
11
-2.819100
21
-72.297500
31
0.0
0
LINE
8
0
6
CONTINUOUS
10
-2.819100
20
-72.297500
30
0.0
11
-2.291201
21
-16.562266
31
0.0
0
LINE
8
0
6
CONTINUOUS
10
-1.848600
20
-75.418500
30
0.0
11
-2.537900
21
-74.287500
31
0.0
0
LINE
8
0
6
CONTINUOUS
10
-0.655100
20
-76.104500
30
0.0
11
-1.848600
21
-75.418500
31
0.0
0
LINE
8
0
6
CONTINUOUS
10
0.941300
20
-76.494500
30
0.0
11
-0.655100
21
-76.104500
31
0.0
0
LINE
8
0
6
CONTINUOUS
10
2.740500
20
-76.586500
30
0.0
11
0.941300
21
-76.494500
31
0.0
0
LINE
8
0
6
CONTINUOUS
10
4.640200
20
-76.630500
30
0.0
11
2.740500
21
-76.586500
31
0.0
0
LINE
8
0
6
CONTINUOUS
10
2.892700
20
13.390000
30
0.0
11
0.492800
21
13.412700
31
0.0
0
LINE
8
0
6
CONTINUOUS
10
5.492500
20
13.365400
30
0.0
11
2.892700
21
13.390000
31
0.0
0
LINE
8
0
6
CONTINUOUS
10
-1.607100
20
13.432600
30
0.0
11
0.492800
21
13.412700
31
0.0
0
LINE
8
0
6
CONTINUOUS
10
0.492800
20
13.412700
30
0.0
11
2.892700
21
13.390000
31
0.0
0
LINE
8
0
6
CONTINUOUS
10
2.892700
20
13.390000
30
0.0
11
5.492500
21
13.365400
31
0.0
0
LINE
8
0
6
CONTINUOUS
10
0.708600
20
-16.590700
30
0.0
11
-1.191300
21
-16.572700
31
0.0
0
LINE
8
0
6
CONTINUOUS
10
2.908500
20
-16.611500
30
0.0
11
0.708600
21
-16.590700
31
0.0
0
LINE
8
0
6
CONTINUOUS
10
5.208400
20
-16.633300
30
0.0
11
2.908500
21
-16.611500
31
0.0
0
LINE
8
0
6
CONTINUOUS
10
-1.191300
20
-16.572700
30
0.0
11
0.708600
21
-16.590700
31
0.0
0
LINE
8
0
6
CONTINUOUS
10
0.708600
20
-16.590700
30
0.0
11
2.908500
21
-16.611500
31
0.0
0
LINE
8
0
6
CONTINUOUS
10
2.908500
20
-16.611500
30
0.0
11
5.208400
21
-16.633300
31
0.0
0
LINE
8
0
6
CONTINUOUS
10
-1.607100
20
13.432600
30
0.0
11
-3.207100
21
13.447800
31
0.0
0
LINE
8
0
6
CONTINUOUS
10
-3.207100
20
13.447800
30
0.0
11
-3.372800
21
13.449365
31
0.0
0
LINE
8
0
6
CONTINUOUS
10
-4.107000
20
13.456300
30
0.0
11
-4.507000
21
13.460100
31
0.0
0
LINE
8
0
6
CONTINUOUS
10
-3.207100
20
13.447800
30
0.0
11
-1.607100
21
13.432600
31
0.0
0
LINE
8
0
6
CONTINUOUS
10
-4.107000
20
13.456300
30
0.0
11
-3.207100
21
13.447800
31
0.0
0
LINE
8
0
6
CONTINUOUS
10
-4.507000
20
13.460100
30
0.0
11
-4.107000
21
13.456300
31
0.0
0
LINE
8
0
6
CONTINUOUS
10
-1.191300
20
-16.572700
30
0.0
11
-2.591200
21
-16.559400
31
0.0
0
LINE
8
0
6
CONTINUOUS
10
-2.591200
20
-16.559400
30
0.0
11
-3.491200
21
-16.550900
31
0.0
0
LINE
8
0
6
CONTINUOUS
10
-3.491200
20
-16.550900
30
0.0
11
-3.791200
21
-16.548000
31
0.0
0
LINE
8
0
6
CONTINUOUS
10
-2.591200
20
-16.559400
30
0.0
11
-1.191300
21
-16.572700
31
0.0
0
LINE
8
0
6
CONTINUOUS
10
-3.491200
20
-16.550900
30
0.0
11
-2.591200
21
-16.559400
31
0.0
0
LINE
8
0
6
CONTINUOUS
10
-3.791200
20
-16.548000
30
0.0
11
-3.491200
21
-16.550900
31
0.0
0
LINE
8
0
6
CONTINUOUS
10
15.092100
20
13.274500
30
0.0
11
14.192200
21
13.283000
31
0.0
0
LINE
8
0
6
CONTINUOUS
10
12.592200
20
13.298100
30
0.0
11
14.192200
21
13.283000
31
0.0
0
LINE
8
0
6
CONTINUOUS
10
14.192200
20
13.283000
30
0.0
11
15.092100
21
13.274500
31
0.0
0
LINE
8
0
6
CONTINUOUS
10
15.092100
20
13.274500
30
0.0
11
15.492100
21
13.270700
31
0.0
0
LINE
8
0
6
CONTINUOUS
10
13.008100
20
-16.707100
30
0.0
11
11.608100
21
-16.693900
31
0.0
0
LINE
8
0
6
CONTINUOUS
10
13.908000
20
-16.715700
30
0.0
11
13.008100
21
-16.707100
31
0.0
0
LINE
8
0
6
CONTINUOUS
10
14.208000
20
-16.718500
30
0.0
11
13.908000
21
-16.715700
31
0.0
0
LINE
8
0
6
CONTINUOUS
10
11.608100
20
-16.693900
30
0.0
11
13.008100
21
-16.707100
31
0.0
0
LINE
8
0
6
CONTINUOUS
10
13.008100
20
-16.707100
30
0.0
11
13.908000
21
-16.715700
31
0.0
0
LINE
8
0
6
CONTINUOUS
10
5.208400
20
-16.633300
30
0.0
11
13.008100
21
-16.707100
31
0.0
0
LINE
8
0
6
CONTINUOUS
10
5.208400
20
-16.633300
30
0.0
11
12.708100
21
-16.704335
31
0.0
0
LINE
8
0
6
CONTINUOUS
10
12.592200
20
13.298100
30
0.0
11
10.492300
21
13.318000
31
0.0
0
LINE
8
0
6
CONTINUOUS
10
8.092400
20
13.340800
30
0.0
11
5.492500
21
13.365400
31
0.0
0
LINE
8
0
6
CONTINUOUS
10
10.492300
20
13.318000
30
0.0
11
12.592200
21
13.298100
31
0.0
0
LINE
8
0
6
CONTINUOUS
10
8.092400
20
13.340800
30
0.0
11
10.492300
21
13.318000
31
0.0
0
LINE
8
0
6
CONTINUOUS
10
5.492500
20
13.365400
30
0.0
11
8.092400
21
13.340800
31
0.0
0
LINE
8
0
6
CONTINUOUS
10
11.608100
20
-16.693900
30
0.0
11
9.708200
21
-16.675900
31
0.0
0
LINE
8
0
6
CONTINUOUS
10
9.708200
20
-16.675900
30
0.0
11
7.508300
21
-16.655100
31
0.0
0
LINE
8
0
6
CONTINUOUS
10
7.508300
20
-16.655100
30
0.0
11
5.208400
21
-16.633300
31
0.0
0
LINE
8
0
6
CONTINUOUS
10
9.708200
20
-16.675900
30
0.0
11
11.608100
21
-16.693900
31
0.0
0
LINE
8
0
6
CONTINUOUS
10
9.708200
20
-16.675900
30
0.0
11
5.208400
21
-16.633300
31
0.0
0
LINE
8
0
6
CONTINUOUS
10
7.508300
20
-16.655100
30
0.0
11
9.708200
21
-16.675900
31
0.0
0
LINE
8
0
6
CONTINUOUS
10
5.208400
20
-16.633300
30
0.0
11
7.508300
21
-16.655100
31
0.0
0
LINE
8
0
6
CONTINUOUS
10
16.473100
20
11.261300
30
0.0
11
15.492100
21
13.270700
31
0.0
0
LINE
8
0
6
CONTINUOUS
10
14.208000
20
-16.718500
30
0.0
11
16.473100
21
11.261300
31
0.0
0
LINE
8
0
6
CONTINUOUS
10
-4.507000
20
13.460100
30
0.0
11
-5.525900
21
11.469600
31
0.0
0
LINE
8
0
6
CONTINUOUS
10
-5.525900
20
11.469600
30
0.0
11
-3.791200
21
-16.548000
31
0.0
0
LINE
8
0
6
CONTINUOUS
10
7.673700
20
14.649467
30
0.0
11
2.007700
21
14.643477
31
0.0
0
LINE
8
0
6
CONTINUOUS
10
64.496000
20
17.780970
30
0.0
11
64.478000
21
16.974390
31
0.0
0
LINE
8
0
6
CONTINUOUS
10
64.496000
20
17.780970
30
0.0
11
64.498000
21
22.109890
31
0.0
0
LINE
8
0
6
CONTINUOUS
10
64.471000
20
18.983760
30
0.0
11
64.496000
21
17.780970
31
0.0
0
LINE
8
0
6
CONTINUOUS
10
64.469000
20
20.342870
30
0.0
11
64.471000
21
18.983760
31
0.0
0
LINE
8
0
6
CONTINUOUS
10
64.498000
20
72.630500
30
0.0
11
64.469000
21
20.342870
31
0.0
0
LINE
8
0
6
CONTINUOUS
10
63.543000
20
72.630500
30
0.0
11
-53.873300
21
72.630500
31
0.0
0
LINE
8
0
6
CONTINUOUS
10
-44.383900
20
30.933200
30
0.0
11
-42.577600
21
28.187100
31
0.0
0
LINE
8
0
6
CONTINUOUS
10
-60.761420
20
63.184200
30
0.0
11
-59.604230
21
60.596400
31
0.0
0
LINE
8
0
6
CONTINUOUS
10
-59.604230
20
60.596400
30
0.0
11
-57.940970
21
56.945100
31
0.0
0
LINE
8
0
6
CONTINUOUS
10
-62.484680
20
67.093300
30
0.0
11
-61.625550
21
65.134900
31
0.0
0
LINE
8
0
6
CONTINUOUS
10
-56.500750
20
53.844500
30
0.0
11
-55.029520
21
50.743800
31
0.0
0
LINE
8
0
6
CONTINUOUS
10
-39.579100
20
24.460150
30
0.0
11
-38.169900
21
22.716610
31
0.0
0
LINE
8
0
6
CONTINUOUS
10
41.990000
20
14.769855
30
0.0
11
42.084000
21
15.053657
31
0.0
0
LINE
8
0
6
CONTINUOUS
10
28.750800
20
14.641481
30
0.0
11
31.602200
21
14.639484
31
0.0
0
LINE
8
0
6
CONTINUOUS
10
17.362900
20
14.650465
30
0.0
11
20.528300
21
14.648468
31
0.0
0
LINE
8
0
6
CONTINUOUS
10
25.903300
20
14.643477
30
0.0
11
28.750800
21
14.641481
31
0.0
0
LINE
8
0
6
CONTINUOUS
10
42.039000
20
14.636489
30
0.0
11
41.990000
21
14.769855
31
0.0
0
LINE
8
0
6
CONTINUOUS
10
42.084000
20
15.053657
30
0.0
11
41.990000
21
14.769855
31
0.0
0
LINE
8
0
6
CONTINUOUS
10
42.039000
20
14.636489
30
0.0
11
42.084000
21
15.053657
31
0.0
0
LINE
8
0
6
CONTINUOUS
10
41.990000
20
14.769855
30
0.0
11
42.039000
21
14.636489
31
0.0
0
LINE
8
0
6
CONTINUOUS
10
42.084000
20
15.053657
30
0.0
11
42.039000
21
14.636489
31
0.0
0
LINE
8
0
6
CONTINUOUS
10
-11.848800
20
14.641481
30
0.0
11
-8.163400
21
14.630500
31
0.0
0
LINE
8
0
6
CONTINUOUS
10
-47.668400
20
36.459400
30
0.0
11
-46.191100
21
33.897500
31
0.0
0
LINE
8
0
6
CONTINUOUS
10
-11.799800
20
14.683307
30
0.0
11
-11.526800
21
15.109459
31
0.0
0
LINE
8
0
6
CONTINUOUS
10
-11.799800
20
14.683307
30
0.0
11
-11.848800
21
14.641481
31
0.0
0
LINE
8
0
6
CONTINUOUS
10
-11.526800
20
15.109459
30
0.0
11
-11.799800
21
14.683307
31
0.0
0
LINE
8
0
6
CONTINUOUS
10
-11.848800
20
14.641481
30
0.0
11
-11.799800
21
14.683307
31
0.0
0
LINE
8
0
6
CONTINUOUS
10
-15.514000
20
14.687300
30
0.0
11
-11.848800
21
14.641481
31
0.0
0
LINE
8
0
6
CONTINUOUS
10
-2.999400
20
14.872475
30
0.0
11
-0.718800
21
14.682309
31
0.0
0
LINE
8
0
6
CONTINUOUS
10
20.528300
20
14.648468
30
0.0
11
23.057800
21
14.646472
31
0.0
0
LINE
8
0
6
CONTINUOUS
10
23.057800
20
14.646472
30
0.0
11
25.903300
21
14.643477
31
0.0
0
LINE
8
0
6
CONTINUOUS
10
56.957000
20
14.636489
30
0.0
11
59.714000
21
14.635491
31
0.0
0
LINE
8
0
6
CONTINUOUS
10
50.885000
20
14.637488
30
0.0
11
53.577000
21
14.637488
31
0.0
0
LINE
8
0
6
CONTINUOUS
10
34.839600
20
14.637488
30
0.0
11
37.346000
21
14.636489
31
0.0
0
LINE
8
0
6
CONTINUOUS
10
37.346000
20
14.636489
30
0.0
11
39.643000
21
14.636489
31
0.0
0
LINE
8
0
6
CONTINUOUS
10
39.643000
20
14.636489
30
0.0
11
42.039000
21
14.636489
31
0.0
0
LINE
8
0
6
CONTINUOUS
10
42.039000
20
14.636489
30
0.0
11
44.430000
21
14.636489
31
0.0
0
LINE
8
0
6
CONTINUOUS
10
44.430000
20
14.636489
30
0.0
11
47.609000
21
14.636489
31
0.0
0
LINE
8
0
6
CONTINUOUS
10
47.609000
20
14.636489
30
0.0
11
50.885000
21
14.637488
31
0.0
0
LINE
8
0
6
CONTINUOUS
10
53.577000
20
14.637488
30
0.0
11
56.957000
21
14.636489
31
0.0
0
LINE
8
0
6
CONTINUOUS
10
59.714000
20
14.635491
30
0.0
11
63.543000
21
14.638486
31
0.0
0
LINE
8
0
6
CONTINUOUS
10
-53.873300
20
72.630500
30
0.0
11
-55.723630
21
72.630500
31
0.0
0
LINE
8
0
6
CONTINUOUS
10
-59.287190
20
71.578000
30
0.0
11
-59.569230
21
71.634700
31
0.0
0
LINE
8
0
6
CONTINUOUS
10
-46.191100
20
33.897500
30
0.0
11
-44.383900
21
30.933200
31
0.0
0
LINE
8
0
6
CONTINUOUS
10
-64.446992
20
71.634700
30
0.0
11
-62.484680
21
67.093300
31
0.0
0
LINE
8
0
6
CONTINUOUS
10
-61.625550
20
65.134900
30
0.0
11
-60.761420
21
63.184200
31
0.0
0
LINE
8
0
6
CONTINUOUS
10
-57.940970
20
56.945100
30
0.0
11
-56.500750
21
53.844500
31
0.0
0
LINE
8
0
6
CONTINUOUS
10
-55.029520
20
50.743800
30
0.0
11
-53.532300
21
47.663100
31
0.0
0
LINE
8
0
6
CONTINUOUS
10
-53.532300
20
47.663100
30
0.0
11
-51.996000
21
44.590300
31
0.0
0
LINE
8
0
6
CONTINUOUS
10
-51.996000
20
44.590300
30
0.0
11
-50.424800
21
41.539500
31
0.0
0
LINE
8
0
6
CONTINUOUS
10
-50.424800
20
41.539500
30
0.0
11
-48.732500
21
38.381100
31
0.0
0
LINE
8
0
6
CONTINUOUS
10
-48.732500
20
38.381100
30
0.0
11
-47.668400
21
36.459400
31
0.0
0
LINE
8
0
6
CONTINUOUS
10
-42.577600
20
28.187100
30
0.0
11
-40.735300
21
25.644100
31
0.0
0
LINE
8
0
6
CONTINUOUS
10
-40.735300
20
25.644100
30
0.0
11
-37.510800
21
21.981800
31
0.0
0
LINE
8
0
6
CONTINUOUS
10
-38.169900
20
22.716610
30
0.0
11
-37.510800
21
21.981800
31
0.0
0
LINE
8
0
6
CONTINUOUS
10
-37.510800
20
21.981800
30
0.0
11
-35.775500
21
20.473340
31
0.0
0
LINE
8
0
6
CONTINUOUS
10
-32.277000
20
18.199140
30
0.0
11
-29.526400
21
16.937550
31
0.0
0
LINE
8
0
6
CONTINUOUS
10
-33.894600
20
19.142080
30
0.0
11
-32.277000
21
18.199140
31
0.0
0
LINE
8
0
6
CONTINUOUS
10
-35.775500
20
20.473340
30
0.0
11
-33.894600
21
19.142080
31
0.0
0
LINE
8
0
6
CONTINUOUS
10
-24.701400
20
15.648110
30
0.0
11
-26.699000
21
16.191760
31
0.0
0
LINE
8
0
6
CONTINUOUS
10
-26.608000
20
15.977730
30
0.0
11
-23.113600
21
15.237834
31
0.0
0
LINE
8
0
6
CONTINUOUS
10
-29.526400
20
16.937550
30
0.0
11
-26.608000
21
15.977730
31
0.0
0
LINE
8
0
6
CONTINUOUS
10
-24.701400
20
15.648110
30
0.0
11
-23.113600
21
15.237834
31
0.0
0
LINE
8
0
6
CONTINUOUS
10
-23.113600
20
15.237834
30
0.0
11
-21.643900
21
15.038783
31
0.0
0
LINE
8
0
6
CONTINUOUS
10
-22.658800
20
15.222960
30
0.0
11
-24.701400
21
15.648110
31
0.0
0
LINE
8
0
6
CONTINUOUS
10
-22.658800
20
15.222960
30
0.0
11
-21.643900
21
15.038783
31
0.0
0
LINE
8
0
6
CONTINUOUS
10
-20.582100
20
14.937162
30
0.0
11
-21.643900
21
15.038783
31
0.0
0
LINE
8
0
6
CONTINUOUS
10
-18.180600
20
14.771852
30
0.0
11
-15.514000
21
14.687300
31
0.0
0
LINE
8
0
6
CONTINUOUS
10
-20.582100
20
14.937162
30
0.0
11
-18.180600
21
14.771852
31
0.0
0
LINE
8
0
6
CONTINUOUS
10
2.007700
20
14.643477
30
0.0
11
-0.718800
21
14.682309
31
0.0
0
LINE
8
0
6
CONTINUOUS
10
-0.718800
20
14.682309
30
0.0
11
-2.999400
21
14.872475
31
0.0
0
LINE
8
0
6
CONTINUOUS
10
-8.163400
20
14.630500
30
0.0
11
-5.692900
21
14.632496
31
0.0
0
LINE
8
0
6
CONTINUOUS
10
-5.692900
20
14.632496
30
0.0
11
-2.578400
21
14.636489
31
0.0
0
LINE
8
0
6
CONTINUOUS
10
-2.578400
20
14.636489
30
0.0
11
2.007700
21
14.643477
31
0.0
0
LINE
8
0
6
CONTINUOUS
10
31.602200
20
14.639484
30
0.0
11
34.839600
21
14.637488
31
0.0
0
LINE
8
0
6
CONTINUOUS
10
14.509500
20
14.650465
30
0.0
11
17.362900
21
14.650465
31
0.0
0
LINE
8
0
6
CONTINUOUS
10
-0.718800
20
14.682309
30
0.0
11
2.007700
21
14.643477
31
0.0
0
LINE
8
0
6
CONTINUOUS
10
2.007700
20
14.643477
30
0.0
11
4.968200
21
14.647470
31
0.0
0
LINE
8
0
6
CONTINUOUS
10
7.673700
20
14.649467
30
0.0
11
11.090000
21
14.650465
31
0.0
0
LINE
8
0
6
CONTINUOUS
10
4.968200
20
14.647470
30
0.0
11
7.673700
21
14.649467
31
0.0
0
LINE
8
0
6
CONTINUOUS
10
11.090000
20
14.650465
30
0.0
11
14.509500
21
14.650465
31
0.0
0
LINE
8
0
6
CONTINUOUS
10
-64.385982
20
72.630500
30
0.0
11
-64.500000
21
72.630500
31
0.0
0
LINE
8
0
6
CONTINUOUS
10
-63.354820
20
72.630500
30
0.0
11
-64.041928
21
72.630500
31
0.0
0
LINE
8
0
6
CONTINUOUS
10
-64.041928
20
72.630500
30
0.0
11
-64.385982
21
72.630500
31
0.0
0
LINE
8
0
6
CONTINUOUS
10
-55.723630
20
72.630500
30
0.0
11
-57.269870
21
72.630500
31
0.0
0
LINE
8
0
6
CONTINUOUS
10
-57.269870
20
72.630500
30
0.0
11
-58.746100
21
72.630500
31
0.0
0
LINE
8
0
6
CONTINUOUS
10
-58.746100
20
72.630500
30
0.0
11
-60.109310
21
72.630500
31
0.0
0
LINE
8
0
6
CONTINUOUS
10
-60.109310
20
72.630500
30
0.0
11
-61.327500
21
72.630500
31
0.0
0
LINE
8
0
6
CONTINUOUS
10
-61.327500
20
72.630500
30
0.0
11
-62.385670
21
72.630500
31
0.0
0
LINE
8
0
6
CONTINUOUS
10
-62.385670
20
72.630500
30
0.0
11
-63.354820
21
72.630500
31
0.0
0
LINE
8
0
6
CONTINUOUS
10
-64.446992
20
71.634700
30
0.0
11
-64.500000
21
72.630500
31
0.0
0
LINE
8
0
6
CONTINUOUS
10
4.868100
20
43.755000
30
0.0
11
4.335300
21
39.055200
31
0.0
0
LINE
8
0
6
CONTINUOUS
10
4.335300
20
39.055200
30
0.0
11
2.767600
21
34.590500
31
0.0
0
LINE
8
0
6
CONTINUOUS
10
2.767600
20
34.590500
30
0.0
11
0.240000
21
30.584700
31
0.0
0
LINE
8
0
6
CONTINUOUS
10
0.240000
20
30.584700
30
0.0
11
-3.118300
21
27.240200
31
0.0
0
LINE
8
0
6
CONTINUOUS
10
-3.118300
20
27.240200
30
0.0
11
-7.139600
21
24.724000
31
0.0
0
LINE
8
0
6
CONTINUOUS
10
-7.139600
20
24.724000
30
0.0
11
-11.621700
21
23.161730
31
0.0
0
LINE
8
0
6
CONTINUOUS
10
2.766600
20
52.919500
30
0.0
11
4.335300
21
48.455700
31
0.0
0
LINE
8
0
6
CONTINUOUS
10
-37.019700
20
48.454700
30
0.0
11
-35.451400
21
52.919500
31
0.0
0
LINE
8
0
6
CONTINUOUS
10
-35.451400
20
52.919500
30
0.0
11
-32.923900
21
56.925200
31
0.0
0
LINE
8
0
6
CONTINUOUS
10
-32.923900
20
56.925200
30
0.0
11
-29.565400
21
60.269800
31
0.0
0
LINE
8
0
6
CONTINUOUS
10
-29.565400
20
60.269800
30
0.0
11
-25.544200
21
62.786000
31
0.0
0
LINE
8
0
6
CONTINUOUS
10
-25.544200
20
62.786000
30
0.0
11
-21.062000
21
64.348200
31
0.0
0
LINE
8
0
6
CONTINUOUS
10
-21.062000
20
64.348200
30
0.0
11
-16.341900
21
64.877900
31
0.0
0
LINE
8
0
6
CONTINUOUS
10
-16.341900
20
64.877900
30
0.0
11
-11.621700
21
64.348200
31
0.0
0
LINE
8
0
6
CONTINUOUS
10
-3.118300
20
60.269800
30
0.0
11
0.240000
21
56.925200
31
0.0
0
LINE
8
0
6
CONTINUOUS
10
-7.139600
20
62.786000
30
0.0
11
-3.118300
21
60.269800
31
0.0
0
LINE
8
0
6
CONTINUOUS
10
-11.621700
20
64.348200
30
0.0
11
-7.139600
21
62.786000
31
0.0
0
LINE
8
0
6
CONTINUOUS
10
4.335300
20
48.455700
30
0.0
11
4.868100
21
43.755000
31
0.0
0
LINE
8
0
6
CONTINUOUS
10
0.240000
20
56.925200
30
0.0
11
2.766600
21
52.919500
31
0.0
0
LINE
8
0
6
CONTINUOUS
10
64.469000
20
20.342870
30
0.0
11
64.498000
21
72.630500
31
0.0
0
LINE
8
0
6
CONTINUOUS
10
64.139000
20
72.630500
30
0.0
11
64.101000
21
20.342870
31
0.0
0
LINE
8
0
6
CONTINUOUS
10
64.498000
20
72.630500
30
0.0
11
64.139000
21
72.630500
31
0.0
0
LINE
8
0
6
CONTINUOUS
10
64.101000
20
20.342870
30
0.0
11
64.139000
21
72.630500
31
0.0
0
LINE
8
0
6
CONTINUOUS
10
64.139000
20
72.630500
30
0.0
11
63.543000
21
72.630500
31
0.0
0
LINE
8
0
6
CONTINUOUS
10
64.478000
20
16.974390
30
0.0
11
64.471000
21
18.983760
31
0.0
0
LINE
8
0
6
CONTINUOUS
10
64.471000
20
18.983760
30
0.0
11
64.469000
21
20.342870
31
0.0
0
LINE
8
0
6
CONTINUOUS
10
64.128000
20
15.169155
30
0.0
11
64.130000
21
14.826656
31
0.0
0
LINE
8
0
6
CONTINUOUS
10
64.130000
20
14.826656
30
0.0
11
64.491000
21
15.313601
31
0.0
0
LINE
8
0
6
CONTINUOUS
10
64.130000
20
14.826656
30
0.0
11
64.128000
21
15.169155
31
0.0
0
LINE
8
0
6
CONTINUOUS
10
63.543000
20
14.638486
30
0.0
11
64.130000
21
14.826656
31
0.0
0
LINE
8
0
6
CONTINUOUS
10
64.478000
20
16.974390
30
0.0
11
64.496000
21
17.780970
31
0.0
0
LINE
8
0
6
CONTINUOUS
10
64.471000
20
18.983760
30
0.0
11
64.478000
21
16.974390
31
0.0
0
LINE
8
0
6
CONTINUOUS
10
64.496000
20
17.780970
30
0.0
11
64.471000
21
18.983760
31
0.0
0
LINE
8
0
6
CONTINUOUS
10
64.475000
20
23.396490
30
0.0
11
64.498000
21
22.109890
31
0.0
0
LINE
8
0
6
CONTINUOUS
10
64.500000
20
72.630500
30
0.0
11
64.473000
21
24.675900
31
0.0
0
ENDSEC
0
EOF
