999
Erzeugt mit innoplus bad 
0
SECTION
2
HEADER
9
$ACADVER
1
AC1009
9
$DWGCODEPAGE
3
ISO8859-1
0
ENDSEC
0
SECTION
2
TABLES
0
TABLE
2
LAYER
70
1
0
LAYER
2
0
70
0
62
7
6
CONTINUOUS
0
ENDTAB
0
ENDSEC
0
SECTION
2
ENTITIES
0
LINE
8
0
6
CONTINUOUS
10
149.502000
20
62.239000
30
0.0
11
149.502000
21
-54.012000
31
0.0
0
LINE
8
0
6
CONTINUOUS
10
149.497000
20
62.376000
30
0.0
11
149.502000
21
62.239000
31
0.0
0
LINE
8
0
6
CONTINUOUS
10
149.164000
20
63.299000
30
0.0
11
149.497000
21
62.376000
31
0.0
0
LINE
8
0
6
CONTINUOUS
10
147.987000
20
63.985000
30
0.0
11
148.763000
21
63.692000
31
0.0
0
LINE
8
0
6
CONTINUOUS
10
147.744000
20
64.001000
30
0.0
11
147.987000
21
63.985000
31
0.0
0
LINE
8
0
6
CONTINUOUS
10
149.004000
20
64.232000
30
0.0
11
148.022830
21
64.496010
31
0.0
0
LINE
8
0
6
CONTINUOUS
10
149.733000
20
63.501000
30
0.0
11
150.000000
21
62.502000
31
0.0
0
LINE
8
0
6
CONTINUOUS
10
148.763000
20
63.692000
30
0.0
11
147.987000
21
63.985000
31
0.0
0
LINE
8
0
6
CONTINUOUS
10
145.396000
20
-62.093000
30
0.0
11
147.600000
21
-59.883000
31
0.0
0
LINE
8
0
6
CONTINUOUS
10
139.542000
20
-64.001000
30
0.0
11
142.620000
21
-63.512000
31
0.0
0
LINE
8
0
6
CONTINUOUS
10
142.620000
20
-63.512000
30
0.0
11
145.396000
21
-62.093000
31
0.0
0
LINE
8
0
6
CONTINUOUS
10
149.502000
20
-54.012000
30
0.0
11
149.502000
21
62.239000
31
0.0
0
LINE
8
0
6
CONTINUOUS
10
149.497000
20
62.376000
30
0.0
11
149.164000
21
63.299000
31
0.0
0
LINE
8
0
6
CONTINUOUS
10
149.502000
20
62.239000
30
0.0
11
149.497000
21
62.376000
31
0.0
0
LINE
8
0
6
CONTINUOUS
10
147.600000
20
-59.883000
30
0.0
11
145.396000
21
-62.093000
31
0.0
0
LINE
8
0
6
CONTINUOUS
10
145.689000
20
-62.497000
30
0.0
11
148.003000
21
-60.177000
31
0.0
0
LINE
8
0
6
CONTINUOUS
10
145.396000
20
-62.093000
30
0.0
11
142.620000
21
-63.512000
31
0.0
0
LINE
8
0
6
CONTINUOUS
10
142.774000
20
-63.987000
30
0.0
11
145.689000
21
-62.497000
31
0.0
0
LINE
8
0
6
CONTINUOUS
10
142.620000
20
-63.512000
30
0.0
11
139.542000
21
-64.001000
31
0.0
0
LINE
8
0
6
CONTINUOUS
10
139.542000
20
-64.500000
30
0.0
11
142.774000
21
-63.987000
31
0.0
0
LINE
8
0
6
CONTINUOUS
10
149.502000
20
-54.012000
30
0.0
11
149.014000
21
-57.098000
31
0.0
0
LINE
8
0
6
CONTINUOUS
10
150.000000
20
-54.012000
30
0.0
11
149.488000
21
-57.253000
31
0.0
0
LINE
8
0
6
CONTINUOUS
10
149.014000
20
-57.098000
30
0.0
11
147.600000
21
-59.883000
31
0.0
0
LINE
8
0
6
CONTINUOUS
10
148.003000
20
-60.177000
30
0.0
11
149.488000
21
-57.253000
31
0.0
0
LINE
8
0
6
CONTINUOUS
10
139.542000
20
-64.001000
30
0.0
11
-0.000000
21
-64.001000
31
0.0
0
LINE
8
0
6
CONTINUOUS
10
139.542000
20
-64.500000
30
0.0
11
-0.000000
21
-64.500000
31
0.0
0
LINE
8
0
6
CONTINUOUS
10
150.000000
20
62.502000
30
0.0
11
150.000000
21
-54.012000
31
0.0
0
LINE
8
0
6
CONTINUOUS
10
148.763000
20
63.692000
30
0.0
11
149.164000
21
63.299000
31
0.0
0
LINE
8
0
6
CONTINUOUS
10
149.004000
20
64.232000
30
0.0
11
149.733000
21
63.501000
31
0.0
0
LINE
8
0
6
CONTINUOUS
10
148.008000
20
64.500000
30
0.0
11
-0.000000
21
64.500000
31
0.0
0
LINE
8
0
6
CONTINUOUS
10
-0.000000
20
64.001000
30
0.0
11
147.744000
21
64.001000
31
0.0
0
LINE
8
0
6
CONTINUOUS
10
147.600000
20
-59.883000
30
0.0
11
149.014000
21
-57.098000
31
0.0
0
LINE
8
0
6
CONTINUOUS
10
147.987000
20
63.985000
30
0.0
11
147.744000
21
64.001000
31
0.0
0
LINE
8
0
6
CONTINUOUS
10
149.014000
20
-57.098000
30
0.0
11
149.502000
21
-54.012000
31
0.0
0
LINE
8
0
6
CONTINUOUS
10
149.164000
20
63.299000
30
0.0
11
148.763000
21
63.692000
31
0.0
0
LINE
8
0
6
CONTINUOUS
10
147.744000
20
64.001000
30
0.0
11
-0.000000
21
64.001000
31
0.0
0
LINE
8
0
6
CONTINUOUS
10
-0.000000
20
-64.001000
30
0.0
11
139.542000
21
-64.001000
31
0.0
0
LINE
8
0
6
CONTINUOUS
10
-149.501992
20
62.239000
30
0.0
11
-149.497012
21
62.376000
31
0.0
0
LINE
8
0
6
CONTINUOUS
10
-149.501992
20
-54.012000
30
0.0
11
-149.501992
21
62.239000
31
0.0
0
LINE
8
0
6
CONTINUOUS
10
-149.497012
20
62.376000
30
0.0
11
-149.164343
21
63.299000
31
0.0
0
LINE
8
0
6
CONTINUOUS
10
-148.762950
20
63.692000
30
0.0
11
-147.987050
21
63.985000
31
0.0
0
LINE
8
0
6
CONTINUOUS
10
-147.987050
20
63.985000
30
0.0
11
-147.744020
21
64.001000
31
0.0
0
LINE
8
0
6
CONTINUOUS
10
-148.007970
20
64.500000
30
0.0
11
-149.003984
21
64.232000
31
0.0
0
LINE
8
0
6
CONTINUOUS
10
-150.000000
20
62.502000
30
0.0
11
-149.733068
21
63.501000
31
0.0
0
LINE
8
0
6
CONTINUOUS
10
-147.987050
20
63.985000
30
0.0
11
-148.762950
21
63.692000
31
0.0
0
LINE
8
0
6
CONTINUOUS
10
-147.599600
20
-59.883000
30
0.0
11
-145.396410
21
-62.093000
31
0.0
0
LINE
8
0
6
CONTINUOUS
10
-142.619520
20
-63.512000
30
0.0
11
-139.541800
21
-64.001000
31
0.0
0
LINE
8
0
6
CONTINUOUS
10
-145.396410
20
-62.093000
30
0.0
11
-142.619520
21
-63.512000
31
0.0
0
LINE
8
0
6
CONTINUOUS
10
-149.501992
20
62.239000
30
0.0
11
-149.501992
21
-54.012000
31
0.0
0
LINE
8
0
6
CONTINUOUS
10
-149.497012
20
62.376000
30
0.0
11
-149.501992
21
62.239000
31
0.0
0
LINE
8
0
6
CONTINUOUS
10
-149.164343
20
63.299000
30
0.0
11
-149.497012
21
62.376000
31
0.0
0
LINE
8
0
6
CONTINUOUS
10
-145.396410
20
-62.093000
30
0.0
11
-147.599600
21
-59.883000
31
0.0
0
LINE
8
0
6
CONTINUOUS
10
-148.002990
20
-60.177000
30
0.0
11
-145.689240
21
-62.497000
31
0.0
0
LINE
8
0
6
CONTINUOUS
10
-142.619520
20
-63.512000
30
0.0
11
-145.396410
21
-62.093000
31
0.0
0
LINE
8
0
6
CONTINUOUS
10
-145.689240
20
-62.497000
30
0.0
11
-142.773900
21
-63.987000
31
0.0
0
LINE
8
0
6
CONTINUOUS
10
-139.541800
20
-64.001000
30
0.0
11
-142.619520
21
-63.512000
31
0.0
0
LINE
8
0
6
CONTINUOUS
10
-142.773900
20
-63.987000
30
0.0
11
-139.541800
21
-64.500000
31
0.0
0
LINE
8
0
6
CONTINUOUS
10
-149.013944
20
-57.098000
30
0.0
11
-149.501992
21
-54.012000
31
0.0
0
LINE
8
0
6
CONTINUOUS
10
-149.488048
20
-57.253000
30
0.0
11
-150.000000
21
-54.012000
31
0.0
0
LINE
8
0
6
CONTINUOUS
10
-147.599600
20
-59.883000
30
0.0
11
-149.013944
21
-57.098000
31
0.0
0
LINE
8
0
6
CONTINUOUS
10
-149.488048
20
-57.253000
30
0.0
11
-148.002990
21
-60.177000
31
0.0
0
LINE
8
0
6
CONTINUOUS
10
-0.000000
20
-64.001000
30
0.0
11
-139.541800
21
-64.001000
31
0.0
0
LINE
8
0
6
CONTINUOUS
10
-0.000000
20
-64.500000
30
0.0
11
-139.541800
21
-64.500000
31
0.0
0
LINE
8
0
6
CONTINUOUS
10
-150.000000
20
-54.012000
30
0.0
11
-150.000000
21
62.502000
31
0.0
0
LINE
8
0
6
CONTINUOUS
10
-149.164343
20
63.299000
30
0.0
11
-148.762950
21
63.692000
31
0.0
0
LINE
8
0
6
CONTINUOUS
10
-149.733068
20
63.501000
30
0.0
11
-149.003984
21
64.232000
31
0.0
0
LINE
8
0
6
CONTINUOUS
10
-0.000000
20
64.500000
30
0.0
11
-148.007970
21
64.500000
31
0.0
0
LINE
8
0
6
CONTINUOUS
10
-147.744020
20
64.001000
30
0.0
11
-0.000000
21
64.001000
31
0.0
0
LINE
8
0
6
CONTINUOUS
10
-149.013944
20
-57.098000
30
0.0
11
-147.599600
21
-59.883000
31
0.0
0
LINE
8
0
6
CONTINUOUS
10
-147.744020
20
64.001000
30
0.0
11
-147.987050
21
63.985000
31
0.0
0
LINE
8
0
6
CONTINUOUS
10
-148.762950
20
63.692000
30
0.0
11
-149.164343
21
63.299000
31
0.0
0
LINE
8
0
6
CONTINUOUS
10
-149.501992
20
-54.012000
30
0.0
11
-149.013944
21
-57.098000
31
0.0
0
LINE
8
0
6
CONTINUOUS
10
-139.541800
20
-64.001000
30
0.0
11
-0.000000
21
-64.001000
31
0.0
0
LINE
8
0
6
CONTINUOUS
10
-0.000000
20
64.001000
30
0.0
11
-147.744020
21
64.001000
31
0.0
0
LINE
8
0
6
CONTINUOUS
10
175.000000
20
-20.559000
30
0.0
11
175.000000
21
-21.459000
31
0.0
0
LINE
8
0
6
CONTINUOUS
10
175.000000
20
-21.459000
30
0.0
11
175.000000
21
-22.023000
31
0.0
0
LINE
8
0
6
CONTINUOUS
10
175.000000
20
-22.023000
30
0.0
11
175.000000
21
-22.235000
31
0.0
0
LINE
8
0
6
CONTINUOUS
10
175.000000
20
-21.459000
30
0.0
11
175.000000
21
-20.559000
31
0.0
0
LINE
8
0
6
CONTINUOUS
10
175.000000
20
-22.023000
30
0.0
11
175.000000
21
-21.459000
31
0.0
0
LINE
8
0
6
CONTINUOUS
10
175.000000
20
-22.235000
30
0.0
11
175.000000
21
-22.023000
31
0.0
0
LINE
8
0
6
CONTINUOUS
10
175.000000
20
-19.359000
30
0.0
11
175.000000
21
-20.559000
31
0.0
0
LINE
8
0
6
CONTINUOUS
10
175.000000
20
-17.982000
30
0.0
11
175.000000
21
-19.359000
31
0.0
0
LINE
8
0
6
CONTINUOUS
10
175.000000
20
-16.500000
30
0.0
11
175.000000
21
-17.982000
31
0.0
0
LINE
8
0
6
CONTINUOUS
10
175.000000
20
-20.559000
30
0.0
11
175.000000
21
-19.359000
31
0.0
0
LINE
8
0
6
CONTINUOUS
10
175.000000
20
-19.359000
30
0.0
11
175.000000
21
-17.982000
31
0.0
0
LINE
8
0
6
CONTINUOUS
10
175.000000
20
-17.982000
30
0.0
11
175.000000
21
-16.500000
31
0.0
0
LINE
8
0
6
CONTINUOUS
10
175.000000
20
-22.235000
30
0.0
11
174.808000
21
-22.412000
31
0.0
0
LINE
8
0
6
CONTINUOUS
10
174.808000
20
-22.412000
30
0.0
11
174.423000
21
-22.500000
31
0.0
0
LINE
8
0
6
CONTINUOUS
10
174.423000
20
-22.500000
30
0.0
11
151.000000
21
-22.500000
31
0.0
0
LINE
8
0
6
CONTINUOUS
10
151.000000
20
-31.333000
30
0.0
11
151.000000
21
-33.123000
31
0.0
0
LINE
8
0
6
CONTINUOUS
10
151.000000
20
-33.123000
30
0.0
11
151.000000
21
-34.693000
31
0.0
0
LINE
8
0
6
CONTINUOUS
10
151.000000
20
-34.693000
30
0.0
11
151.000000
21
-35.864000
31
0.0
0
LINE
8
0
6
CONTINUOUS
10
151.000000
20
-35.864000
30
0.0
11
151.000000
21
-36.748000
31
0.0
0
LINE
8
0
6
CONTINUOUS
10
151.000000
20
-36.748000
30
0.0
11
151.000000
21
-37.279000
31
0.0
0
LINE
8
0
6
CONTINUOUS
10
151.000000
20
-37.279000
30
0.0
11
151.000000
21
-37.500000
31
0.0
0
LINE
8
0
6
CONTINUOUS
10
151.000000
20
-33.123000
30
0.0
11
151.000000
21
-31.333000
31
0.0
0
LINE
8
0
6
CONTINUOUS
10
151.000000
20
-34.693000
30
0.0
11
151.000000
21
-33.123000
31
0.0
0
LINE
8
0
6
CONTINUOUS
10
151.000000
20
-35.864000
30
0.0
11
151.000000
21
-34.693000
31
0.0
0
LINE
8
0
6
CONTINUOUS
10
151.000000
20
-36.748000
30
0.0
11
151.000000
21
-35.864000
31
0.0
0
LINE
8
0
6
CONTINUOUS
10
151.000000
20
-37.279000
30
0.0
11
151.000000
21
-36.748000
31
0.0
0
LINE
8
0
6
CONTINUOUS
10
151.000000
20
-37.500000
30
0.0
11
151.000000
21
-37.279000
31
0.0
0
LINE
8
0
6
CONTINUOUS
10
151.000000
20
-29.277000
30
0.0
11
151.000000
21
-31.333000
31
0.0
0
LINE
8
0
6
CONTINUOUS
10
151.000000
20
-26.956000
30
0.0
11
151.000000
21
-29.277000
31
0.0
0
LINE
8
0
6
CONTINUOUS
10
151.000000
20
-24.524000
30
0.0
11
151.000000
21
-26.956000
31
0.0
0
LINE
8
0
6
CONTINUOUS
10
151.000000
20
-21.916000
30
0.0
11
151.000000
21
-24.524000
31
0.0
0
LINE
8
0
6
CONTINUOUS
10
151.000000
20
-19.241000
30
0.0
11
151.000000
21
-21.916000
31
0.0
0
LINE
8
0
6
CONTINUOUS
10
151.000000
20
-16.500000
30
0.0
11
151.000000
21
-19.241000
31
0.0
0
LINE
8
0
6
CONTINUOUS
10
151.000000
20
-31.333000
30
0.0
11
151.000000
21
-29.277000
31
0.0
0
LINE
8
0
6
CONTINUOUS
10
151.000000
20
-29.277000
30
0.0
11
151.000000
21
-26.956000
31
0.0
0
LINE
8
0
6
CONTINUOUS
10
151.000000
20
-26.956000
30
0.0
11
151.000000
21
-24.524000
31
0.0
0
LINE
8
0
6
CONTINUOUS
10
151.000000
20
-24.524000
30
0.0
11
151.000000
21
-21.916000
31
0.0
0
LINE
8
0
6
CONTINUOUS
10
151.000000
20
-21.916000
30
0.0
11
151.000000
21
-19.241000
31
0.0
0
LINE
8
0
6
CONTINUOUS
10
151.000000
20
-19.241000
30
0.0
11
151.000000
21
-16.500000
31
0.0
0
LINE
8
0
6
CONTINUOUS
10
151.000000
20
-37.500000
30
0.0
11
150.000000
21
-37.500000
31
0.0
0
LINE
8
0
6
CONTINUOUS
10
151.000000
20
0.123000
30
0.0
11
151.000000
21
-1.667000
31
0.0
0
LINE
8
0
6
CONTINUOUS
10
151.000000
20
1.693000
30
0.0
11
151.000000
21
0.123000
31
0.0
0
LINE
8
0
6
CONTINUOUS
10
151.000000
20
2.864000
30
0.0
11
151.000000
21
1.693000
31
0.0
0
LINE
8
0
6
CONTINUOUS
10
151.000000
20
3.748000
30
0.0
11
151.000000
21
2.864000
31
0.0
0
LINE
8
0
6
CONTINUOUS
10
151.000000
20
4.279000
30
0.0
11
151.000000
21
3.748000
31
0.0
0
LINE
8
0
6
CONTINUOUS
10
151.000000
20
4.500000
30
0.0
11
151.000000
21
4.279000
31
0.0
0
LINE
8
0
6
CONTINUOUS
10
151.000000
20
-1.667000
30
0.0
11
151.000000
21
0.123000
31
0.0
0
LINE
8
0
6
CONTINUOUS
10
151.000000
20
0.123000
30
0.0
11
151.000000
21
1.693000
31
0.0
0
LINE
8
0
6
CONTINUOUS
10
151.000000
20
1.693000
30
0.0
11
151.000000
21
2.864000
31
0.0
0
LINE
8
0
6
CONTINUOUS
10
151.000000
20
2.864000
30
0.0
11
151.000000
21
3.748000
31
0.0
0
LINE
8
0
6
CONTINUOUS
10
151.000000
20
3.748000
30
0.0
11
151.000000
21
4.279000
31
0.0
0
LINE
8
0
6
CONTINUOUS
10
151.000000
20
4.500000
30
0.0
11
150.000000
21
4.500000
31
0.0
0
LINE
8
0
6
CONTINUOUS
10
151.000000
20
4.279000
30
0.0
11
151.000000
21
4.500000
31
0.0
0
LINE
8
0
6
CONTINUOUS
10
151.000000
20
-1.667000
30
0.0
11
151.000000
21
-3.723000
31
0.0
0
LINE
8
0
6
CONTINUOUS
10
151.000000
20
-3.723000
30
0.0
11
151.000000
21
-6.044000
31
0.0
0
LINE
8
0
6
CONTINUOUS
10
151.000000
20
-6.044000
30
0.0
11
151.000000
21
-8.476000
31
0.0
0
LINE
8
0
6
CONTINUOUS
10
151.000000
20
-8.476000
30
0.0
11
151.000000
21
-11.084000
31
0.0
0
LINE
8
0
6
CONTINUOUS
10
151.000000
20
-11.084000
30
0.0
11
151.000000
21
-13.759000
31
0.0
0
LINE
8
0
6
CONTINUOUS
10
151.000000
20
-13.759000
30
0.0
11
151.000000
21
-16.500000
31
0.0
0
LINE
8
0
6
CONTINUOUS
10
151.000000
20
-3.723000
30
0.0
11
151.000000
21
-1.667000
31
0.0
0
LINE
8
0
6
CONTINUOUS
10
151.000000
20
-6.044000
30
0.0
11
151.000000
21
-3.723000
31
0.0
0
LINE
8
0
6
CONTINUOUS
10
151.000000
20
-8.476000
30
0.0
11
151.000000
21
-6.044000
31
0.0
0
LINE
8
0
6
CONTINUOUS
10
151.000000
20
-11.084000
30
0.0
11
151.000000
21
-8.476000
31
0.0
0
LINE
8
0
6
CONTINUOUS
10
151.000000
20
-13.759000
30
0.0
11
151.000000
21
-11.084000
31
0.0
0
LINE
8
0
6
CONTINUOUS
10
151.000000
20
-16.500000
30
0.0
11
151.000000
21
-13.759000
31
0.0
0
LINE
8
0
6
CONTINUOUS
10
175.000000
20
-11.541000
30
0.0
11
175.000000
21
-12.441000
31
0.0
0
LINE
8
0
6
CONTINUOUS
10
175.000000
20
-10.977000
30
0.0
11
175.000000
21
-11.541000
31
0.0
0
LINE
8
0
6
CONTINUOUS
10
175.000000
20
-10.765000
30
0.0
11
175.000000
21
-10.977000
31
0.0
0
LINE
8
0
6
CONTINUOUS
10
175.000000
20
-12.441000
30
0.0
11
175.000000
21
-11.541000
31
0.0
0
LINE
8
0
6
CONTINUOUS
10
175.000000
20
-11.541000
30
0.0
11
175.000000
21
-10.977000
31
0.0
0
LINE
8
0
6
CONTINUOUS
10
175.000000
20
-10.765000
30
0.0
11
174.808000
21
-10.588000
31
0.0
0
LINE
8
0
6
CONTINUOUS
10
175.000000
20
-10.977000
30
0.0
11
175.000000
21
-10.765000
31
0.0
0
LINE
8
0
6
CONTINUOUS
10
174.808000
20
-10.588000
30
0.0
11
174.423000
21
-10.500000
31
0.0
0
LINE
8
0
6
CONTINUOUS
10
174.423000
20
-10.500000
30
0.0
11
151.000000
21
-10.500000
31
0.0
0
LINE
8
0
6
CONTINUOUS
10
175.000000
20
-12.441000
30
0.0
11
175.000000
21
-13.641000
31
0.0
0
LINE
8
0
6
CONTINUOUS
10
175.000000
20
-13.641000
30
0.0
11
175.000000
21
-15.018000
31
0.0
0
LINE
8
0
6
CONTINUOUS
10
175.000000
20
-15.018000
30
0.0
11
175.000000
21
-16.500000
31
0.0
0
LINE
8
0
6
CONTINUOUS
10
175.000000
20
-13.641000
30
0.0
11
175.000000
21
-12.441000
31
0.0
0
LINE
8
0
6
CONTINUOUS
10
175.000000
20
-15.018000
30
0.0
11
175.000000
21
-13.641000
31
0.0
0
LINE
8
0
6
CONTINUOUS
10
175.000000
20
-16.500000
30
0.0
11
175.000000
21
-15.018000
31
0.0
0
LINE
8
0
6
CONTINUOUS
10
-175.000000
20
-20.559000
30
0.0
11
-175.000000
21
-21.459000
31
0.0
0
LINE
8
0
6
CONTINUOUS
10
-175.000000
20
-21.459000
30
0.0
11
-175.000000
21
-22.023000
31
0.0
0
LINE
8
0
6
CONTINUOUS
10
-175.000000
20
-22.023000
30
0.0
11
-175.000000
21
-22.235000
31
0.0
0
LINE
8
0
6
CONTINUOUS
10
-175.000000
20
-21.459000
30
0.0
11
-175.000000
21
-20.559000
31
0.0
0
LINE
8
0
6
CONTINUOUS
10
-175.000000
20
-22.023000
30
0.0
11
-175.000000
21
-21.459000
31
0.0
0
LINE
8
0
6
CONTINUOUS
10
-175.000000
20
-22.235000
30
0.0
11
-175.000000
21
-22.023000
31
0.0
0
LINE
8
0
6
CONTINUOUS
10
-175.000000
20
-19.359000
30
0.0
11
-175.000000
21
-20.559000
31
0.0
0
LINE
8
0
6
CONTINUOUS
10
-175.000000
20
-17.982000
30
0.0
11
-175.000000
21
-19.359000
31
0.0
0
LINE
8
0
6
CONTINUOUS
10
-175.000000
20
-16.500000
30
0.0
11
-175.000000
21
-17.982000
31
0.0
0
LINE
8
0
6
CONTINUOUS
10
-175.000000
20
-20.559000
30
0.0
11
-175.000000
21
-19.359000
31
0.0
0
LINE
8
0
6
CONTINUOUS
10
-175.000000
20
-19.359000
30
0.0
11
-175.000000
21
-17.982000
31
0.0
0
LINE
8
0
6
CONTINUOUS
10
-175.000000
20
-17.982000
30
0.0
11
-175.000000
21
-16.500000
31
0.0
0
LINE
8
0
6
CONTINUOUS
10
-151.000000
20
-31.333000
30
0.0
11
-151.000000
21
-33.123000
31
0.0
0
LINE
8
0
6
CONTINUOUS
10
-151.000000
20
-33.123000
30
0.0
11
-151.000000
21
-34.693000
31
0.0
0
LINE
8
0
6
CONTINUOUS
10
-151.000000
20
-34.693000
30
0.0
11
-151.000000
21
-35.864000
31
0.0
0
LINE
8
0
6
CONTINUOUS
10
-151.000000
20
-35.864000
30
0.0
11
-151.000000
21
-36.748000
31
0.0
0
LINE
8
0
6
CONTINUOUS
10
-151.000000
20
-36.748000
30
0.0
11
-151.000000
21
-37.279000
31
0.0
0
LINE
8
0
6
CONTINUOUS
10
-151.000000
20
-37.279000
30
0.0
11
-151.000000
21
-37.500000
31
0.0
0
LINE
8
0
6
CONTINUOUS
10
-151.000000
20
-33.123000
30
0.0
11
-151.000000
21
-31.333000
31
0.0
0
LINE
8
0
6
CONTINUOUS
10
-151.000000
20
-34.693000
30
0.0
11
-151.000000
21
-33.123000
31
0.0
0
LINE
8
0
6
CONTINUOUS
10
-151.000000
20
-35.864000
30
0.0
11
-151.000000
21
-34.693000
31
0.0
0
LINE
8
0
6
CONTINUOUS
10
-151.000000
20
-36.748000
30
0.0
11
-151.000000
21
-35.864000
31
0.0
0
LINE
8
0
6
CONTINUOUS
10
-151.000000
20
-37.279000
30
0.0
11
-151.000000
21
-36.748000
31
0.0
0
LINE
8
0
6
CONTINUOUS
10
-151.000000
20
-37.500000
30
0.0
11
-151.000000
21
-37.279000
31
0.0
0
LINE
8
0
6
CONTINUOUS
10
-151.000000
20
-29.277000
30
0.0
11
-151.000000
21
-31.333000
31
0.0
0
LINE
8
0
6
CONTINUOUS
10
-151.000000
20
-26.956000
30
0.0
11
-151.000000
21
-29.277000
31
0.0
0
LINE
8
0
6
CONTINUOUS
10
-151.000000
20
-24.524000
30
0.0
11
-151.000000
21
-26.956000
31
0.0
0
LINE
8
0
6
CONTINUOUS
10
-151.000000
20
-21.916000
30
0.0
11
-151.000000
21
-24.524000
31
0.0
0
LINE
8
0
6
CONTINUOUS
10
-151.000000
20
-19.241000
30
0.0
11
-151.000000
21
-21.916000
31
0.0
0
LINE
8
0
6
CONTINUOUS
10
-151.000000
20
-16.500000
30
0.0
11
-151.000000
21
-19.241000
31
0.0
0
LINE
8
0
6
CONTINUOUS
10
-151.000000
20
-31.333000
30
0.0
11
-151.000000
21
-29.277000
31
0.0
0
LINE
8
0
6
CONTINUOUS
10
-151.000000
20
-29.277000
30
0.0
11
-151.000000
21
-26.956000
31
0.0
0
LINE
8
0
6
CONTINUOUS
10
-151.000000
20
-26.956000
30
0.0
11
-151.000000
21
-24.524000
31
0.0
0
LINE
8
0
6
CONTINUOUS
10
-151.000000
20
-24.524000
30
0.0
11
-151.000000
21
-21.916000
31
0.0
0
LINE
8
0
6
CONTINUOUS
10
-151.000000
20
-21.916000
30
0.0
11
-151.000000
21
-19.241000
31
0.0
0
LINE
8
0
6
CONTINUOUS
10
-151.000000
20
-19.241000
30
0.0
11
-151.000000
21
-16.500000
31
0.0
0
LINE
8
0
6
CONTINUOUS
10
-151.000000
20
-37.500000
30
0.0
11
-150.000000
21
-37.500000
31
0.0
0
LINE
8
0
6
CONTINUOUS
10
-151.000000
20
0.123000
30
0.0
11
-151.000000
21
-1.667000
31
0.0
0
LINE
8
0
6
CONTINUOUS
10
-151.000000
20
1.693000
30
0.0
11
-151.000000
21
0.123000
31
0.0
0
LINE
8
0
6
CONTINUOUS
10
-151.000000
20
2.864000
30
0.0
11
-151.000000
21
1.693000
31
0.0
0
LINE
8
0
6
CONTINUOUS
10
-151.000000
20
3.748000
30
0.0
11
-151.000000
21
2.864000
31
0.0
0
LINE
8
0
6
CONTINUOUS
10
-151.000000
20
4.279000
30
0.0
11
-151.000000
21
3.748000
31
0.0
0
LINE
8
0
6
CONTINUOUS
10
-151.000000
20
4.500000
30
0.0
11
-151.000000
21
4.279000
31
0.0
0
LINE
8
0
6
CONTINUOUS
10
-151.000000
20
-1.667000
30
0.0
11
-151.000000
21
0.123000
31
0.0
0
LINE
8
0
6
CONTINUOUS
10
-151.000000
20
0.123000
30
0.0
11
-151.000000
21
1.693000
31
0.0
0
LINE
8
0
6
CONTINUOUS
10
-151.000000
20
1.693000
30
0.0
11
-151.000000
21
2.864000
31
0.0
0
LINE
8
0
6
CONTINUOUS
10
-151.000000
20
2.864000
30
0.0
11
-151.000000
21
3.748000
31
0.0
0
LINE
8
0
6
CONTINUOUS
10
-151.000000
20
3.748000
30
0.0
11
-151.000000
21
4.279000
31
0.0
0
LINE
8
0
6
CONTINUOUS
10
-151.000000
20
4.500000
30
0.0
11
-150.000000
21
4.500000
31
0.0
0
LINE
8
0
6
CONTINUOUS
10
-151.000000
20
4.279000
30
0.0
11
-151.000000
21
4.500000
31
0.0
0
LINE
8
0
6
CONTINUOUS
10
-151.000000
20
-1.667000
30
0.0
11
-151.000000
21
-3.723000
31
0.0
0
LINE
8
0
6
CONTINUOUS
10
-151.000000
20
-3.723000
30
0.0
11
-151.000000
21
-6.044000
31
0.0
0
LINE
8
0
6
CONTINUOUS
10
-151.000000
20
-6.044000
30
0.0
11
-151.000000
21
-8.476000
31
0.0
0
LINE
8
0
6
CONTINUOUS
10
-151.000000
20
-8.476000
30
0.0
11
-151.000000
21
-11.084000
31
0.0
0
LINE
8
0
6
CONTINUOUS
10
-151.000000
20
-11.084000
30
0.0
11
-151.000000
21
-13.759000
31
0.0
0
LINE
8
0
6
CONTINUOUS
10
-151.000000
20
-13.759000
30
0.0
11
-151.000000
21
-16.500000
31
0.0
0
LINE
8
0
6
CONTINUOUS
10
-151.000000
20
-3.723000
30
0.0
11
-151.000000
21
-1.667000
31
0.0
0
LINE
8
0
6
CONTINUOUS
10
-151.000000
20
-6.044000
30
0.0
11
-151.000000
21
-3.723000
31
0.0
0
LINE
8
0
6
CONTINUOUS
10
-151.000000
20
-8.476000
30
0.0
11
-151.000000
21
-6.044000
31
0.0
0
LINE
8
0
6
CONTINUOUS
10
-151.000000
20
-11.084000
30
0.0
11
-151.000000
21
-8.476000
31
0.0
0
LINE
8
0
6
CONTINUOUS
10
-151.000000
20
-13.759000
30
0.0
11
-151.000000
21
-11.084000
31
0.0
0
LINE
8
0
6
CONTINUOUS
10
-151.000000
20
-16.500000
30
0.0
11
-151.000000
21
-13.759000
31
0.0
0
LINE
8
0
6
CONTINUOUS
10
-175.000000
20
-11.541000
30
0.0
11
-175.000000
21
-12.441000
31
0.0
0
LINE
8
0
6
CONTINUOUS
10
-175.000000
20
-10.977000
30
0.0
11
-175.000000
21
-11.541000
31
0.0
0
LINE
8
0
6
CONTINUOUS
10
-175.000000
20
-10.765000
30
0.0
11
-175.000000
21
-10.977000
31
0.0
0
LINE
8
0
6
CONTINUOUS
10
-175.000000
20
-12.441000
30
0.0
11
-175.000000
21
-11.541000
31
0.0
0
LINE
8
0
6
CONTINUOUS
10
-175.000000
20
-11.541000
30
0.0
11
-175.000000
21
-10.977000
31
0.0
0
LINE
8
0
6
CONTINUOUS
10
-175.000000
20
-10.977000
30
0.0
11
-175.000000
21
-10.765000
31
0.0
0
LINE
8
0
6
CONTINUOUS
10
-175.000000
20
-12.441000
30
0.0
11
-175.000000
21
-13.641000
31
0.0
0
LINE
8
0
6
CONTINUOUS
10
-175.000000
20
-13.641000
30
0.0
11
-175.000000
21
-15.018000
31
0.0
0
LINE
8
0
6
CONTINUOUS
10
-175.000000
20
-15.018000
30
0.0
11
-175.000000
21
-16.500000
31
0.0
0
LINE
8
0
6
CONTINUOUS
10
-175.000000
20
-13.641000
30
0.0
11
-175.000000
21
-12.441000
31
0.0
0
LINE
8
0
6
CONTINUOUS
10
-175.000000
20
-15.018000
30
0.0
11
-175.000000
21
-13.641000
31
0.0
0
LINE
8
0
6
CONTINUOUS
10
-175.000000
20
-16.500000
30
0.0
11
-175.000000
21
-15.018000
31
0.0
0
LINE
8
0
6
CONTINUOUS
10
149.337873
20
64.469001
30
0.0
11
148.123084
21
64.469034
31
0.0
0
LINE
8
0
6
CONTINUOUS
10
149.297000
20
64.498000
30
0.0
11
149.379000
21
64.469000
31
0.0
0
LINE
8
0
6
CONTINUOUS
10
148.015369
20
64.498017
30
0.0
11
149.297000
21
64.498000
31
0.0
0
LINE
8
0
6
CONTINUOUS
10
150.000000
20
63.543000
30
0.0
11
150.000000
21
62.502000
31
0.0
0
LINE
8
0
6
CONTINUOUS
10
150.000000
20
-53.873300
30
0.0
11
149.844000
21
-55.723630
31
0.0
0
LINE
8
0
6
CONTINUOUS
10
142.334000
20
-64.041928
30
0.0
11
140.744000
21
-64.385982
31
0.0
0
LINE
8
0
6
CONTINUOUS
10
149.844000
20
-55.723630
30
0.0
11
149.423000
21
-57.269870
31
0.0
0
LINE
8
0
6
CONTINUOUS
10
149.379000
20
64.469000
30
0.0
11
149.297000
21
64.498000
31
0.0
0
LINE
8
0
6
CONTINUOUS
10
149.803000
20
64.139000
30
0.0
11
149.830000
21
64.101000
31
0.0
0
LINE
8
0
6
CONTINUOUS
10
149.297000
20
64.498000
30
0.0
11
149.803000
21
64.139000
31
0.0
0
LINE
8
0
6
CONTINUOUS
10
149.830000
20
64.101000
30
0.0
11
149.297000
21
64.498000
31
0.0
0
LINE
8
0
6
CONTINUOUS
10
149.830000
20
64.101000
30
0.0
11
149.803000
21
64.139000
31
0.0
0
LINE
8
0
6
CONTINUOUS
10
149.803000
20
64.139000
30
0.0
11
150.000000
21
63.543000
31
0.0
0
LINE
8
0
6
CONTINUOUS
10
150.000000
20
63.543000
30
0.0
11
149.803000
21
64.139000
31
0.0
0
LINE
8
0
6
CONTINUOUS
10
149.379000
20
64.469000
30
0.0
11
149.830000
21
64.101000
31
0.0
0
LINE
8
0
6
CONTINUOUS
10
149.830000
20
64.101000
30
0.0
11
150.000000
21
63.543000
31
0.0
0
LINE
8
0
6
CONTINUOUS
10
-149.297000
20
64.498000
30
0.0
11
-148.015339
21
64.498017
31
0.0
0
LINE
8
0
6
CONTINUOUS
10
-149.379000
20
64.469000
30
0.0
11
-149.297000
21
64.498000
31
0.0
0
LINE
8
0
6
CONTINUOUS
10
-148.123056
20
64.469034
30
0.0
11
-149.335933
21
64.469001
31
0.0
0
LINE
8
0
6
CONTINUOUS
10
-150.000000
20
-53.873300
30
0.0
11
-150.000000
21
63.543000
31
0.0
0
LINE
8
0
6
CONTINUOUS
10
-149.974000
20
5.730000
30
0.0
11
-150.000000
21
9.882200
31
0.0
0
LINE
8
0
6
CONTINUOUS
10
-149.844000
20
-55.723630
30
0.0
11
-150.000000
21
-53.873300
31
0.0
0
LINE
8
0
6
CONTINUOUS
10
-140.744000
20
-64.385982
30
0.0
11
-142.334000
21
-64.041928
31
0.0
0
LINE
8
0
6
CONTINUOUS
10
-149.423000
20
-57.269870
30
0.0
11
-149.844000
21
-55.723630
31
0.0
0
LINE
8
0
6
CONTINUOUS
10
-149.297000
20
64.498000
30
0.0
11
-149.379000
21
64.469000
31
0.0
0
LINE
8
0
6
CONTINUOUS
10
-149.830000
20
64.101000
30
0.0
11
-149.803000
21
64.139000
31
0.0
0
LINE
8
0
6
CONTINUOUS
10
-149.297000
20
64.498000
30
0.0
11
-149.830000
21
64.101000
31
0.0
0
LINE
8
0
6
CONTINUOUS
10
-149.803000
20
64.139000
30
0.0
11
-149.297000
21
64.498000
31
0.0
0
LINE
8
0
6
CONTINUOUS
10
-149.803000
20
64.139000
30
0.0
11
-149.830000
21
64.101000
31
0.0
0
LINE
8
0
6
CONTINUOUS
10
-149.803000
20
64.139000
30
0.0
11
-150.000000
21
63.543000
31
0.0
0
LINE
8
0
6
CONTINUOUS
10
-150.000000
20
63.543000
30
0.0
11
-149.803000
21
64.139000
31
0.0
0
LINE
8
0
6
CONTINUOUS
10
-149.830000
20
64.101000
30
0.0
11
-149.379000
21
64.469000
31
0.0
0
LINE
8
0
6
CONTINUOUS
10
-150.000000
20
63.543000
30
0.0
11
-149.830000
21
64.101000
31
0.0
0
ENDSEC
0
EOF
