  0
SECTION
  2
HEADER
  9
$ACADVER
  1
AC1015
  9
$ACADMAINTVER
 70
     6
  9
$DWGCODEPAGE
  3
ANSI_932
  9
$INSBASE
 10
0.0
 20
0.0
 30
0.0
  9
$EXTMIN
 10
4.233333
 20
45.379487
 30
1.000000E+20
  9
$EXTMAX
 10
204.634193
 20
250.953847
 30
-1.000000E+20
  9
$LIMMIN
 10
4.233333
 20
45.379487
  9
$LIMMAX
 10
204.634193
 20
250.953847
  9
$ORTHOMODE
 70
     0
  9
$REGENMODE
 70
     1
  9
$FILLMODE
 70
     1
  9
$QTEXTMODE
 70
     0
  9
$MIRRTEXT
 70
     1
  9
$LTSCALE
 40
1.0
  9
$ATTMODE
 70
     1
  9
$TEXTSIZE
 40
0.2
  9
$TRACEWID
 40
0.05
  9
$TEXTSTYLE
  7
Standard
  9
$CLAYER
  8
0
  9
$CELTYPE
  6
Continuous
  9
$CECOLOR
 62
   256
  9
$CELTSCALE
 40
1.0
  9
$DISPSILH
 70
     0
  9
$DIMSCALE
 40
1.0
  9
$DIMASZ
 40
0.18
  9
$DIMEXO
 40
0.0625
  9
$DIMDLI
 40
0.38
  9
$DIMRND
 40
0.0
  9
$DIMDLE
 40
0.0
  9
$DIMEXE
 40
0.18
  9
$DIMTP
 40
0.0
  9
$DIMTM
 40
0.0
  9
$DIMTXT
 40
0.18
  9
$DIMCEN
 40
0.09
  9
$DIMTSZ
 40
0.0
  9
$DIMTOL
 70
     0
  9
$DIMLIM
 70
     0
  9
$DIMTIH
 70
     1
  9
$DIMTOH
 70
     1
  9
$DIMSE1
 70
     0
  9
$DIMSE2
 70
     0
  9
$DIMTAD
 70
     0
  9
$DIMZIN
 70
     0
  9
$DIMBLK
  1

  9
$DIMASO
 70
     1
  9
$DIMSHO
 70
     1
  9
$DIMPOST
  1

  9
$DIMAPOST
  1

  9
$DIMALT
 70
     0
  9
$DIMALTD
 70
     2
  9
$DIMALTF
 40
25.4
  9
$DIMLFAC
 40
1.0
  9
$DIMTOFL
 70
     0
  9
$DIMTVP
 40
0.0
  9
$DIMTIX
 70
     0
  9
$DIMSOXD
 70
     0
  9
$DIMSAH
 70
     0
  9
$DIMBLK1
  1

  9
$DIMBLK2
  1

  9
$DIMSTYLE
  2
Standard
  9
$DIMCLRD
 70
     0
  9
$DIMCLRE
 70
     0
  9
$DIMCLRT
 70
     0
  9
$DIMTFAC
 40
1.0
  9
$DIMGAP
 40
0.09
  9
$DIMJUST
 70
     0
  9
$DIMSD1
 70
     0
  9
$DIMSD2
 70
     0
  9
$DIMTOLJ
 70
     1
  9
$DIMTZIN
 70
     0
  9
$DIMALTZ
 70
     0
  9
$DIMALTTZ
 70
     0
  9
$DIMUPT
 70
     0
  9
$DIMDEC
 70
     4
  9
$DIMTDEC
 70
     4
  9
$DIMALTU
 70
     2
  9
$DIMALTTD
 70
     2
  9
$DIMTXSTY
  7
Standard
  9
$DIMAUNIT
 70
     0
  9
$DIMADEC
 70
     0
  9
$DIMALTRND
 40
0.0
  9
$DIMAZIN
 70
     0
  9
$DIMDSEP
 70
     0
  9
$DIMATFIT
 70
     3
  9
$DIMFRAC
 70
     0
  9
$DIMLDRBLK
  1

  9
$DIMLUNIT
 70
     2
  9
$DIMLWD
 70
     0
  9
$DIMLWE
 70
     0
  9
$DIMTMOVE
 70
     0
  9
$LUNITS
 70
     2
  9
$LUPREC
 70
     4
  9
$SKETCHINC
 40
0.1
  9
$FILLETRAD
 40
0.0
  9
$AUNITS
 70
     0
  9
$AUPREC
 70
     0
  9
$MENU
  1
acad
  9
$ELEVATION
 40
0.0
  9
$PELEVATION
 40
0.0
  9
$THICKNESS
 40
0.0
  9
$LIMCHECK
 70
     0
  9
$CHAMFERA
 40
0.0
  9
$CHAMFERB
 40
0.0
  9
$CHAMFERC
 40
0.0
  9
$CHAMFERD
 40
0.0
  9
$SKPOLY
 70
     0
  9
$TDCREATE
 40
0.000000000
  9
$TDUCREATE
 40
0.000000000
  9
$TDUPDATE
 40
0.000000000
  9
$TDUUPDATE
 40
0.000000000
  9
$TDINDWG
 40
0.0000000000
  9
$TDUSRTIMER
 40
0.0000000000
  9
$USRTIMER
 70
     1
  9
$ANGBASE
 50
0.0
  9
$ANGDIR
 70
     0
  9
$PDMODE
 70
     0
  9
$PDSIZE
 40
0.0
  9
$PLINEWID
 40
0.0
  9
$SPLFRAME
 70
     0
  9
$SPLINETYPE
 70
     6
  9
$SPLINESEGS
 70
     8
  9
$HANDSEED
  5
152
  9
$SURFTAB1
 70
     6
  9
$SURFTAB2
 70
     6
  9
$SURFTYPE
 70
     6
  9
$SURFU
 70
     6
  9
$SURFV
 70
     6
  9
$UCSBASE
  2

  9
$UCSNAME
  2

  9
$UCSORG
 10
0.0
 20
0.0
 30
0.0
  9
$UCSXDIR
 10
1.0
 20
0.0
 30
0.0
  9
$UCSYDIR
 10
0.0
 20
1.0
 30
0.0
  9
$UCSORTHOREF
  2

  9
$UCSORTHOVIEW
 70
     0
  9
$UCSORGTOP
 10
0.0
 20
0.0
 30
0.0
  9
$UCSORGBOTTOM
 10
0.0
 20
0.0
 30
0.0
  9
$UCSORGLEFT
 10
0.0
 20
0.0
 30
0.0
  9
$UCSORGRIGHT
 10
0.0
 20
0.0
 30
0.0
  9
$UCSORGFRONT
 10
0.0
 20
0.0
 30
0.0
  9
$UCSORGBACK
 10
0.0
 20
0.0
 30
0.0
  9
$PUCSBASE
  2

  9
$PUCSNAME
  2

  9
$PUCSORG
 10
0.0
 20
0.0
 30
0.0
  9
$PUCSXDIR
 10
1.0
 20
0.0
 30
0.0
  9
$PUCSYDIR
 10
0.0
 20
1.0
 30
0.0
  9
$PUCSORTHOREF
  2

  9
$PUCSORTHOVIEW
 70
     0
  9
$PUCSORGTOP
 10
0.0
 20
0.0
 30
0.0
  9
$PUCSORGBOTTOM
 10
0.0
 20
0.0
 30
0.0
  9
$PUCSORGLEFT
 10
0.0
 20
0.0
 30
0.0
  9
$PUCSORGRIGHT
 10
0.0
 20
0.0
 30
0.0
  9
$PUCSORGFRONT
 10
0.0
 20
0.0
 30
0.0
  9
$PUCSORGBACK
 10
0.0
 20
0.0
 30
0.0
  9
$USERI1
 70
     0
  9
$USERI2
 70
     0
  9
$USERI3
 70
     0
  9
$USERI4
 70
     0
  9
$USERI5
 70
     0
  9
$USERR1
 40
0.0
  9
$USERR2
 40
0.0
  9
$USERR3
 40
0.0
  9
$USERR4
 40
0.0
  9
$USERR5
 40
0.0
  9
$WORLDVIEW
 70
     1
  9
$SHADEDGE
 70
     3
  9
$SHADEDIF
 70
    70
  9
$TILEMODE
 70
     1
  9
$MAXACTVP
 70
    16
  9
$PINSBASE
 10
0.0
 20
0.0
 30
0.0
  9
$PLIMCHECK
 70
     0
  9
$PEXTMIN
 10
1.000000E+20
 20
1.000000E+20
 30
1.000000E+20
  9
$PEXTMAX
 10
-1.000000E+20
 20
-1.000000E+20
 30
-1.000000E+20
  9
$PLIMMIN
 10
0.0
 20
0.0
  9
$PLIMMAX
 10
12.0
 20
9.0
  9
$UNITMODE
 70
     0
  9
$VISRETAIN
 70
     0
  9
$PLINEGEN
 70
     1
  9
$PSLTSCALE
 70
     0
  9
$TREEDEPTH
 70
  3020
  9
$CMLSTYLE
  2
Standard
  9
$CMLJUST
 70
     0
  9
$CMLSCALE
 40
1.0
  9
$PROXYGRAPHICS
 70
     0
  9
$MEASUREMENT
 70
     0
  9
$CELWEIGHT
370
     0
  9
$ENDCAPS
280
     0
  9
$JOINSTYLE
280
     0
  9
$LWDISPLAY
290
     0
  9
$INSUNITS
 70
     0
  9
$HYPERLINKBASE
  1

  9
$XEDIT
290
     1
  9
$CEPSNTYPE
380
     0
  9
$PSTYLEMODE
290
     1
  9
$FINGERPRINTGUID
  2

  9
$VERSIONGUID
  2

  9
$EXTNAMES
290
     1
  9
$PSVPSCALE
 40
0.0
  0
ENDSEC
  0
SECTION
  2
CLASSES
  0
CLASS
  1
LWPOLYLINE
  2
AcDbPolyline
  3
"AutoCAD"
 90
        0
280
     0
281
     1
  0
CLASS
  1
IMAGE
  2
AcDbRasterImage
  3
ISM
 90
      127
280
     0
281
     1
  0
CLASS
  1
OLE2FRAME
  2
AcDbOle2Frame
  3
""
 90
        0
280
     0
281
     1
  0
CLASS
  1
HATCH
  2
AcDbHatch
  3
"ACAD_SEDONA"
 90
        0
280
     0
281
     1
  0
CLASS
  1
DICTIONARYVAR
  2
AcDbDictionaryVar
  3
"AutoCAD"
 90
        0
280
     0
281
     0
  0
CLASS
  1
RASTERVARIABLES
  2
AcDbRasterVariables
  3
ISM
 90
        0
280
     0
281
     0
  0
CLASS
  1
IMAGEDEF
  2
AcDbRasterImageDef
  3
ISM
 90
        0
280
     0
281
     0
  0
CLASS
  1
IMAGEDEF_REACTOR
  2
AcDbRasterImageDefReactor
  3
ISM
 90
        1
280
     0
281
     0
  0
CLASS
  1
IDBUFFER
  2
AcDbIdBuffer
  3
"Acad"
 90
        0
280
     0
281
     0
  0
CLASS
  1
SPATIAL_FILTER
  2
AcDbSpatialFilter
  3
"Acad"
 90
        0
280
     0
281
     0
  0
CLASS
  1
XRECORD
  2
AcDbXrecord
  3
"<Built In>"
 90
        0
280
     0
281
     0
  0
CLASS
  1
SORTENTSTABLE
  2
AcDbSortentsTable
  3
"AutoCAD"
 90
        0
280
     0
281
     0
  0
CLASS
  1
LAYER_INDEX
  2
AcDbLayerIndex
  3
"Acad"
 90
        0
280
     0
281
     0
  0
CLASS
  1
SPATIAL_INDEX
  2
AcDbSpatialIndex
  3
"Acad"
 90
        0
280
     0
281
     0
  0
CLASS
  1
OBJECT_PTR
  2
CAseDLPNTableRecord
  3
"ASE-LPNTableRecord"
 90
        1
280
     0
281
     0
  0
CLASS
  1
LAYOUT
  2
AcDbLayout
  3
"AutoCAD 2000"
 90
        1
280
     0
281
     0
  0
CLASS
  1
PLOTSETTINGS
  2
AcDbPlotSettings
  3
"AutoCAD 2000"
 90
        1
280
     0
281
     0
  0
CLASS
  1
ACDBDICTIONARYWDFLT
  2
AcDbDictionaryWithDefault
  3
"AutoCAD 2000"
 90
        1
280
     0
281
     0
  0
CLASS
  1
ACDBPLACEHOLDER
  2
AcDbPlaceHolder
  3
"AutoCAD 2000"
 90
        1
280
     0
281
     0
  0
CLASS
  1
VBA_PROJECT
  2
AcDbVbaProject
  3
"acadvba"
 90
        1
280
     0
281
     0
  0
CLASS
  1
WIPEOUT
  2
AcDbWipeout
  3
WipeOut|AutoCAD Express Tool|expresstools@autodesk.com
 90
      127
280
     0
281
     1
  0
CLASS
  1
WIPEOUTVARIABLES
  2
AcDbWipeoutVariables
  3
WipeOut|AutoCAD Express Tool|expresstools@autodesk.com
 90
        0
280
     0
281
     0
  0
CLASS
  1
RTEXT
  2
RText
  3
RText|AutoCAD Express Tool|expresstools@autodesk.com
 90
        0
280
     0
281
     1
  0
CLASS
  1
ARCALIGNEDTEXT
  2
AcDbArcAlignedText
  3
ATEXT|AutoCAD Express Tool|expresstools@autodesk.com
 90
        0
280
     0
281
     1
  0
ENDSEC
  0
SECTION
  2
TABLES
  0
TABLE
  2
VPORT
  5
7
100
AcDbSymbolTable
 70
     1
  0
VPORT
  5
15
100
AcDbSymbolTableRecord
100
AcDbViewportTableRecord
  2
*ACTIVE
 70
     0
 10
0.0
 20
0.0
 11
1.0
 21
1.0
 12
6.591288
 22
4.579184
 13
0.0
 23
0.0
 14
1.0
 24
1.0
 15
0.0
 25
0.0
 16
0.0
 26
0.0
 36
1.0
 17
0.0
 27
0.0
 37
0.0
 40
9.158369
 41
0.688564
 42
50.0
 43
0.0
 44
0.0
 50
0.0
 51
0.0
 71
     0
 72
   100
 73
     1
 74
     1
 75
     0
 76
     0
 77
     0
 78
     0
281
     0
 65
     0
110
0.0
120
0.0
130
0.0
111
1.0
121
0.0
131
0.0
112
0.0
122
1.0
132
0.0
345
0
346
0
 79
     0
146
0.0
  0
ENDTAB
  0
TABLE
  2
LTYPE
  5
4
100
AcDbSymbolTable
 70
     3
  0
LTYPE
  5
11
100
AcDbSymbolTableRecord
100
AcDbLinetypeTableRecord
  2
ByBlock
 70
    64
  3

 72
    65
 73
     0
 40
0.0
  0
LTYPE
  5
12
100
AcDbSymbolTableRecord
100
AcDbLinetypeTableRecord
  2
ByLayer
 70
    64
  3

 72
    65
 73
     0
 40
0.0
  0
LTYPE
  5
13
100
AcDbSymbolTableRecord
100
AcDbLinetypeTableRecord
  2
Continuous
 70
    64
  3
Solid line
 72
    65
 73
     0
 40
0.0
  0
ENDTAB
  0
TABLE
  2
LAYER
  5
2
100
AcDbSymbolTable
 70
     4
  0
LAYER
  5
14
100
AcDbSymbolTableRecord
100
AcDbLayerTableRecord
  2
0
 70
     0
 62
     7
  6
Continuous
290
     1
370
    -3
390
1D
  0
LAYER
  5
28
100
AcDbSymbolTableRecord
100
AcDbLayerTableRecord
  2
レイヤー_1
 70
     0
 62
   160
  6
Continuous
290
     1
370
    -3
390
1F
  0
LAYER
  5
29
100
AcDbSymbolTableRecord
100
AcDbLayerTableRecord
  2
0
 70
     0
 62
     7
  6
Continuous
290
     1
370
    -3
390
1F
  0
LAYER
  5
2A
100
AcDbSymbolTableRecord
100
AcDbLayerTableRecord
  2
レイヤー_1_0
 70
     0
 62
   160
  6
Continuous
290
     1
370
    -3
390
1F
  0
ENDTAB
  0
TABLE
  2
STYLE
  5
3
100
AcDbSymbolTable
 70
     5
  0
STYLE
  5
17
100
AcDbSymbolTableRecord
100
AcDbTextStyleTableRecord
  2
Standard
 70
     0
 40
0.0
 41
1.0
 50
0.0
 71
     0
 42
0.0
  3
txt
  4

  0
STYLE
  5
24
100
AcDbSymbolTableRecord
100
AcDbTextStyleTableRecord
  2
STD
 70
     0
 40
0.0
 41
1.0
 50
0.0
 71
     0
 42
0.0
  3
txt
  4

  0
STYLE
  5
25
100
AcDbSymbolTableRecord
100
AcDbTextStyleTableRecord
  2
TATESTD
 70
     4
 40
0.0
 41
1.0
 50
0.0
 71
     0
 42
0.0
  3
txt
  4

  0
STYLE
  5
26
100
AcDbSymbolTableRecord
100
AcDbTextStyleTableRecord
  2
KANJISTD
 70
     0
 40
0.0
 41
1.0
 50
0.0
 71
     0
 42
0.0
  3
txt
  4
extfont
  0
STYLE
  5
27
100
AcDbSymbolTableRecord
100
AcDbTextStyleTableRecord
  2
KANJITATE
 70
     4
 40
0.0
 41
1.0
 50
0.0
 71
     0
 42
0.0
  3
txt
  4
extfont
  0
ENDTAB
  0
TABLE
  2
VIEW
  5
5
100
AcDbSymbolTable
 70
     0
  0
ENDTAB
  0
TABLE
  2
UCS
  5
6
100
AcDbSymbolTable
 70
     0
  0
ENDTAB
  0
TABLE
  2
APPID
  5
8
100
AcDbSymbolTable
 70
     1
  0
APPID
  5
16
100
AcDbSymbolTableRecord
100
AcDbRegAppTableRecord
  2
ACAD
 70
     0
  0
ENDTAB
  0
TABLE
  2
DIMSTYLE
  5
9
100
AcDbSymbolTable
 70
     1
100
AcDbDimStyleTable
 71
     0
  0
DIMSTYLE
105
18
100
AcDbSymbolTableRecord
100
AcDbDimStyleTableRecord
  2
Standard
 70
     0
  3

  4

 40
1.0
 41
0.18
 42
0.0625
 43
0.38
 44
0.18
 45
0.0
 46
0.0
 47
0.0
 48
0.0
 71
     0
 72
     0
 73
     1
 74
     1
 75
     0
 76
     0
 77
     0
 78
     0
 79
     0
140
0.18
141
0.09
142
0.0
143
25.4
144
1.0
145
0.0
146
1.0
147
0.09
148
0.0
170
     0
171
     2
172
     0
173
     0
174
     0
175
     0
176
     0
177
     0
178
     0
179
     0
271
     4
272
     4
273
     2
274
     2
275
     0
276
     0
277
     2
278
    46
279
     0
280
     0
281
     0
282
     0
283
     1
284
     0
285
     0
286
     0
288
     0
340
17
341
0
342
0
343
0
344
0
371
    -2
372
    -2
  0
ENDTAB
  0
TABLE
  2
BLOCK_RECORD
  5
1
100
AcDbSymbolTable
 70
     7
  0
BLOCK_RECORD
  5
A
100
AcDbSymbolTableRecord
100
AcDbBlockTableRecord
  2
*MODEL_SPACE
340
20
  0
BLOCK_RECORD
  5
B
100
AcDbSymbolTableRecord
100
AcDbBlockTableRecord
  2
*PAPER_SPACE
340
21
  0
BLOCK_RECORD
  5
67
100
AcDbSymbolTableRecord
100
AcDbBlockTableRecord
  2
AI9-BLK1
340
0
  0
BLOCK_RECORD
  5
6C
100
AcDbSymbolTableRecord
100
AcDbBlockTableRecord
  2
AI9-BLK2
340
0
  0
BLOCK_RECORD
  5
74
100
AcDbSymbolTableRecord
100
AcDbBlockTableRecord
  2
AI9-BLK3
340
0
  0
BLOCK_RECORD
  5
79
100
AcDbSymbolTableRecord
100
AcDbBlockTableRecord
  2
AI9-BLK4
340
0
  0
BLOCK_RECORD
  5
7E
100
AcDbSymbolTableRecord
100
AcDbBlockTableRecord
  2
AI9-BLK5
340
0
  0
BLOCK_RECORD
  5
84
100
AcDbSymbolTableRecord
100
AcDbBlockTableRecord
  2
AI9-BLK6
340
0
  0
BLOCK_RECORD
  5
89
100
AcDbSymbolTableRecord
100
AcDbBlockTableRecord
  2
AI9-BLK7
340
0
  0
ENDTAB
  0
ENDSEC
  0
SECTION
  2
BLOCKS
  0
BLOCK
  5
D
100
AcDbEntity
  8
0
100
AcDbBlockBegin
  2
*MODEL_SPACE
 70
     0
 10
0.0
 20
0.0
 30
0.0
  3
*MODEL_SPACE
  1

  0
ENDBLK
  5
E
100
AcDbEntity
  8
0
100
AcDbBlockEnd
  0
BLOCK
  5
F
100
AcDbEntity
 67
     1
  8
0
100
AcDbBlockBegin
  2
*PAPER_SPACE
 70
     0
 10
0.0
 20
0.0
 30
0.0
  3
*PAPER_SPACE
  1

  0
ENDBLK
  5
10
100
AcDbEntity
 67
     1
  8
0
100
AcDbBlockEnd
  0
BLOCK
  5
69
100
AcDbEntity
  8
レイヤー_1_0
 62
     7
100
AcDbBlockBegin
  2
AI9-BLK1
 70
     0
 10
0.0
 20
0.0
 30
0.0
  3
AI9-BLK1
  1

  0
HATCH
  5
6A
100
AcDbEntity
  8
レイヤー_1_0
 62
     7
100
AcDbHatch
 10
0.0
 20
0.0
 30
0.0
210
0.0
220
0.0
230
1.0
  2
SOLID
 70
     1
 71
     0
 91
        1
 92
        3
 72
     0
 73
     1
 93
        3
 10
5.6945705837673604
 20
5.6945705837673604
 10
-0.21239013671875
 20
-5.6945705837673604
 10
-5.6945705837673604
 20
5.6945705837673604
 97
        0
 75
     0
 76
     1
 98
        1
 10
0.0
 20
0.0
  0
ENDBLK
  5
6B
100
AcDbEntity
  8
レイヤー_1_0
100
AcDbBlockEnd
  0
BLOCK
  5
6E
100
AcDbEntity
  8
レイヤー_1_0
 62
     7
100
AcDbBlockBegin
  2
AI9-BLK2
 70
     0
 10
0.0
 20
0.0
 30
0.0
  3
AI9-BLK2
  1

  0
LINE
  5
72
100
AcDbEntity
  8
レイヤー_1_0
 62
     7
100
AcDbLine
 10
71.903794
 20
-80.743134
 30
0.0
 11
11.814094
 21
-80.743134
 31
0.0
  0
LINE
  5
71
100
AcDbEntity
  8
レイヤー_1_0
 62
     7
100
AcDbLine
 10
-58.134781
 20
80.742961
 30
0.0
 11
-71.903621
 21
80.742961
 31
0.0
  0
LINE
  5
70
100
AcDbEntity
  8
レイヤー_1_0
 62
     7
100
AcDbLine
 10
40.881742
 20
80.742961
 30
0.0
 11
27.112729
 21
80.742961
 31
0.0
  0
LINE
  5
6F
100
AcDbEntity
  8
レイヤー_1_0
 62
     7
100
AcDbLine
 10
66.039208
 20
-80.360383
 30
0.0
 11
66.039208
 21
-52.05789
 31
0.0
  0
ENDBLK
  5
73
100
AcDbEntity
  8
レイヤー_1_0
100
AcDbBlockEnd
  0
BLOCK
  5
76
100
AcDbEntity
  8
レイヤー_1_0
 62
     7
100
AcDbBlockBegin
  2
AI9-BLK3
 70
     0
 10
0.0
 20
0.0
 30
0.0
  3
AI9-BLK3
  1

  0
HATCH
  5
77
100
AcDbEntity
  8
レイヤー_1_0
 62
     7
100
AcDbHatch
 10
0.0
 20
0.0
 30
0.0
210
0.0
220
0.0
230
1.0
  2
SOLID
 70
     1
 71
     0
 91
        1
 92
        3
 72
     0
 73
     1
 93
        3
 10
-5.8857733832465273
 20
-5.6945705837673604
 10
0.0211873372395833
 20
5.6945705837673604
 10
5.8857733832465273
 20
-5.6945705837673604
 97
        0
 75
     0
 76
     1
 98
        1
 10
0.0
 20
0.0
  0
ENDBLK
  5
78
100
AcDbEntity
  8
レイヤー_1_0
100
AcDbBlockEnd
  0
BLOCK
  5
7B
100
AcDbEntity
  8
レイヤー_1_0
 62
     7
100
AcDbBlockBegin
  2
AI9-BLK4
 70
     0
 10
0.0
 20
0.0
 30
0.0
  3
AI9-BLK4
  1

  0
LINE
  5
7C
100
AcDbEntity
  8
レイヤー_1_0
 62
     7
100
AcDbLine
 10
23.564109
 20
0.0
 30
0.0
 11
-23.564109
 21
0.0
 31
0.0
  0
ENDBLK
  5
7D
100
AcDbEntity
  8
レイヤー_1_0
100
AcDbBlockEnd
  0
BLOCK
  5
80
100
AcDbEntity
  8
レイヤー_1_0
 62
     7
100
AcDbBlockBegin
  2
AI9-BLK5
 70
     0
 10
0.0
 20
0.0
 30
0.0
  3
AI9-BLK5
  1

  0
HATCH
  5
81
100
AcDbEntity
  8
レイヤー_1_0
 62
     7
100
AcDbHatch
 10
0.0
 20
0.0
 30
0.0
210
0.0
220
0.0
230
1.0
  2
SOLID
 70
     1
 71
     0
 91
        1
 92
        3
 72
     0
 73
     1
 93
        3
 10
5.8857733832465273
 20
5.6945705837673604
 10
0.0211873372395833
 20
-5.6945705837673604
 10
-5.8857733832465273
 20
5.6945705837673604
 97
        0
 75
     0
 76
     1
 98
        1
 10
0.0
 20
0.0
  0
ENDBLK
  5
82
100
AcDbEntity
  8
レイヤー_1_0
100
AcDbBlockEnd
  0
BLOCK
  5
86
100
AcDbEntity
  8
レイヤー_1_0
 62
     7
100
AcDbBlockBegin
  2
AI9-BLK6
 70
     0
 10
0.0
 20
0.0
 30
0.0
  3
AI9-BLK6
  1

  0
HATCH
  5
87
100
AcDbEntity
  8
レイヤー_1_0
 62
     7
100
AcDbHatch
 10
0.0
 20
0.0
 30
0.0
210
0.0
220
0.0
230
1.0
  2
SOLID
 70
     1
 71
     0
 91
        1
 92
        3
 72
     0
 73
     1
 93
        3
 10
-5.6945705837673604
 20
-5.6943983289930546
 10
-0.21239013671875
 20
5.6943983289930546
 10
5.6945705837673604
 20
-5.6943983289930546
 97
        0
 75
     0
 76
     1
 98
        1
 10
0.0
 20
0.0
  0
ENDBLK
  5
88
100
AcDbEntity
  8
レイヤー_1_0
100
AcDbBlockEnd
  0
BLOCK
  5
8B
100
AcDbEntity
  8
レイヤー_1_0
 62
     7
100
AcDbBlockBegin
  2
AI9-BLK7
 70
     0
 10
0.0
 20
0.0
 30
0.0
  3
AI9-BLK7
  1

  0
LINE
  5
8E
100
AcDbEntity
  8
レイヤー_1_0
 62
     7
100
AcDbLine
 10
-18.060655
 20
-63.277016
 30
0.0
 11
-48.700473
 21
-63.277016
 31
0.0
  0
LINE
  5
8D
100
AcDbEntity
  8
レイヤー_1_0
 62
     7
100
AcDbLine
 10
-54.2252
 20
-68.759197
 30
0.0
 11
-54.2252
 21
-36.54652
 31
0.0
  0
LINE
  5
8C
100
AcDbEntity
  8
レイヤー_1_0
 62
     7
100
AcDbLine
 10
54.225372
 20
68.759024
 30
0.0
 11
7.097155
 21
68.759024
 31
0.0
  0
ENDBLK
  5
8F
100
AcDbEntity
  8
レイヤー_1_0
100
AcDbBlockEnd
  0
ENDSEC
  0
SECTION
  2
ENTITIES
  0
POLYLINE
  5
13D
100
AcDbEntity
  8
レイヤー_1_0
 62
     7
100
AcDb2dPolyline
 66
     1
 10
0.0
 20
0.0
 30
0.0
  0
VERTEX
  5
13E
100
AcDbEntity
  8
レイヤー_1_0
 62
     7
100
AcDbVertex
100
AcDb2dVertex
 10
124.072702
 20
200.607049
 30
0.0
  0
VERTEX
  5
13F
100
AcDbEntity
  8
レイヤー_1_0
 62
     7
100
AcDbVertex
100
AcDb2dVertex
 10
124.072702
 20
207.279338
 30
0.0
  0
VERTEX
  5
140
100
AcDbEntity
  8
レイヤー_1_0
 62
     7
100
AcDbVertex
100
AcDb2dVertex
 10
123.690297
 20
207.70429
 30
0.0
  0
VERTEX
  5
141
100
AcDbEntity
  8
レイヤー_1_0
 62
     7
100
AcDbVertex
100
AcDb2dVertex
 10
113.831123
 20
207.70429
 30
0.0
  0
VERTEX
  5
142
100
AcDbEntity
  8
レイヤー_1_0
 62
     7
100
AcDbVertex
100
AcDb2dVertex
 10
113.448717
 20
207.279338
 30
0.0
  0
VERTEX
  5
143
100
AcDbEntity
  8
レイヤー_1_0
 62
     7
100
AcDbVertex
100
AcDb2dVertex
 10
113.448717
 20
200.607049
 30
0.0
  0
VERTEX
  5
144
100
AcDbEntity
  8
レイヤー_1_0
 62
     7
100
AcDbVertex
100
AcDb2dVertex
 10
107.584131
 20
200.607049
 30
0.0
  0
VERTEX
  5
145
100
AcDbEntity
  8
レイヤー_1_0
 62
     7
100
AcDbVertex
100
AcDb2dVertex
 10
107.584131
 20
185.691163
 30
0.0
  0
VERTEX
  5
146
100
AcDbEntity
  8
レイヤー_1_0
 62
     7
100
AcDbVertex
100
AcDb2dVertex
 10
109.538878
 20
185.691163
 30
0.0
  0
VERTEX
  5
147
100
AcDbEntity
  8
レイヤー_1_0
 62
     7
100
AcDbVertex
100
AcDb2dVertex
 10
109.538878
 20
170.349981
 30
0.0
  0
VERTEX
  5
148
100
AcDbEntity
  8
レイヤー_1_0
 62
     7
100
AcDbVertex
100
AcDb2dVertex
 10
111.111564
 20
170.349981
 30
0.0
  0
VERTEX
  5
149
100
AcDbEntity
  8
レイヤー_1_0
 62
     7
100
AcDbVertex
100
AcDb2dVertex
 10
111.111564
 20
160.533354
 30
0.0
  0
VERTEX
  5
14A
100
AcDbEntity
  8
レイヤー_1_0
 62
     7
100
AcDbVertex
100
AcDb2dVertex
 10
126.409855
 20
160.533354
 30
0.0
  0
VERTEX
  5
14B
100
AcDbEntity
  8
レイヤー_1_0
 62
     7
100
AcDbVertex
100
AcDb2dVertex
 10
126.409855
 20
170.349981
 30
0.0
  0
VERTEX
  5
14C
100
AcDbEntity
  8
レイヤー_1_0
 62
     7
100
AcDbVertex
100
AcDb2dVertex
 10
127.982886
 20
170.349981
 30
0.0
  0
VERTEX
  5
14D
100
AcDbEntity
  8
レイヤー_1_0
 62
     7
100
AcDbVertex
100
AcDb2dVertex
 10
127.982886
 20
185.691163
 30
0.0
  0
VERTEX
  5
14E
100
AcDbEntity
  8
レイヤー_1_0
 62
     7
100
AcDbVertex
100
AcDb2dVertex
 10
129.979663
 20
185.691163
 30
0.0
  0
VERTEX
  5
14F
100
AcDbEntity
  8
レイヤー_1_0
 62
     7
100
AcDbVertex
100
AcDb2dVertex
 10
129.979663
 20
200.607049
 30
0.0
  0
VERTEX
  5
150
100
AcDbEntity
  8
レイヤー_1_0
 62
     7
100
AcDbVertex
100
AcDb2dVertex
 10
124.072702
 20
200.607049
 30
0.0
  0
SEQEND
  5
151
100
AcDbEntity
  8
レイヤー_1_0
 62
     7
  0
POLYLINE
  5
129
100
AcDbEntity
  8
レイヤー_1_0
 62
     7
100
AcDb2dPolyline
 66
     1
 10
0.0
 20
0.0
 30
0.0
 70
     1
  0
VERTEX
  5
12A
100
AcDbEntity
  8
レイヤー_1_0
 62
     7
100
AcDbVertex
100
AcDb2dVertex
 10
124.072702
 20
200.607049
 30
0.0
  0
VERTEX
  5
12B
100
AcDbEntity
  8
レイヤー_1_0
 62
     7
100
AcDbVertex
100
AcDb2dVertex
 10
124.072702
 20
207.279338
 30
0.0
  0
VERTEX
  5
12C
100
AcDbEntity
  8
レイヤー_1_0
 62
     7
100
AcDbVertex
100
AcDb2dVertex
 10
123.690297
 20
207.70429
 30
0.0
  0
VERTEX
  5
12D
100
AcDbEntity
  8
レイヤー_1_0
 62
     7
100
AcDbVertex
100
AcDb2dVertex
 10
113.831123
 20
207.70429
 30
0.0
  0
VERTEX
  5
12E
100
AcDbEntity
  8
レイヤー_1_0
 62
     7
100
AcDbVertex
100
AcDb2dVertex
 10
113.448717
 20
207.279338
 30
0.0
  0
VERTEX
  5
12F
100
AcDbEntity
  8
レイヤー_1_0
 62
     7
100
AcDbVertex
100
AcDb2dVertex
 10
113.448717
 20
200.607049
 30
0.0
  0
VERTEX
  5
130
100
AcDbEntity
  8
レイヤー_1_0
 62
     7
100
AcDbVertex
100
AcDb2dVertex
 10
107.584131
 20
200.607049
 30
0.0
  0
VERTEX
  5
131
100
AcDbEntity
  8
レイヤー_1_0
 62
     7
100
AcDbVertex
100
AcDb2dVertex
 10
107.584131
 20
185.691163
 30
0.0
  0
VERTEX
  5
132
100
AcDbEntity
  8
レイヤー_1_0
 62
     7
100
AcDbVertex
100
AcDb2dVertex
 10
109.538878
 20
185.691163
 30
0.0
  0
VERTEX
  5
133
100
AcDbEntity
  8
レイヤー_1_0
 62
     7
100
AcDbVertex
100
AcDb2dVertex
 10
109.538878
 20
170.349981
 30
0.0
  0
VERTEX
  5
134
100
AcDbEntity
  8
レイヤー_1_0
 62
     7
100
AcDbVertex
100
AcDb2dVertex
 10
111.111564
 20
170.349981
 30
0.0
  0
VERTEX
  5
135
100
AcDbEntity
  8
レイヤー_1_0
 62
     7
100
AcDbVertex
100
AcDb2dVertex
 10
111.111564
 20
160.533354
 30
0.0
  0
VERTEX
  5
136
100
AcDbEntity
  8
レイヤー_1_0
 62
     7
100
AcDbVertex
100
AcDb2dVertex
 10
126.409855
 20
160.533354
 30
0.0
  0
VERTEX
  5
137
100
AcDbEntity
  8
レイヤー_1_0
 62
     7
100
AcDbVertex
100
AcDb2dVertex
 10
126.409855
 20
170.349981
 30
0.0
  0
VERTEX
  5
138
100
AcDbEntity
  8
レイヤー_1_0
 62
     7
100
AcDbVertex
100
AcDb2dVertex
 10
127.982886
 20
170.349981
 30
0.0
  0
VERTEX
  5
139
100
AcDbEntity
  8
レイヤー_1_0
 62
     7
100
AcDbVertex
100
AcDb2dVertex
 10
127.982886
 20
185.691163
 30
0.0
  0
VERTEX
  5
13A
100
AcDbEntity
  8
レイヤー_1_0
 62
     7
100
AcDbVertex
100
AcDb2dVertex
 10
129.979663
 20
185.691163
 30
0.0
  0
VERTEX
  5
13B
100
AcDbEntity
  8
レイヤー_1_0
 62
     7
100
AcDbVertex
100
AcDb2dVertex
 10
129.979663
 20
200.607049
 30
0.0
  0
SEQEND
  5
13C
100
AcDbEntity
  8
レイヤー_1_0
 62
     7
  0
LINE
  5
128
100
AcDbEntity
  8
レイヤー_1_0
 62
     7
100
AcDbLine
 10
109.538878
 20
170.349981
 30
0.0
 11
127.982886
 21
170.349981
 31
0.0
  0
LINE
  5
127
100
AcDbEntity
  8
レイヤー_1_0
 62
     7
100
AcDbLine
 10
107.584131
 20
200.607049
 30
0.0
 11
129.979663
 21
200.607049
 31
0.0
  0
LINE
  5
126
100
AcDbEntity
  8
レイヤー_1_0
 62
     7
100
AcDbLine
 10
107.584131
 20
185.691163
 30
0.0
 11
129.979663
 21
185.691163
 31
0.0
  0
POLYLINE
  5
121
100
AcDbEntity
  8
レイヤー_1_0
 62
     7
100
AcDb2dPolyline
 66
     1
 10
0.0
 20
0.0
 30
0.0
  0
VERTEX
  5
122
100
AcDbEntity
  8
レイヤー_1_0
 62
     7
100
AcDbVertex
100
AcDb2dVertex
 10
111.111564
 20
160.915932
 30
0.0
  0
VERTEX
  5
123
100
AcDbEntity
  8
レイヤー_1_0
 62
     7
100
AcDbVertex
100
AcDb2dVertex
 10
118.548147
 20
161.34054
 30
0.0
  0
VERTEX
  5
124
100
AcDbEntity
  8
レイヤー_1_0
 62
     7
100
AcDbVertex
100
AcDb2dVertex
 10
126.409855
 20
162.105523
 30
0.0
  0
SEQEND
  5
125
100
AcDbEntity
  8
レイヤー_1_0
 62
     7
  0
POLYLINE
  5
11C
100
AcDbEntity
  8
レイヤー_1_0
 62
     7
100
AcDb2dPolyline
 66
     1
 10
0.0
 20
0.0
 30
0.0
  0
VERTEX
  5
11D
100
AcDbEntity
  8
レイヤー_1_0
 62
     7
100
AcDbVertex
100
AcDb2dVertex
 10
111.111564
 20
162.488101
 30
0.0
  0
VERTEX
  5
11E
100
AcDbEntity
  8
レイヤー_1_0
 62
     7
100
AcDbVertex
100
AcDb2dVertex
 10
118.548147
 20
162.913053
 30
0.0
  0
VERTEX
  5
11F
100
AcDbEntity
  8
レイヤー_1_0
 62
     7
100
AcDbVertex
100
AcDb2dVertex
 10
126.409855
 20
163.678037
 30
0.0
  0
SEQEND
  5
120
100
AcDbEntity
  8
レイヤー_1_0
 62
     7
  0
POLYLINE
  5
117
100
AcDbEntity
  8
レイヤー_1_0
 62
     7
100
AcDb2dPolyline
 66
     1
 10
0.0
 20
0.0
 30
0.0
  0
VERTEX
  5
118
100
AcDbEntity
  8
レイヤー_1_0
 62
     7
100
AcDbVertex
100
AcDb2dVertex
 10
111.111564
 20
164.060615
 30
0.0
  0
VERTEX
  5
119
100
AcDbEntity
  8
レイヤー_1_0
 62
     7
100
AcDbVertex
100
AcDb2dVertex
 10
118.548147
 20
164.485223
 30
0.0
  0
VERTEX
  5
11A
100
AcDbEntity
  8
レイヤー_1_0
 62
     7
100
AcDbVertex
100
AcDb2dVertex
 10
126.409855
 20
165.250206
 30
0.0
  0
SEQEND
  5
11B
100
AcDbEntity
  8
レイヤー_1_0
 62
     7
  0
POLYLINE
  5
112
100
AcDbEntity
  8
レイヤー_1_0
 62
     7
100
AcDb2dPolyline
 66
     1
 10
0.0
 20
0.0
 30
0.0
  0
VERTEX
  5
113
100
AcDbEntity
  8
レイヤー_1_0
 62
     7
100
AcDbVertex
100
AcDb2dVertex
 10
111.111564
 20
165.250206
 30
0.0
  0
VERTEX
  5
114
100
AcDbEntity
  8
レイヤー_1_0
 62
     7
100
AcDbVertex
100
AcDb2dVertex
 10
118.548147
 20
166.057737
 30
0.0
  0
VERTEX
  5
115
100
AcDbEntity
  8
レイヤー_1_0
 62
     7
100
AcDbVertex
100
AcDb2dVertex
 10
126.409855
 20
166.82272
 30
0.0
  0
SEQEND
  5
116
100
AcDbEntity
  8
レイヤー_1_0
 62
     7
  0
POLYLINE
  5
10D
100
AcDbEntity
  8
レイヤー_1_0
 62
     7
100
AcDb2dPolyline
 66
     1
 10
0.0
 20
0.0
 30
0.0
  0
VERTEX
  5
10E
100
AcDbEntity
  8
レイヤー_1_0
 62
     7
100
AcDbVertex
100
AcDb2dVertex
 10
111.111564
 20
166.82272
 30
0.0
  0
VERTEX
  5
10F
100
AcDbEntity
  8
レイヤー_1_0
 62
     7
100
AcDbVertex
100
AcDb2dVertex
 10
118.548147
 20
167.63025
 30
0.0
  0
VERTEX
  5
110
100
AcDbEntity
  8
レイヤー_1_0
 62
     7
100
AcDbVertex
100
AcDb2dVertex
 10
126.409855
 20
168.394889
 30
0.0
  0
SEQEND
  5
111
100
AcDbEntity
  8
レイヤー_1_0
 62
     7
  0
LINE
  5
10C
100
AcDbEntity
  8
レイヤー_1_0
 62
     7
100
AcDbLine
 10
111.111564
 20
168.394889
 30
0.0
 11
126.409855
 21
169.967403
 31
0.0
  0
LINE
  5
10B
100
AcDbEntity
  8
レイヤー_1_0
 62
     7
100
AcDbLine
 10
111.111564
 20
169.967403
 30
0.0
 11
114.256247
 21
170.349981
 31
0.0
  0
SPLINE
  5
10A
100
AcDbEntity
  8
レイヤー_1_0
 62
     7
100
AcDbSpline
210
0.0
220
0.0
230
1.0
 70
     8
 71
     3
 72
    80
 73
    76
 74
     0
 42
0.00000001
 43
0.00000001
 40
0.0
 40
0.0
 40
0.0
 40
0.0
 40
1.0
 40
1.0
 40
1.0
 40
2.0
 40
2.0
 40
2.0
 40
3.0
 40
3.0
 40
3.0
 40
4.0
 40
4.0
 40
4.0
 40
5.0
 40
5.0
 40
5.0
 40
6.0
 40
6.0
 40
6.0
 40
7.0
 40
7.0
 40
7.0
 40
8.0
 40
8.0
 40
8.0
 40
9.0
 40
9.0
 40
9.0
 40
10.0
 40
10.0
 40
10.0
 40
11.0
 40
11.0
 40
11.0
 40
12.0
 40
12.0
 40
12.0
 40
13.0
 40
13.0
 40
13.0
 40
14.0
 40
14.0
 40
14.0
 40
15.0
 40
15.0
 40
15.0
 40
16.0
 40
16.0
 40
16.0
 40
17.0
 40
17.0
 40
17.0
 40
18.0
 40
18.0
 40
18.0
 40
19.0
 40
19.0
 40
19.0
 40
20.0
 40
20.0
 40
20.0
 40
21.0
 40
21.0
 40
21.0
 40
22.0
 40
22.0
 40
22.0
 40
23.0
 40
23.0
 40
23.0
 40
24.0
 40
24.0
 40
24.0
 40
25.0
 40
25.0
 40
25.0
 40
25.0
 10
137.03384060329859
 20
200.60704888237845
 30
0.0
 10
137.03384060329859
 20
194.74280734592011
 30
0.0
 10
137.03384060329859
 20
194.74280734592011
 30
0.0
 10
137.03384060329859
 20
194.74280734592011
 30
0.0
 10
135.46184353298611
 20
194.74280734592011
 30
0.0
 10
135.46184353298611
 20
194.74280734592011
 30
0.0
 10
135.46184353298611
 20
194.74280734592011
 30
0.0
 10
135.46184353298611
 20
189.21842447916666
 30
0.0
 10
135.46184353298611
 20
189.21842447916666
 30
0.0
 10
135.46184353298611
 20
189.21842447916666
 30
0.0
 10
137.03384060329859
 20
189.21842447916666
 30
0.0
 10
137.03384060329859
 20
189.21842447916666
 30
0.0
 10
137.03384060329859
 20
189.21842447916666
 30
0.0
 10
137.03384060329859
 20
188.02831624348957
 30
0.0
 10
137.03384060329859
 20
188.02831624348957
 30
0.0
 10
137.03384060329859
 20
188.02831624348957
 30
0.0
 10
136.65143500434027
 20
187.64591064453123
 30
0.0
 10
136.65143500434027
 20
187.64591064453123
 30
0.0
 10
136.65143500434027
 20
187.64591064453123
 30
0.0
 10
136.26902940538193
 20
187.64591064453123
 30
0.0
 10
136.26902940538193
 20
187.64591064453123
 30
0.0
 10
136.26902940538193
 20
187.64591064453123
 30
0.0
 10
134.27190755208332
 20
187.64591064453123
 30
0.0
 10
134.27190755208332
 20
187.64591064453123
 30
0.0
 10
134.27190755208332
 20
187.64591064453123
 30
0.0
 10
131.12687988281249
 20
187.64591064453123
 30
0.0
 10
101.29493679470485
 20
187.26333279079859
 30
0.0
 10
100.48740641276041
 20
188.02831624348957
 30
0.0
 10
100.48740641276041
 20
189.21842447916666
 30
0.0
 10
100.48740641276041
 20
189.21842447916666
 30
0.0
 10
100.48740641276041
 20
189.21842447916666
 30
0.0
 10
102.05992024739582
 20
189.21842447916666
 30
0.0
 10
102.05992024739582
 20
189.21842447916666
 30
0.0
 10
102.05992024739582
 20
189.21842447916666
 30
0.0
 10
102.05992024739582
 20
194.74280734592011
 30
0.0
 10
102.05992024739582
 20
194.74280734592011
 30
0.0
 10
102.05992024739582
 20
194.74280734592011
 30
0.0
 10
100.48740641276041
 20
194.74280734592011
 30
0.0
 10
100.48740641276041
 20
194.74280734592011
 30
0.0
 10
100.48740641276041
 20
194.74280734592011
 30
0.0
 10
100.48740641276041
 20
200.60704888237845
 30
0.0
 10
100.48740641276041
 20
200.60704888237845
 30
0.0
 10
100.48740641276041
 20
200.60704888237845
 30
0.0
 10
83.999007161458323
 20
200.60704888237845
 30
0.0
 10
83.999007161458323
 20
200.60704888237845
 30
0.0
 10
83.999007161458323
 20
200.60704888237845
 30
0.0
 10
83.616429307725681
 20
200.60704888237845
 30
0.0
 10
83.616429307725681
 20
200.60704888237845
 30
0.0
 10
83.616429307725681
 20
200.60704888237845
 30
0.0
 10
83.616429307725681
 20
201.79715711805554
 30
0.0
 10
83.616429307725681
 20
201.79715711805554
 30
0.0
 10
83.616429307725681
 20
201.79715711805554
 30
0.0
 10
83.999007161458323
 20
202.56214057074652
 30
0.0
 10
83.999007161458323
 20
202.56214057074652
 30
0.0
 10
83.999007161458323
 20
202.56214057074652
 30
0.0
 10
84.381068250868054
 20
202.98709309895833
 30
0.0
 10
84.381068250868054
 20
202.98709309895833
 30
0.0
 10
84.381068250868054
 20
202.98709309895833
 30
0.0
 10
95.38763156467013
 20
207.27933756510416
 30
0.0
 10
107.15935058593749
 20
210.04144287109372
 30
0.0
 10
118.54814724392359
 20
210.04144287109372
 30
0.0
 10
130.36206868489583
 20
210.04144287109372
 30
0.0
 10
142.13361545138886
 20
207.70429009331596
 30
0.0
 10
153.14000651041664
 20
202.98709309895833
 30
0.0
 10
153.52275661892361
 20
202.56214057074652
 30
0.0
 10
153.52275661892361
 20
202.56214057074652
 30
0.0
 10
153.52275661892361
 20
202.56214057074652
 30
0.0
 10
153.94788140190971
 20
201.79715711805554
 30
0.0
 10
153.94788140190971
 20
201.79715711805554
 30
0.0
 10
153.94788140190971
 20
201.79715711805554
 30
0.0
 10
153.52275661892361
 20
200.60704888237845
 30
0.0
 10
153.52275661892361
 20
200.60704888237845
 30
0.0
 10
153.52275661892361
 20
200.60704888237845
 30
0.0
 10
149.23085666232637
 20
200.60704888237845
 30
0.0
 10
149.23085666232637
 20
200.60704888237845
 30
0.0
 10
149.23085666232637
 20
200.60704888237845
 30
0.0
  0
SPLINE
  5
109
100
AcDbEntity
  8
レイヤー_1_0
 62
     7
100
AcDbSpline
210
0.0
220
0.0
230
1.0
 70
     8
 71
     3
 72
    83
 73
    79
 74
     0
 42
0.00000001
 43
0.00000001
 40
0.0
 40
0.0
 40
0.0
 40
0.0
 40
1.0
 40
1.0
 40
1.0
 40
2.0
 40
2.0
 40
2.0
 40
3.0
 40
3.0
 40
3.0
 40
4.0
 40
4.0
 40
4.0
 40
5.0
 40
5.0
 40
5.0
 40
6.0
 40
6.0
 40
6.0
 40
7.0
 40
7.0
 40
7.0
 40
8.0
 40
8.0
 40
8.0
 40
9.0
 40
9.0
 40
9.0
 40
10.0
 40
10.0
 40
10.0
 40
11.0
 40
11.0
 40
11.0
 40
12.0
 40
12.0
 40
12.0
 40
13.0
 40
13.0
 40
13.0
 40
14.0
 40
14.0
 40
14.0
 40
15.0
 40
15.0
 40
15.0
 40
16.0
 40
16.0
 40
16.0
 40
17.0
 40
17.0
 40
17.0
 40
18.0
 40
18.0
 40
18.0
 40
19.0
 40
19.0
 40
19.0
 40
20.0
 40
20.0
 40
20.0
 40
21.0
 40
21.0
 40
21.0
 40
22.0
 40
22.0
 40
22.0
 40
23.0
 40
23.0
 40
23.0
 40
24.0
 40
24.0
 40
24.0
 40
25.0
 40
25.0
 40
25.0
 40
26.0
 40
26.0
 40
26.0
 40
26.0
 10
137.03384060329859
 20
200.60704888237845
 30
0.0
 10
137.03384060329859
 20
194.74280734592011
 30
0.0
 10
137.03384060329859
 20
194.74280734592011
 30
0.0
 10
137.03384060329859
 20
194.74280734592011
 30
0.0
 10
135.46184353298611
 20
194.74280734592011
 30
0.0
 10
135.46184353298611
 20
194.74280734592011
 30
0.0
 10
135.46184353298611
 20
194.74280734592011
 30
0.0
 10
135.46184353298611
 20
189.21842447916666
 30
0.0
 10
135.46184353298611
 20
189.21842447916666
 30
0.0
 10
135.46184353298611
 20
189.21842447916666
 30
0.0
 10
137.03384060329859
 20
189.21842447916666
 30
0.0
 10
137.03384060329859
 20
189.21842447916666
 30
0.0
 10
137.03384060329859
 20
189.21842447916666
 30
0.0
 10
137.03384060329859
 20
188.02831624348957
 30
0.0
 10
137.03384060329859
 20
188.02831624348957
 30
0.0
 10
137.03384060329859
 20
188.02831624348957
 30
0.0
 10
136.65143500434027
 20
187.64591064453123
 30
0.0
 10
136.65143500434027
 20
187.64591064453123
 30
0.0
 10
136.65143500434027
 20
187.64591064453123
 30
0.0
 10
136.26902940538193
 20
187.64591064453123
 30
0.0
 10
136.26902940538193
 20
187.64591064453123
 30
0.0
 10
136.26902940538193
 20
187.64591064453123
 30
0.0
 10
134.27190755208332
 20
187.64591064453123
 30
0.0
 10
134.27190755208332
 20
187.64591064453123
 30
0.0
 10
134.27190755208332
 20
187.64591064453123
 30
0.0
 10
131.12687988281249
 20
187.64591064453123
 30
0.0
 10
101.29493679470485
 20
187.26333279079859
 30
0.0
 10
100.48740641276041
 20
188.02831624348957
 30
0.0
 10
100.48740641276041
 20
189.21842447916666
 30
0.0
 10
100.48740641276041
 20
189.21842447916666
 30
0.0
 10
100.48740641276041
 20
189.21842447916666
 30
0.0
 10
102.05992024739582
 20
189.21842447916666
 30
0.0
 10
102.05992024739582
 20
189.21842447916666
 30
0.0
 10
102.05992024739582
 20
189.21842447916666
 30
0.0
 10
102.05992024739582
 20
194.74280734592011
 30
0.0
 10
102.05992024739582
 20
194.74280734592011
 30
0.0
 10
102.05992024739582
 20
194.74280734592011
 30
0.0
 10
100.48740641276041
 20
194.74280734592011
 30
0.0
 10
100.48740641276041
 20
194.74280734592011
 30
0.0
 10
100.48740641276041
 20
194.74280734592011
 30
0.0
 10
100.48740641276041
 20
200.60704888237845
 30
0.0
 10
100.48740641276041
 20
200.60704888237845
 30
0.0
 10
100.48740641276041
 20
200.60704888237845
 30
0.0
 10
83.999007161458323
 20
200.60704888237845
 30
0.0
 10
83.999007161458323
 20
200.60704888237845
 30
0.0
 10
83.999007161458323
 20
200.60704888237845
 30
0.0
 10
83.616429307725681
 20
200.60704888237845
 30
0.0
 10
83.616429307725681
 20
200.60704888237845
 30
0.0
 10
83.616429307725681
 20
200.60704888237845
 30
0.0
 10
83.616429307725681
 20
201.79715711805554
 30
0.0
 10
83.616429307725681
 20
201.79715711805554
 30
0.0
 10
83.616429307725681
 20
201.79715711805554
 30
0.0
 10
83.999007161458323
 20
202.56214057074652
 30
0.0
 10
83.999007161458323
 20
202.56214057074652
 30
0.0
 10
83.999007161458323
 20
202.56214057074652
 30
0.0
 10
84.381068250868054
 20
202.98709309895833
 30
0.0
 10
84.381068250868054
 20
202.98709309895833
 30
0.0
 10
84.381068250868054
 20
202.98709309895833
 30
0.0
 10
95.38763156467013
 20
207.27933756510416
 30
0.0
 10
107.15935058593749
 20
210.04144287109372
 30
0.0
 10
118.54814724392359
 20
210.04144287109372
 30
0.0
 10
130.36206868489583
 20
210.04144287109372
 30
0.0
 10
142.13361545138886
 20
207.70429009331596
 30
0.0
 10
153.14000651041664
 20
202.98709309895833
 30
0.0
 10
153.52275661892361
 20
202.56214057074652
 30
0.0
 10
153.52275661892361
 20
202.56214057074652
 30
0.0
 10
153.52275661892361
 20
202.56214057074652
 30
0.0
 10
153.94788140190971
 20
201.79715711805554
 30
0.0
 10
153.94788140190971
 20
201.79715711805554
 30
0.0
 10
153.94788140190971
 20
201.79715711805554
 30
0.0
 10
153.52275661892361
 20
200.60704888237845
 30
0.0
 10
153.52275661892361
 20
200.60704888237845
 30
0.0
 10
153.52275661892361
 20
200.60704888237845
 30
0.0
 10
149.23085666232637
 20
200.60704888237845
 30
0.0
 10
149.23085666232637
 20
200.60704888237845
 30
0.0
 10
149.23085666232637
 20
200.60704888237845
 30
0.0
 10
149.23085666232637
 20
200.60704888237845
 30
0.0
 10
137.03384060329859
 20
200.60704888237845
 30
0.0
 10
137.03384060329859
 20
200.60704888237845
 30
0.0
  0
SPLINE
  5
108
100
AcDbEntity
  8
レイヤー_1_0
 62
     7
100
AcDbSpline
210
0.0
220
0.0
230
1.0
 70
     8
 71
     3
 72
     8
 73
     4
 74
     0
 42
0.00000001
 43
0.00000001
 40
0.0
 40
0.0
 40
0.0
 40
0.0
 40
1.0
 40
1.0
 40
1.0
 40
1.0
 10
100.48740641276041
 20
189.21842447916666
 30
0.0
 10
137.03384060329859
 20
189.21842447916666
 30
0.0
 10
137.03384060329859
 20
189.21842447916666
 30
0.0
 10
137.03384060329859
 20
189.21842447916666
 30
0.0
  0
SPLINE
  5
107
100
AcDbEntity
  8
レイヤー_1_0
 62
     7
100
AcDbSpline
210
0.0
220
0.0
230
1.0
 70
     8
 71
     3
 72
     8
 73
     4
 74
     0
 42
0.00000001
 43
0.00000001
 40
0.0
 40
0.0
 40
0.0
 40
0.0
 40
1.0
 40
1.0
 40
1.0
 40
1.0
 10
102.05992024739582
 20
189.21842447916666
 30
0.0
 10
135.46184353298611
 20
189.21842447916666
 30
0.0
 10
135.46184353298611
 20
189.21842447916666
 30
0.0
 10
135.46184353298611
 20
189.21842447916666
 30
0.0
  0
SPLINE
  5
106
100
AcDbEntity
  8
レイヤー_1_0
 62
     7
100
AcDbSpline
210
0.0
220
0.0
230
1.0
 70
     8
 71
     3
 72
     8
 73
     4
 74
     0
 42
0.00000001
 43
0.00000001
 40
0.0
 40
0.0
 40
0.0
 40
0.0
 40
1.0
 40
1.0
 40
1.0
 40
1.0
 10
134.69668782552083
 20
194.74280734592011
 30
0.0
 10
137.03384060329859
 20
194.74280734592011
 30
0.0
 10
137.03384060329859
 20
194.74280734592011
 30
0.0
 10
137.03384060329859
 20
194.74280734592011
 30
0.0
  0
SPLINE
  5
105
100
AcDbEntity
  8
レイヤー_1_0
 62
     7
100
AcDbSpline
210
0.0
220
0.0
230
1.0
 70
     8
 71
     3
 72
     8
 73
     4
 74
     0
 42
0.00000001
 43
0.00000001
 40
0.0
 40
0.0
 40
0.0
 40
0.0
 40
1.0
 40
1.0
 40
1.0
 40
1.0
 10
100.48740641276041
 20
194.74280734592011
 30
0.0
 10
134.69668782552083
 20
194.74280734592011
 30
0.0
 10
134.69668782552083
 20
194.74280734592011
 30
0.0
 10
134.69668782552083
 20
194.74280734592011
 30
0.0
  0
SPLINE
  5
104
100
AcDbEntity
  8
レイヤー_1_0
 62
     7
100
AcDbSpline
210
0.0
220
0.0
230
1.0
 70
     8
 71
     3
 72
     8
 73
     4
 74
     0
 42
0.00000001
 43
0.00000001
 40
0.0
 40
0.0
 40
0.0
 40
0.0
 40
1.0
 40
1.0
 40
1.0
 40
1.0
 10
149.61326226128472
 20
200.60704888237845
 30
0.0
 10
153.52275661892361
 20
200.60704888237845
 30
0.0
 10
153.52275661892361
 20
200.60704888237845
 30
0.0
 10
153.52275661892361
 20
200.60704888237845
 30
0.0
  0
SPLINE
  5
103
100
AcDbEntity
  8
レイヤー_1_0
 62
     7
100
AcDbSpline
210
0.0
220
0.0
230
1.0
 70
     8
 71
     3
 72
     8
 73
     4
 74
     0
 42
0.00000001
 43
0.00000001
 40
0.0
 40
0.0
 40
0.0
 40
0.0
 40
1.0
 40
1.0
 40
1.0
 40
1.0
 10
83.616429307725681
 20
200.60704888237845
 30
0.0
 10
149.61326226128472
 20
200.60704888237845
 30
0.0
 10
149.61326226128472
 20
200.60704888237845
 30
0.0
 10
149.61326226128472
 20
200.60704888237845
 30
0.0
  0
SPLINE
  5
102
100
AcDbEntity
  8
レイヤー_1_0
 62
     7
100
AcDbSpline
210
0.0
220
0.0
230
1.0
 70
     8
 71
     3
 72
    38
 73
    34
 74
     0
 42
0.00000001
 43
0.00000001
 40
0.0
 40
0.0
 40
0.0
 40
0.0
 40
1.0
 40
1.0
 40
1.0
 40
2.0
 40
2.0
 40
2.0
 40
3.0
 40
3.0
 40
3.0
 40
4.0
 40
4.0
 40
4.0
 40
5.0
 40
5.0
 40
5.0
 40
6.0
 40
6.0
 40
6.0
 40
7.0
 40
7.0
 40
7.0
 40
8.0
 40
8.0
 40
8.0
 40
9.0
 40
9.0
 40
9.0
 40
10.0
 40
10.0
 40
10.0
 40
11.0
 40
11.0
 40
11.0
 40
11.0
 10
149.23085666232637
 20
200.60704888237845
 30
0.0
 10
153.52275661892361
 20
200.60704888237845
 30
0.0
 10
153.52275661892361
 20
200.60704888237845
 30
0.0
 10
153.52275661892361
 20
200.60704888237845
 30
0.0
 10
153.94788140190971
 20
201.79715711805554
 30
0.0
 10
153.94788140190971
 20
201.79715711805554
 30
0.0
 10
153.94788140190971
 20
201.79715711805554
 30
0.0
 10
153.52275661892361
 20
202.56214057074652
 30
0.0
 10
153.52275661892361
 20
202.56214057074652
 30
0.0
 10
153.52275661892361
 20
202.56214057074652
 30
0.0
 10
153.14000651041664
 20
202.98709309895833
 30
0.0
 10
153.14000651041664
 20
202.98709309895833
 30
0.0
 10
153.14000651041664
 20
202.98709309895833
 30
0.0
 10
142.13361545138886
 20
207.70429009331596
 30
0.0
 10
130.36206868489583
 20
210.04144287109372
 30
0.0
 10
118.54814724392359
 20
210.04144287109372
 30
0.0
 10
107.15935058593749
 20
210.04144287109372
 30
0.0
 10
95.38763156467013
 20
207.27933756510416
 30
0.0
 10
84.381068250868054
 20
202.98709309895833
 30
0.0
 10
83.999007161458323
 20
202.56214057074652
 30
0.0
 10
83.999007161458323
 20
202.56214057074652
 30
0.0
 10
83.999007161458323
 20
202.56214057074652
 30
0.0
 10
83.616429307725681
 20
201.79715711805554
 30
0.0
 10
83.616429307725681
 20
201.79715711805554
 30
0.0
 10
83.616429307725681
 20
201.79715711805554
 30
0.0
 10
83.616429307725681
 20
200.60704888237845
 30
0.0
 10
83.616429307725681
 20
200.60704888237845
 30
0.0
 10
83.616429307725681
 20
200.60704888237845
 30
0.0
 10
83.999007161458323
 20
200.60704888237845
 30
0.0
 10
83.999007161458323
 20
200.60704888237845
 30
0.0
 10
83.999007161458323
 20
200.60704888237845
 30
0.0
 10
83.999007161458323
 20
200.60704888237845
 30
0.0
 10
149.23085666232637
 20
200.60704888237845
 30
0.0
 10
149.23085666232637
 20
200.60704888237845
 30
0.0
  0
HATCH
  5
101
100
AcDbEntity
  8
レイヤー_1_0
 62
     7
100
AcDbHatch
 10
0.0
 20
0.0
 30
0.0
210
0.0
220
0.0
230
1.0
  2
SOLID
 70
     1
 71
     0
 91
        1
 92
        3
 72
     0
 73
     1
 93
       16
 10
100.10482855902777
 20
191.17299940321178
 10
96.577739800347217
 20
191.59812418619791
 10
96.1526150173611
 20
191.59812418619791
 10
96.1526150173611
 20
192.36310763888886
 10
96.577739800347217
 20
192.36310763888886
 10
100.10482855902777
 20
192.74551323784721
 10
100.48740641276041
 20
194.31768256293401
 10
137.03384060329859
 20
194.31768256293401
 10
137.03384060329859
 20
192.74551323784721
 10
140.9440239800347
 20
192.36310763888886
 10
141.36845974392361
 20
192.36310763888886
 10
141.36845974392361
 20
191.59812418619791
 10
140.9440239800347
 20
191.59812418619791
 10
137.03384060329859
 20
191.17299940321178
 10
137.03384060329859
 20
189.60083007812497
 10
100.48740641276041
 20
189.60083007812497
 97
        0
 75
     0
 76
     1
 98
        1
 10
0.0
 20
0.0
  0
POLYLINE
  5
EF
100
AcDbEntity
  8
レイヤー_1_0
 62
     7
100
AcDb2dPolyline
 66
     1
 10
0.0
 20
0.0
 30
0.0
 70
     1
  0
VERTEX
  5
F0
100
AcDbEntity
  8
レイヤー_1_0
 62
     7
100
AcDbVertex
100
AcDb2dVertex
 10
100.487406
 20
189.60083
 30
0.0
  0
VERTEX
  5
F1
100
AcDbEntity
  8
レイヤー_1_0
 62
     7
100
AcDbVertex
100
AcDb2dVertex
 10
137.033841
 20
189.60083
 30
0.0
  0
VERTEX
  5
F2
100
AcDbEntity
  8
レイヤー_1_0
 62
     7
100
AcDbVertex
100
AcDb2dVertex
 10
137.033841
 20
191.172999
 30
0.0
  0
VERTEX
  5
F3
100
AcDbEntity
  8
レイヤー_1_0
 62
     7
100
AcDbVertex
100
AcDb2dVertex
 10
140.944024
 20
191.598124
 30
0.0
  0
VERTEX
  5
F4
100
AcDbEntity
  8
レイヤー_1_0
 62
     7
100
AcDbVertex
100
AcDb2dVertex
 10
141.36846
 20
191.598124
 30
0.0
  0
VERTEX
  5
F5
100
AcDbEntity
  8
レイヤー_1_0
 62
     7
100
AcDbVertex
100
AcDb2dVertex
 10
141.36846
 20
192.363108
 30
0.0
  0
VERTEX
  5
F6
100
AcDbEntity
  8
レイヤー_1_0
 62
     7
100
AcDbVertex
100
AcDb2dVertex
 10
140.944024
 20
192.363108
 30
0.0
  0
VERTEX
  5
F7
100
AcDbEntity
  8
レイヤー_1_0
 62
     7
100
AcDbVertex
100
AcDb2dVertex
 10
137.033841
 20
192.745513
 30
0.0
  0
VERTEX
  5
F8
100
AcDbEntity
  8
レイヤー_1_0
 62
     7
100
AcDbVertex
100
AcDb2dVertex
 10
137.033841
 20
194.317683
 30
0.0
  0
VERTEX
  5
F9
100
AcDbEntity
  8
レイヤー_1_0
 62
     7
100
AcDbVertex
100
AcDb2dVertex
 10
100.487406
 20
194.317683
 30
0.0
  0
VERTEX
  5
FA
100
AcDbEntity
  8
レイヤー_1_0
 62
     7
100
AcDbVertex
100
AcDb2dVertex
 10
100.104829
 20
192.745513
 30
0.0
  0
VERTEX
  5
FB
100
AcDbEntity
  8
レイヤー_1_0
 62
     7
100
AcDbVertex
100
AcDb2dVertex
 10
96.57774
 20
192.363108
 30
0.0
  0
VERTEX
  5
FC
100
AcDbEntity
  8
レイヤー_1_0
 62
     7
100
AcDbVertex
100
AcDb2dVertex
 10
96.152615
 20
192.363108
 30
0.0
  0
VERTEX
  5
FD
100
AcDbEntity
  8
レイヤー_1_0
 62
     7
100
AcDbVertex
100
AcDb2dVertex
 10
96.152615
 20
191.598124
 30
0.0
  0
VERTEX
  5
FE
100
AcDbEntity
  8
レイヤー_1_0
 62
     7
100
AcDbVertex
100
AcDb2dVertex
 10
96.57774
 20
191.598124
 30
0.0
  0
VERTEX
  5
FF
100
AcDbEntity
  8
レイヤー_1_0
 62
     7
100
AcDbVertex
100
AcDb2dVertex
 10
100.104829
 20
191.172999
 30
0.0
  0
SEQEND
  5
100
100
AcDbEntity
  8
レイヤー_1_0
 62
     7
  0
LINE
  5
EE
100
AcDbEntity
  8
レイヤー_1_0
 62
     7
100
AcDbLine
 10
100.104829
 20
192.745513
 30
0.0
 11
137.033841
 21
192.745513
 31
0.0
  0
LINE
  5
ED
100
AcDbEntity
  8
レイヤー_1_0
 62
     7
100
AcDbLine
 10
100.104829
 20
191.172999
 30
0.0
 11
137.033841
 21
191.172999
 31
0.0
  0
POLYLINE
  5
E4
100
AcDbEntity
  8
レイヤー_1_0
 62
     7
100
AcDb2dPolyline
 66
     1
 10
0.0
 20
0.0
 30
0.0
  0
VERTEX
  5
E5
100
AcDbEntity
  8
レイヤー_1_0
 62
     7
100
AcDbVertex
100
AcDb2dVertex
 10
115.403464
 20
74.478141
 30
0.0
  0
VERTEX
  5
E6
100
AcDbEntity
  8
レイヤー_1_0
 62
     7
100
AcDbVertex
100
AcDb2dVertex
 10
122.117955
 20
74.478141
 30
0.0
  0
VERTEX
  5
E7
100
AcDbEntity
  8
レイヤー_1_0
 62
     7
100
AcDbVertex
100
AcDb2dVertex
 10
122.117955
 20
158.96084
 30
0.0
  0
VERTEX
  5
E8
100
AcDbEntity
  8
レイヤー_1_0
 62
     7
100
AcDbVertex
100
AcDb2dVertex
 10
125.262983
 20
162.913053
 30
0.0
  0
VERTEX
  5
E9
100
AcDbEntity
  8
レイヤー_1_0
 62
     7
100
AcDbVertex
100
AcDb2dVertex
 10
112.259125
 20
162.913053
 30
0.0
  0
VERTEX
  5
EA
100
AcDbEntity
  8
レイヤー_1_0
 62
     7
100
AcDbVertex
100
AcDb2dVertex
 10
115.403464
 20
158.96084
 30
0.0
  0
VERTEX
  5
EB
100
AcDbEntity
  8
レイヤー_1_0
 62
     7
100
AcDbVertex
100
AcDb2dVertex
 10
115.403464
 20
74.478141
 30
0.0
  0
SEQEND
  5
EC
100
AcDbEntity
  8
レイヤー_1_0
 62
     7
  0
POLYLINE
  5
DC
100
AcDbEntity
  8
レイヤー_1_0
 62
     7
100
AcDb2dPolyline
 66
     1
 10
0.0
 20
0.0
 30
0.0
 70
     1
  0
VERTEX
  5
DD
100
AcDbEntity
  8
レイヤー_1_0
 62
     7
100
AcDbVertex
100
AcDb2dVertex
 10
115.403464
 20
74.478141
 30
0.0
  0
VERTEX
  5
DE
100
AcDbEntity
  8
レイヤー_1_0
 62
     7
100
AcDbVertex
100
AcDb2dVertex
 10
122.117955
 20
74.478141
 30
0.0
  0
VERTEX
  5
DF
100
AcDbEntity
  8
レイヤー_1_0
 62
     7
100
AcDbVertex
100
AcDb2dVertex
 10
122.117955
 20
158.96084
 30
0.0
  0
VERTEX
  5
E0
100
AcDbEntity
  8
レイヤー_1_0
 62
     7
100
AcDbVertex
100
AcDb2dVertex
 10
125.262983
 20
162.913053
 30
0.0
  0
VERTEX
  5
E1
100
AcDbEntity
  8
レイヤー_1_0
 62
     7
100
AcDbVertex
100
AcDb2dVertex
 10
112.259125
 20
162.913053
 30
0.0
  0
VERTEX
  5
E2
100
AcDbEntity
  8
レイヤー_1_0
 62
     7
100
AcDbVertex
100
AcDb2dVertex
 10
115.403464
 20
158.96084
 30
0.0
  0
SEQEND
  5
E3
100
AcDbEntity
  8
レイヤー_1_0
 62
     7
  0
LINE
  5
DB
100
AcDbEntity
  8
レイヤー_1_0
 62
     7
100
AcDbLine
 10
115.403464
 20
158.96084
 30
0.0
 11
122.117955
 21
158.96084
 31
0.0
  0
LINE
  5
DA
100
AcDbEntity
  8
レイヤー_1_0
 62
     7
100
AcDbLine
 10
115.828589
 20
74.478141
 30
0.0
 11
121.693175
 21
75.668422
 31
0.0
  0
LINE
  5
D9
100
AcDbEntity
  8
レイヤー_1_0
 62
     7
100
AcDbLine
 10
115.828589
 20
76.433577
 30
0.0
 11
121.693175
 21
77.623169
 31
0.0
  0
LINE
  5
D8
100
AcDbEntity
  8
レイヤー_1_0
 62
     7
100
AcDbLine
 10
115.828589
 20
78.430355
 30
0.0
 11
121.693175
 21
79.577572
 31
0.0
  0
LINE
  5
D7
100
AcDbEntity
  8
レイヤー_1_0
 62
     7
100
AcDbLine
 10
115.828589
 20
80.384757
 30
0.0
 11
121.693175
 21
81.575382
 31
0.0
  0
LINE
  5
D6
100
AcDbEntity
  8
レイヤー_1_0
 62
     7
100
AcDbLine
 10
115.828589
 20
82.340194
 30
0.0
 11
121.693175
 21
83.529785
 31
0.0
  0
LINE
  5
D5
100
AcDbEntity
  8
レイヤー_1_0
 62
     7
100
AcDbLine
 10
115.828589
 20
84.294941
 30
0.0
 11
121.693175
 21
85.102127
 31
0.0
  0
LINE
  5
D4
100
AcDbEntity
  8
レイヤー_1_0
 62
     7
100
AcDbLine
 10
115.828589
 20
86.249688
 30
0.0
 11
121.693175
 21
87.057563
 31
0.0
  0
LINE
  5
D3
100
AcDbEntity
  8
レイヤー_1_0
 62
     7
100
AcDbLine
 10
115.828589
 20
87.821685
 30
0.0
 11
121.693175
 21
89.01231
 31
0.0
  0
LINE
  5
D2
100
AcDbEntity
  8
レイヤー_1_0
 62
     7
100
AcDbLine
 10
115.828589
 20
89.819151
 30
0.0
 11
121.693175
 21
90.966713
 31
0.0
  0
LINE
  5
D1
100
AcDbEntity
  8
レイヤー_1_0
 62
     7
100
AcDbLine
 10
115.828589
 20
91.773899
 30
0.0
 11
121.693175
 21
92.964179
 31
0.0
  0
LINE
  5
D0
100
AcDbEntity
  8
レイヤー_1_0
 62
     7
100
AcDbLine
 10
115.828589
 20
93.729335
 30
0.0
 11
121.693175
 21
94.918926
 31
0.0
  0
LINE
  5
CF
100
AcDbEntity
  8
レイヤー_1_0
 62
     7
100
AcDbLine
 10
115.828589
 20
95.684082
 30
0.0
 11
121.693175
 21
96.873674
 31
0.0
  0
LINE
  5
CE
100
AcDbEntity
  8
レイヤー_1_0
 62
     7
100
AcDbLine
 10
115.828589
 20
97.681548
 30
0.0
 11
121.693175
 21
98.828421
 31
0.0
  0
LINE
  5
CD
100
AcDbEntity
  8
レイヤー_1_0
 62
     7
100
AcDbLine
 10
115.828589
 20
99.636296
 30
0.0
 11
121.693175
 21
100.401107
 31
0.0
  0
LINE
  5
CC
100
AcDbEntity
  8
レイヤー_1_0
 62
     7
100
AcDbLine
 10
115.828589
 20
101.590698
 30
0.0
 11
121.693175
 21
102.397884
 31
0.0
  0
LINE
  5
CB
100
AcDbEntity
  8
レイヤー_1_0
 62
     7
100
AcDbLine
 10
115.828589
 20
103.16304
 30
0.0
 11
121.693175
 21
104.35332
 31
0.0
  0
LINE
  5
CA
100
AcDbEntity
  8
レイヤー_1_0
 62
     7
100
AcDbLine
 10
115.828589
 20
105.118476
 30
0.0
 11
121.693175
 21
106.308067
 31
0.0
  0
LINE
  5
C9
100
AcDbEntity
  8
レイヤー_1_0
 62
     7
100
AcDbLine
 10
115.828589
 20
107.115253
 30
0.0
 11
121.693175
 21
108.262815
 31
0.0
  0
LINE
  5
C8
100
AcDbEntity
  8
レイヤー_1_0
 62
     7
100
AcDbLine
 10
115.828589
 20
109.070001
 30
0.0
 11
121.693175
 21
110.260281
 31
0.0
  0
LINE
  5
C7
100
AcDbEntity
  8
レイヤー_1_0
 62
     7
100
AcDbLine
 10
115.828589
 20
111.025437
 30
0.0
 11
121.693175
 21
112.215028
 31
0.0
  0
LINE
  5
C6
100
AcDbEntity
  8
レイヤー_1_0
 62
     7
100
AcDbLine
 10
115.828589
 20
112.979839
 30
0.0
 11
121.693175
 21
114.169775
 31
0.0
  0
LINE
  5
C5
100
AcDbEntity
  8
レイヤー_1_0
 62
     7
100
AcDbLine
 10
115.828589
 20
114.934587
 30
0.0
 11
121.693175
 21
115.742461
 31
0.0
  0
LINE
  5
C4
100
AcDbEntity
  8
レイヤー_1_0
 62
     7
100
AcDbLine
 10
115.828589
 20
116.932053
 30
0.0
 11
121.693175
 21
117.697209
 31
0.0
  0
LINE
  5
C3
100
AcDbEntity
  8
レイヤー_1_0
 62
     7
100
AcDbLine
 10
115.828589
 20
118.504395
 30
0.0
 11
121.693175
 21
119.651956
 31
0.0
  0
LINE
  5
C2
100
AcDbEntity
  8
レイヤー_1_0
 62
     7
100
AcDbLine
 10
115.828589
 20
120.459142
 30
0.0
 11
121.693175
 21
121.649422
 31
0.0
  0
LINE
  5
C1
100
AcDbEntity
  8
レイヤー_1_0
 62
     7
100
AcDbLine
 10
115.828589
 20
122.414233
 30
0.0
 11
121.693175
 21
123.603825
 31
0.0
  0
LINE
  5
C0
100
AcDbEntity
  8
レイヤー_1_0
 62
     7
100
AcDbLine
 10
115.828589
 20
124.368981
 30
0.0
 11
121.693175
 21
125.558572
 31
0.0
  0
LINE
  5
BF
100
AcDbEntity
  8
レイヤー_1_0
 62
     7
100
AcDbLine
 10
115.828589
 20
126.366447
 30
0.0
 11
121.693175
 21
127.513319
 31
0.0
  0
LINE
  5
BE
100
AcDbEntity
  8
レイヤー_1_0
 62
     7
100
AcDbLine
 10
115.828589
 20
128.321194
 30
0.0
 11
121.693175
 21
129.510786
 31
0.0
  0
LINE
  5
BD
100
AcDbEntity
  8
レイヤー_1_0
 62
     7
100
AcDbLine
 10
115.828589
 20
130.275941
 30
0.0
 11
121.693175
 21
131.083127
 31
0.0
  0
LINE
  5
BC
100
AcDbEntity
  8
レイヤー_1_0
 62
     7
100
AcDbLine
 10
115.828589
 20
132.230344
 30
0.0
 11
121.693175
 21
133.038563
 31
0.0
  0
LINE
  5
BB
100
AcDbEntity
  8
レイヤー_1_0
 62
     7
100
AcDbLine
 10
115.828589
 20
133.803375
 30
0.0
 11
121.693175
 21
134.992966
 31
0.0
  0
LINE
  5
BA
100
AcDbEntity
  8
レイヤー_1_0
 62
     7
100
AcDbLine
 10
115.828589
 20
135.800152
 30
0.0
 11
121.693175
 21
136.947713
 31
0.0
  0
LINE
  5
B9
100
AcDbEntity
  8
レイヤー_1_0
 62
     7
100
AcDbLine
 10
115.828589
 20
137.754899
 30
0.0
 11
121.693175
 21
138.94518
 31
0.0
  0
LINE
  5
B8
100
AcDbEntity
  8
レイヤー_1_0
 62
     7
100
AcDbLine
 10
115.828589
 20
139.710335
 30
0.0
 11
121.693175
 21
140.899927
 31
0.0
  0
LINE
  5
B7
100
AcDbEntity
  8
レイヤー_1_0
 62
     7
100
AcDbLine
 10
115.828589
 20
141.665082
 30
0.0
 11
121.693175
 21
142.855018
 31
0.0
  0
LINE
  5
B6
100
AcDbEntity
  8
レイヤー_1_0
 62
     7
100
AcDbLine
 10
115.828589
 20
143.619485
 30
0.0
 11
121.693175
 21
144.809766
 31
0.0
  0
LINE
  5
B5
100
AcDbEntity
  8
レイヤー_1_0
 62
     7
100
AcDbLine
 10
115.828589
 20
145.617296
 30
0.0
 11
121.693175
 21
146.382107
 31
0.0
  0
LINE
  5
B4
100
AcDbEntity
  8
レイヤー_1_0
 62
     7
100
AcDbLine
 10
115.828589
 20
147.571699
 30
0.0
 11
121.693175
 21
148.336854
 31
0.0
  0
LINE
  5
B3
100
AcDbEntity
  8
レイヤー_1_0
 62
     7
100
AcDbLine
 10
115.828589
 20
149.144385
 30
0.0
 11
121.693175
 21
150.333976
 31
0.0
  0
LINE
  5
B2
100
AcDbEntity
  8
レイヤー_1_0
 62
     7
100
AcDbLine
 10
115.828589
 20
151.09896
 30
0.0
 11
121.693175
 21
152.289068
 31
0.0
  0
LINE
  5
B1
100
AcDbEntity
  8
レイヤー_1_0
 62
     7
100
AcDbLine
 10
115.828589
 20
153.054051
 30
0.0
 11
121.693175
 21
154.243643
 31
0.0
  0
LINE
  5
B0
100
AcDbEntity
  8
レイヤー_1_0
 62
     7
100
AcDbLine
 10
115.828589
 20
155.051173
 30
0.0
 11
121.693175
 21
156.198735
 31
0.0
  0
LINE
  5
AF
100
AcDbEntity
  8
レイヤー_1_0
 62
     7
100
AcDbLine
 10
115.828589
 20
157.006265
 30
0.0
 11
121.693175
 21
158.195856
 31
0.0
  0
SPLINE
  5
AE
100
AcDbEntity
  8
レイヤー_1_0
 62
     7
100
AcDbSpline
210
0.0
220
0.0
230
1.0
 70
     8
 71
     3
 72
   101
 73
    97
 74
     0
 42
0.00000001
 43
0.00000001
 40
0.0
 40
0.0
 40
0.0
 40
0.0
 40
1.0
 40
1.0
 40
1.0
 40
2.0
 40
2.0
 40
2.0
 40
3.0
 40
3.0
 40
3.0
 40
4.0
 40
4.0
 40
4.0
 40
5.0
 40
5.0
 40
5.0
 40
6.0
 40
6.0
 40
6.0
 40
7.0
 40
7.0
 40
7.0
 40
8.0
 40
8.0
 40
8.0
 40
9.0
 40
9.0
 40
9.0
 40
10.0
 40
10.0
 40
10.0
 40
11.0
 40
11.0
 40
11.0
 40
12.0
 40
12.0
 40
12.0
 40
13.0
 40
13.0
 40
13.0
 40
14.0
 40
14.0
 40
14.0
 40
15.0
 40
15.0
 40
15.0
 40
16.0
 40
16.0
 40
16.0
 40
17.0
 40
17.0
 40
17.0
 40
18.0
 40
18.0
 40
18.0
 40
19.0
 40
19.0
 40
19.0
 40
20.0
 40
20.0
 40
20.0
 40
21.0
 40
21.0
 40
21.0
 40
22.0
 40
22.0
 40
22.0
 40
23.0
 40
23.0
 40
23.0
 40
24.0
 40
24.0
 40
24.0
 40
25.0
 40
25.0
 40
25.0
 40
26.0
 40
26.0
 40
26.0
 40
27.0
 40
27.0
 40
27.0
 40
28.0
 40
28.0
 40
28.0
 40
29.0
 40
29.0
 40
29.0
 40
30.0
 40
30.0
 40
30.0
 40
31.0
 40
31.0
 40
31.0
 40
32.0
 40
32.0
 40
32.0
 40
32.0
 10
147.23339029947914
 20
111.79024793836804
 30
0.0
 10
146.85098470052083
 20
111.79024793836804
 30
0.0
 10
146.85098470052083
 20
111.79024793836804
 30
0.0
 10
146.46823459201389
 20
111.79024793836804
 30
0.0
 10
146.46823459201389
 20
111.40784233940971
 30
0.0
 10
146.46823459201389
 20
111.40784233940971
 30
0.0
 10
146.46823459201389
 20
111.02543674045138
 30
0.0
 10
146.46823459201389
 20
94.918926323784717
 30
0.0
 10
146.46823459201389
 20
94.918926323784717
 30
0.0
 10
146.46823459201389
 20
94.918926323784717
 30
0.0
 10
146.08582899305554
 20
94.536520724826374
 30
0.0
 10
146.08582899305554
 20
94.536520724826374
 30
0.0
 10
146.08582899305554
 20
94.536520724826374
 30
0.0
 10
142.13361545138886
 20
94.536520724826374
 30
0.0
 10
142.13361545138886
 20
94.536520724826374
 30
0.0
 10
142.13361545138886
 20
94.536520724826374
 30
0.0
 10
141.36845974392361
 20
93.72933485243054
 30
0.0
 10
141.36845974392361
 20
93.72933485243054
 30
0.0
 10
141.36845974392361
 20
93.72933485243054
 30
0.0
 10
141.36845974392361
 20
83.529785156249986
 30
0.0
 10
141.36845974392361
 20
83.529785156249986
 30
0.0
 10
141.36845974392361
 20
83.529785156249986
 30
0.0
 10
140.9440239800347
 20
83.105349392361106
 30
0.0
 10
140.9440239800347
 20
83.105349392361106
 30
0.0
 10
140.9440239800347
 20
83.105349392361106
 30
0.0
 10
125.26298285590276
 20
83.105349392361106
 30
0.0
 10
125.26298285590276
 20
83.105349392361106
 30
0.0
 10
125.26298285590276
 20
83.105349392361106
 30
0.0
 10
125.26298285590276
 20
78.43035481770832
 30
0.0
 10
125.26298285590276
 20
78.43035481770832
 30
0.0
 10
125.26298285590276
 20
78.43035481770832
 30
0.0
 10
124.83751356336805
 20
77.6231689453125
 30
0.0
 10
124.83751356336805
 20
77.6231689453125
 30
0.0
 10
124.83751356336805
 20
77.6231689453125
 30
0.0
 10
113.06596679687499
 20
77.6231689453125
 30
0.0
 10
113.06596679687499
 20
77.6231689453125
 30
0.0
 10
113.06596679687499
 20
77.6231689453125
 30
0.0
 10
112.68390570746527
 20
77.6231689453125
 30
0.0
 10
112.68390570746527
 20
77.6231689453125
 30
0.0
 10
112.68390570746527
 20
77.6231689453125
 30
0.0
 10
112.25912543402777
 20
78.43035481770832
 30
0.0
 10
112.25912543402777
 20
78.43035481770832
 30
0.0
 10
112.25912543402777
 20
78.43035481770832
 30
0.0
 10
112.25912543402777
 20
83.105349392361106
 30
0.0
 10
112.25912543402777
 20
83.105349392361106
 30
0.0
 10
112.25912543402777
 20
83.105349392361106
 30
0.0
 10
96.1526150173611
 20
83.105349392361106
 30
0.0
 10
96.1526150173611
 20
83.105349392361106
 30
0.0
 10
96.1526150173611
 20
83.105349392361106
 30
0.0
 10
95.770209418402771
 20
83.529785156249986
 30
0.0
 10
95.770209418402771
 20
83.529785156249986
 30
0.0
 10
95.770209418402771
 20
83.529785156249986
 30
0.0
 10
95.770209418402771
 20
93.72933485243054
 30
0.0
 10
95.770209418402771
 20
93.72933485243054
 30
0.0
 10
95.770209418402771
 20
93.72933485243054
 30
0.0
 10
95.38763156467013
 20
94.536520724826374
 30
0.0
 10
95.38763156467013
 20
94.536520724826374
 30
0.0
 10
95.38763156467013
 20
94.536520724826374
 30
0.0
 10
91.435934787326374
 20
94.536520724826374
 30
0.0
 10
91.435934787326374
 20
94.536520724826374
 30
0.0
 10
91.435934787326374
 20
94.536520724826374
 30
0.0
 10
91.053356933593747
 20
94.918926323784717
 30
0.0
 10
91.053356933593747
 20
94.918926323784717
 30
0.0
 10
91.053356933593747
 20
94.918926323784717
 30
0.0
 10
91.053356933593747
 20
111.02543674045138
 30
0.0
 10
91.053356933593747
 20
111.02543674045138
 30
0.0
 10
91.053356933593747
 20
111.02543674045138
 30
0.0
 10
91.053356933593747
 20
111.40784233940971
 30
0.0
 10
91.053356933593747
 20
111.40784233940971
 30
0.0
 10
91.053356933593747
 20
111.79024793836804
 30
0.0
 10
90.670779079861106
 20
111.79024793836804
 30
0.0
 10
90.670779079861106
 20
111.79024793836804
 30
0.0
 10
90.288373480902763
 20
111.79024793836804
 30
0.0
 10
84.763646104600681
 20
111.79024793836804
 30
0.0
 10
84.763646104600681
 20
111.79024793836804
 30
0.0
 10
84.763646104600681
 20
111.79024793836804
 30
0.0
 10
84.381068250868054
 20
112.21502821180555
 30
0.0
 10
84.381068250868054
 20
112.21502821180555
 30
0.0
 10
84.381068250868054
 20
112.21502821180555
 30
0.0
 10
84.381068250868054
 20
118.50439453124999
 30
0.0
 10
84.381068250868054
 20
118.50439453124999
 30
0.0
 10
84.381068250868054
 20
118.50439453124999
 30
0.0
 10
84.763646104600681
 20
118.50439453124999
 30
0.0
 10
84.763646104600681
 20
118.50439453124999
 30
0.0
 10
84.763646104600681
 20
118.50439453124999
 30
0.0
 10
89.09826524522569
 20
118.50439453124999
 30
0.0
 10
89.09826524522569
 20
118.50439453124999
 30
0.0
 10
89.09826524522569
 20
118.50439453124999
 30
0.0
 10
152.75760091145833
 20
118.50439453124999
 30
0.0
 10
152.75760091145833
 20
118.50439453124999
 30
0.0
 10
152.75760091145833
 20
118.50439453124999
 30
0.0
 10
152.75760091145833
 20
112.21502821180555
 30
0.0
 10
152.75760091145833
 20
112.21502821180555
 30
0.0
 10
152.75760091145833
 20
112.21502821180555
 30
0.0
 10
152.37519531249998
 20
111.79024793836804
 30
0.0
 10
152.37519531249998
 20
111.79024793836804
 30
0.0
 10
152.37519531249998
 20
111.79024793836804
 30
0.0
  0
SPLINE
  5
AD
100
AcDbEntity
  8
レイヤー_1_0
 62
     7
100
AcDbSpline
210
0.0
220
0.0
230
1.0
 70
     8
 71
     3
 72
   104
 73
   100
 74
     0
 42
0.00000001
 43
0.00000001
 40
0.0
 40
0.0
 40
0.0
 40
0.0
 40
1.0
 40
1.0
 40
1.0
 40
2.0
 40
2.0
 40
2.0
 40
3.0
 40
3.0
 40
3.0
 40
4.0
 40
4.0
 40
4.0
 40
5.0
 40
5.0
 40
5.0
 40
6.0
 40
6.0
 40
6.0
 40
7.0
 40
7.0
 40
7.0
 40
8.0
 40
8.0
 40
8.0
 40
9.0
 40
9.0
 40
9.0
 40
10.0
 40
10.0
 40
10.0
 40
11.0
 40
11.0
 40
11.0
 40
12.0
 40
12.0
 40
12.0
 40
13.0
 40
13.0
 40
13.0
 40
14.0
 40
14.0
 40
14.0
 40
15.0
 40
15.0
 40
15.0
 40
16.0
 40
16.0
 40
16.0
 40
17.0
 40
17.0
 40
17.0
 40
18.0
 40
18.0
 40
18.0
 40
19.0
 40
19.0
 40
19.0
 40
20.0
 40
20.0
 40
20.0
 40
21.0
 40
21.0
 40
21.0
 40
22.0
 40
22.0
 40
22.0
 40
23.0
 40
23.0
 40
23.0
 40
24.0
 40
24.0
 40
24.0
 40
25.0
 40
25.0
 40
25.0
 40
26.0
 40
26.0
 40
26.0
 40
27.0
 40
27.0
 40
27.0
 40
28.0
 40
28.0
 40
28.0
 40
29.0
 40
29.0
 40
29.0
 40
30.0
 40
30.0
 40
30.0
 40
31.0
 40
31.0
 40
31.0
 40
32.0
 40
32.0
 40
32.0
 40
33.0
 40
33.0
 40
33.0
 40
33.0
 10
147.23339029947914
 20
111.79024793836804
 30
0.0
 10
146.85098470052083
 20
111.79024793836804
 30
0.0
 10
146.85098470052083
 20
111.79024793836804
 30
0.0
 10
146.46823459201389
 20
111.79024793836804
 30
0.0
 10
146.46823459201389
 20
111.40784233940971
 30
0.0
 10
146.46823459201389
 20
111.40784233940971
 30
0.0
 10
146.46823459201389
 20
111.02543674045138
 30
0.0
 10
146.46823459201389
 20
94.918926323784717
 30
0.0
 10
146.46823459201389
 20
94.918926323784717
 30
0.0
 10
146.46823459201389
 20
94.918926323784717
 30
0.0
 10
146.08582899305554
 20
94.536520724826374
 30
0.0
 10
146.08582899305554
 20
94.536520724826374
 30
0.0
 10
146.08582899305554
 20
94.536520724826374
 30
0.0
 10
142.13361545138886
 20
94.536520724826374
 30
0.0
 10
142.13361545138886
 20
94.536520724826374
 30
0.0
 10
142.13361545138886
 20
94.536520724826374
 30
0.0
 10
141.36845974392361
 20
93.72933485243054
 30
0.0
 10
141.36845974392361
 20
93.72933485243054
 30
0.0
 10
141.36845974392361
 20
93.72933485243054
 30
0.0
 10
141.36845974392361
 20
83.529785156249986
 30
0.0
 10
141.36845974392361
 20
83.529785156249986
 30
0.0
 10
141.36845974392361
 20
83.529785156249986
 30
0.0
 10
140.9440239800347
 20
83.105349392361106
 30
0.0
 10
140.9440239800347
 20
83.105349392361106
 30
0.0
 10
140.9440239800347
 20
83.105349392361106
 30
0.0
 10
125.26298285590276
 20
83.105349392361106
 30
0.0
 10
125.26298285590276
 20
83.105349392361106
 30
0.0
 10
125.26298285590276
 20
83.105349392361106
 30
0.0
 10
125.26298285590276
 20
78.43035481770832
 30
0.0
 10
125.26298285590276
 20
78.43035481770832
 30
0.0
 10
125.26298285590276
 20
78.43035481770832
 30
0.0
 10
124.83751356336805
 20
77.6231689453125
 30
0.0
 10
124.83751356336805
 20
77.6231689453125
 30
0.0
 10
124.83751356336805
 20
77.6231689453125
 30
0.0
 10
113.06596679687499
 20
77.6231689453125
 30
0.0
 10
113.06596679687499
 20
77.6231689453125
 30
0.0
 10
113.06596679687499
 20
77.6231689453125
 30
0.0
 10
112.68390570746527
 20
77.6231689453125
 30
0.0
 10
112.68390570746527
 20
77.6231689453125
 30
0.0
 10
112.68390570746527
 20
77.6231689453125
 30
0.0
 10
112.25912543402777
 20
78.43035481770832
 30
0.0
 10
112.25912543402777
 20
78.43035481770832
 30
0.0
 10
112.25912543402777
 20
78.43035481770832
 30
0.0
 10
112.25912543402777
 20
83.105349392361106
 30
0.0
 10
112.25912543402777
 20
83.105349392361106
 30
0.0
 10
112.25912543402777
 20
83.105349392361106
 30
0.0
 10
96.1526150173611
 20
83.105349392361106
 30
0.0
 10
96.1526150173611
 20
83.105349392361106
 30
0.0
 10
96.1526150173611
 20
83.105349392361106
 30
0.0
 10
95.770209418402771
 20
83.529785156249986
 30
0.0
 10
95.770209418402771
 20
83.529785156249986
 30
0.0
 10
95.770209418402771
 20
83.529785156249986
 30
0.0
 10
95.770209418402771
 20
93.72933485243054
 30
0.0
 10
95.770209418402771
 20
93.72933485243054
 30
0.0
 10
95.770209418402771
 20
93.72933485243054
 30
0.0
 10
95.38763156467013
 20
94.536520724826374
 30
0.0
 10
95.38763156467013
 20
94.536520724826374
 30
0.0
 10
95.38763156467013
 20
94.536520724826374
 30
0.0
 10
91.435934787326374
 20
94.536520724826374
 30
0.0
 10
91.435934787326374
 20
94.536520724826374
 30
0.0
 10
91.435934787326374
 20
94.536520724826374
 30
0.0
 10
91.053356933593747
 20
94.918926323784717
 30
0.0
 10
91.053356933593747
 20
94.918926323784717
 30
0.0
 10
91.053356933593747
 20
94.918926323784717
 30
0.0
 10
91.053356933593747
 20
111.02543674045138
 30
0.0
 10
91.053356933593747
 20
111.02543674045138
 30
0.0
 10
91.053356933593747
 20
111.02543674045138
 30
0.0
 10
91.053356933593747
 20
111.40784233940971
 30
0.0
 10
91.053356933593747
 20
111.40784233940971
 30
0.0
 10
91.053356933593747
 20
111.79024793836804
 30
0.0
 10
90.670779079861106
 20
111.79024793836804
 30
0.0
 10
90.670779079861106
 20
111.79024793836804
 30
0.0
 10
90.288373480902763
 20
111.79024793836804
 30
0.0
 10
84.763646104600681
 20
111.79024793836804
 30
0.0
 10
84.763646104600681
 20
111.79024793836804
 30
0.0
 10
84.763646104600681
 20
111.79024793836804
 30
0.0
 10
84.381068250868054
 20
112.21502821180555
 30
0.0
 10
84.381068250868054
 20
112.21502821180555
 30
0.0
 10
84.381068250868054
 20
112.21502821180555
 30
0.0
 10
84.381068250868054
 20
118.50439453124999
 30
0.0
 10
84.381068250868054
 20
118.50439453124999
 30
0.0
 10
84.381068250868054
 20
118.50439453124999
 30
0.0
 10
84.763646104600681
 20
118.50439453124999
 30
0.0
 10
84.763646104600681
 20
118.50439453124999
 30
0.0
 10
84.763646104600681
 20
118.50439453124999
 30
0.0
 10
89.09826524522569
 20
118.50439453124999
 30
0.0
 10
89.09826524522569
 20
118.50439453124999
 30
0.0
 10
89.09826524522569
 20
118.50439453124999
 30
0.0
 10
152.75760091145833
 20
118.50439453124999
 30
0.0
 10
152.75760091145833
 20
118.50439453124999
 30
0.0
 10
152.75760091145833
 20
118.50439453124999
 30
0.0
 10
152.75760091145833
 20
112.21502821180555
 30
0.0
 10
152.75760091145833
 20
112.21502821180555
 30
0.0
 10
152.75760091145833
 20
112.21502821180555
 30
0.0
 10
152.37519531249998
 20
111.79024793836804
 30
0.0
 10
152.37519531249998
 20
111.79024793836804
 30
0.0
 10
152.37519531249998
 20
111.79024793836804
 30
0.0
 10
152.37519531249998
 20
111.79024793836804
 30
0.0
 10
147.23339029947914
 20
111.79024793836804
 30
0.0
 10
147.23339029947914
 20
111.79024793836804
 30
0.0
  0
LINE
  5
AC
100
AcDbEntity
  8
レイヤー_1_0
 62
     7
100
AcDbLine
 10
96.152615
 20
83.105349
 30
0.0
 11
140.944024
 21
83.105349
 31
0.0
  0
LINE
  5
AB
100
AcDbEntity
  8
レイヤー_1_0
 62
     7
100
AcDbLine
 10
95.770209
 20
83.529785
 30
0.0
 11
141.36846
 21
83.529785
 31
0.0
  0
LINE
  5
AA
100
AcDbEntity
  8
レイヤー_1_0
 62
     7
100
AcDbLine
 10
95.770209
 20
93.729335
 30
0.0
 11
141.36846
 21
93.729335
 31
0.0
  0
LINE
  5
A9
100
AcDbEntity
  8
レイヤー_1_0
 62
     7
100
AcDbLine
 10
94.580446
 20
94.918926
 30
0.0
 11
146.468235
 21
94.918926
 31
0.0
  0
LINE
  5
A8
100
AcDbEntity
  8
レイヤー_1_0
 62
     7
100
AcDbLine
 10
95.005226
 20
94.536521
 30
0.0
 11
146.085829
 21
94.536521
 31
0.0
  0
LINE
  5
A7
100
AcDbEntity
  8
レイヤー_1_0
 62
     7
100
AcDbLine
 10
91.053357
 20
94.918926
 30
0.0
 11
94.580446
 21
94.918926
 31
0.0
  0
LINE
  5
A6
100
AcDbEntity
  8
レイヤー_1_0
 62
     7
100
AcDbLine
 10
91.435935
 20
94.536521
 30
0.0
 11
95.005226
 21
94.536521
 31
0.0
  0
LINE
  5
A5
100
AcDbEntity
  8
レイヤー_1_0
 62
     7
100
AcDbLine
 10
112.683906
 20
78.430355
 30
0.0
 11
125.262983
 21
78.430355
 31
0.0
  0
LINE
  5
A4
100
AcDbEntity
  8
レイヤー_1_0
 62
     7
100
AcDbLine
 10
112.259125
 20
78.430355
 30
0.0
 11
112.683906
 21
78.430355
 31
0.0
  0
LINE
  5
A3
100
AcDbEntity
  8
レイヤー_1_0
 62
     7
100
AcDbLine
 10
88.71586
 20
118.504395
 30
0.0
 11
152.757601
 21
118.504395
 31
0.0
  0
LINE
  5
A2
100
AcDbEntity
  8
レイヤー_1_0
 62
     7
100
AcDbLine
 10
84.381068
 20
118.504395
 30
0.0
 11
88.71586
 21
118.504395
 31
0.0
  0
LINE
  5
A1
100
AcDbEntity
  8
レイヤー_1_0
 62
     7
100
AcDbLine
 10
88.71586
 20
112.215028
 30
0.0
 11
152.757601
 21
112.215028
 31
0.0
  0
LINE
  5
A0
100
AcDbEntity
  8
レイヤー_1_0
 62
     7
100
AcDbLine
 10
84.381068
 20
112.215028
 30
0.0
 11
88.71586
 21
112.215028
 31
0.0
  0
LINE
  5
9F
100
AcDbEntity
  8
レイヤー_1_0
 62
     7
100
AcDbLine
 10
89.098265
 20
111.790248
 30
0.0
 11
152.375195
 21
111.790248
 31
0.0
  0
LINE
  5
9E
100
AcDbEntity
  8
レイヤー_1_0
 62
     7
100
AcDbLine
 10
84.763646
 20
111.790248
 30
0.0
 11
89.098265
 21
111.790248
 31
0.0
  0
SPLINE
  5
9D
100
AcDbEntity
  8
レイヤー_1_0
 62
     7
100
AcDbSpline
210
0.0
220
0.0
230
1.0
 70
     8
 71
     3
 72
    62
 73
    58
 74
     0
 42
0.00000001
 43
0.00000001
 40
0.0
 40
0.0
 40
0.0
 40
0.0
 40
1.0
 40
1.0
 40
1.0
 40
2.0
 40
2.0
 40
2.0
 40
3.0
 40
3.0
 40
3.0
 40
4.0
 40
4.0
 40
4.0
 40
5.0
 40
5.0
 40
5.0
 40
6.0
 40
6.0
 40
6.0
 40
7.0
 40
7.0
 40
7.0
 40
8.0
 40
8.0
 40
8.0
 40
9.0
 40
9.0
 40
9.0
 40
10.0
 40
10.0
 40
10.0
 40
11.0
 40
11.0
 40
11.0
 40
12.0
 40
12.0
 40
12.0
 40
13.0
 40
13.0
 40
13.0
 40
14.0
 40
14.0
 40
14.0
 40
15.0
 40
15.0
 40
15.0
 40
16.0
 40
16.0
 40
16.0
 40
17.0
 40
17.0
 40
17.0
 40
18.0
 40
18.0
 40
18.0
 40
19.0
 40
19.0
 40
19.0
 40
19.0
 10
127.60013563368054
 20
158.57843424479165
 30
0.0
 10
127.21773003472221
 20
158.19585639105901
 30
0.0
 10
127.21773003472221
 20
158.19585639105901
 30
0.0
 10
127.21773003472221
 20
158.19585639105901
 30
0.0
 10
127.21773003472221
 20
156.62368706597221
 30
0.0
 10
127.21773003472221
 20
156.62368706597221
 30
0.0
 10
127.21773003472221
 20
156.62368706597221
 30
0.0
 10
123.26551649305554
 20
152.67147352430555
 30
0.0
 10
123.26551649305554
 20
152.67147352430555
 30
0.0
 10
123.26551649305554
 20
152.67147352430555
 30
0.0
 10
114.25624728732637
 20
152.67147352430555
 30
0.0
 10
114.25624728732637
 20
152.67147352430555
 30
0.0
 10
114.25624728732637
 20
152.67147352430555
 30
0.0
 10
110.30403374565971
 20
156.62368706597221
 30
0.0
 10
110.30403374565971
 20
156.62368706597221
 30
0.0
 10
110.30403374565971
 20
156.62368706597221
 30
0.0
 10
110.30403374565971
 20
158.19585639105901
 30
0.0
 10
110.30403374565971
 20
158.19585639105901
 30
0.0
 10
110.30403374565971
 20
158.19585639105901
 30
0.0
 10
109.92128363715277
 20
158.57843424479165
 30
0.0
 10
109.92128363715277
 20
158.57843424479165
 30
0.0
 10
109.92128363715277
 20
158.57843424479165
 30
0.0
 10
96.1526150173611
 20
158.57843424479165
 30
0.0
 10
96.1526150173611
 20
158.57843424479165
 30
0.0
 10
96.1526150173611
 20
158.57843424479165
 30
0.0
 10
96.1526150173611
 20
158.96083984374999
 30
0.0
 10
96.1526150173611
 20
158.96083984374999
 30
0.0
 10
96.1526150173611
 20
158.96083984374999
 30
0.0
 10
96.1526150173611
 20
171.53991699218747
 30
0.0
 10
96.1526150173611
 20
171.53991699218747
 30
0.0
 10
96.1526150173611
 20
171.53991699218747
 30
0.0
 10
96.1526150173611
 20
175.44958360460069
 30
0.0
 10
93.433056640624997
 20
179.40145263671874
 30
0.0
 10
89.480843098958331
 20
180.1664360894097
 30
0.0
 10
84.381068250868054
 20
181.35654432508679
 30
0.0
 10
84.381068250868054
 20
181.35654432508679
 30
0.0
 10
84.381068250868054
 20
181.35654432508679
 30
0.0
 10
84.381068250868054
 20
182.92871365017359
 30
0.0
 10
84.381068250868054
 20
182.92871365017359
 30
0.0
 10
84.381068250868054
 20
182.92871365017359
 30
0.0
 10
153.14000651041664
 20
182.92871365017359
 30
0.0
 10
153.14000651041664
 20
182.92871365017359
 30
0.0
 10
153.14000651041664
 20
182.92871365017359
 30
0.0
 10
153.14000651041664
 20
181.35654432508679
 30
0.0
 10
153.14000651041664
 20
181.35654432508679
 30
0.0
 10
153.14000651041664
 20
181.35654432508679
 30
0.0
 10
148.04057617187499
 20
180.1664360894097
 30
0.0
 10
148.04057617187499
 20
180.1664360894097
 30
0.0
 10
148.04057617187499
 20
180.1664360894097
 30
0.0
 10
144.08836263020831
 20
179.40145263671874
 30
0.0
 10
141.36845974392361
 20
175.44958360460069
 30
0.0
 10
141.36845974392361
 20
171.53991699218747
 30
0.0
 10
141.36845974392361
 20
158.96083984374999
 30
0.0
 10
141.36845974392361
 20
158.96083984374999
 30
0.0
 10
141.36845974392361
 20
158.96083984374999
 30
0.0
 10
140.9440239800347
 20
158.57843424479165
 30
0.0
 10
140.9440239800347
 20
158.57843424479165
 30
0.0
 10
140.9440239800347
 20
158.57843424479165
 30
0.0
  0
SPLINE
  5
9C
100
AcDbEntity
  8
レイヤー_1_0
 62
     7
100
AcDbSpline
210
0.0
220
0.0
230
1.0
 70
     8
 71
     3
 72
    65
 73
    61
 74
     0
 42
0.00000001
 43
0.00000001
 40
0.0
 40
0.0
 40
0.0
 40
0.0
 40
1.0
 40
1.0
 40
1.0
 40
2.0
 40
2.0
 40
2.0
 40
3.0
 40
3.0
 40
3.0
 40
4.0
 40
4.0
 40
4.0
 40
5.0
 40
5.0
 40
5.0
 40
6.0
 40
6.0
 40
6.0
 40
7.0
 40
7.0
 40
7.0
 40
8.0
 40
8.0
 40
8.0
 40
9.0
 40
9.0
 40
9.0
 40
10.0
 40
10.0
 40
10.0
 40
11.0
 40
11.0
 40
11.0
 40
12.0
 40
12.0
 40
12.0
 40
13.0
 40
13.0
 40
13.0
 40
14.0
 40
14.0
 40
14.0
 40
15.0
 40
15.0
 40
15.0
 40
16.0
 40
16.0
 40
16.0
 40
17.0
 40
17.0
 40
17.0
 40
18.0
 40
18.0
 40
18.0
 40
19.0
 40
19.0
 40
19.0
 40
20.0
 40
20.0
 40
20.0
 40
20.0
 10
127.60013563368054
 20
158.57843424479165
 30
0.0
 10
127.21773003472221
 20
158.19585639105901
 30
0.0
 10
127.21773003472221
 20
158.19585639105901
 30
0.0
 10
127.21773003472221
 20
158.19585639105901
 30
0.0
 10
127.21773003472221
 20
156.62368706597221
 30
0.0
 10
127.21773003472221
 20
156.62368706597221
 30
0.0
 10
127.21773003472221
 20
156.62368706597221
 30
0.0
 10
123.26551649305554
 20
152.67147352430555
 30
0.0
 10
123.26551649305554
 20
152.67147352430555
 30
0.0
 10
123.26551649305554
 20
152.67147352430555
 30
0.0
 10
114.25624728732637
 20
152.67147352430555
 30
0.0
 10
114.25624728732637
 20
152.67147352430555
 30
0.0
 10
114.25624728732637
 20
152.67147352430555
 30
0.0
 10
110.30403374565971
 20
156.62368706597221
 30
0.0
 10
110.30403374565971
 20
156.62368706597221
 30
0.0
 10
110.30403374565971
 20
156.62368706597221
 30
0.0
 10
110.30403374565971
 20
158.19585639105901
 30
0.0
 10
110.30403374565971
 20
158.19585639105901
 30
0.0
 10
110.30403374565971
 20
158.19585639105901
 30
0.0
 10
109.92128363715277
 20
158.57843424479165
 30
0.0
 10
109.92128363715277
 20
158.57843424479165
 30
0.0
 10
109.92128363715277
 20
158.57843424479165
 30
0.0
 10
96.1526150173611
 20
158.57843424479165
 30
0.0
 10
96.1526150173611
 20
158.57843424479165
 30
0.0
 10
96.1526150173611
 20
158.57843424479165
 30
0.0
 10
96.1526150173611
 20
158.96083984374999
 30
0.0
 10
96.1526150173611
 20
158.96083984374999
 30
0.0
 10
96.1526150173611
 20
158.96083984374999
 30
0.0
 10
96.1526150173611
 20
171.53991699218747
 30
0.0
 10
96.1526150173611
 20
171.53991699218747
 30
0.0
 10
96.1526150173611
 20
171.53991699218747
 30
0.0
 10
96.1526150173611
 20
175.44958360460069
 30
0.0
 10
93.433056640624997
 20
179.40145263671874
 30
0.0
 10
89.480843098958331
 20
180.1664360894097
 30
0.0
 10
84.381068250868054
 20
181.35654432508679
 30
0.0
 10
84.381068250868054
 20
181.35654432508679
 30
0.0
 10
84.381068250868054
 20
181.35654432508679
 30
0.0
 10
84.381068250868054
 20
182.92871365017359
 30
0.0
 10
84.381068250868054
 20
182.92871365017359
 30
0.0
 10
84.381068250868054
 20
182.92871365017359
 30
0.0
 10
153.14000651041664
 20
182.92871365017359
 30
0.0
 10
153.14000651041664
 20
182.92871365017359
 30
0.0
 10
153.14000651041664
 20
182.92871365017359
 30
0.0
 10
153.14000651041664
 20
181.35654432508679
 30
0.0
 10
153.14000651041664
 20
181.35654432508679
 30
0.0
 10
153.14000651041664
 20
181.35654432508679
 30
0.0
 10
148.04057617187499
 20
180.1664360894097
 30
0.0
 10
148.04057617187499
 20
180.1664360894097
 30
0.0
 10
148.04057617187499
 20
180.1664360894097
 30
0.0
 10
144.08836263020831
 20
179.40145263671874
 30
0.0
 10
141.36845974392361
 20
175.44958360460069
 30
0.0
 10
141.36845974392361
 20
171.53991699218747
 30
0.0
 10
141.36845974392361
 20
158.96083984374999
 30
0.0
 10
141.36845974392361
 20
158.96083984374999
 30
0.0
 10
141.36845974392361
 20
158.96083984374999
 30
0.0
 10
140.9440239800347
 20
158.57843424479165
 30
0.0
 10
140.9440239800347
 20
158.57843424479165
 30
0.0
 10
140.9440239800347
 20
158.57843424479165
 30
0.0
 10
140.9440239800347
 20
158.57843424479165
 30
0.0
 10
127.60013563368054
 20
158.57843424479165
 30
0.0
 10
127.60013563368054
 20
158.57843424479165
 30
0.0
  0
SPLINE
  5
9B
100
AcDbEntity
  8
レイヤー_1_0
 62
     7
100
AcDbSpline
210
0.0
220
0.0
230
1.0
 70
     8
 71
     3
 72
    11
 73
     7
 74
     0
 42
0.00000001
 43
0.00000001
 40
0.0
 40
0.0
 40
0.0
 40
0.0
 40
1.0
 40
1.0
 40
1.0
 40
2.0
 40
2.0
 40
2.0
 40
2.0
 10
110.30403374565971
 20
156.62368706597221
 30
0.0
 10
111.11156412760415
 20
156.62368706597221
 30
0.0
 10
111.11156412760415
 20
156.62368706597221
 30
0.0
 10
111.11156412760415
 20
156.62368706597221
 30
0.0
 10
127.21773003472221
 20
156.62368706597221
 30
0.0
 10
127.21773003472221
 20
156.62368706597221
 30
0.0
 10
127.21773003472221
 20
156.62368706597221
 30
0.0
  0
SPLINE
  5
9A
100
AcDbEntity
  8
レイヤー_1_0
 62
     7
100
AcDbSpline
210
0.0
220
0.0
230
1.0
 70
     8
 71
     3
 72
     8
 73
     4
 74
     0
 42
0.00000001
 43
0.00000001
 40
0.0
 40
0.0
 40
0.0
 40
0.0
 40
1.0
 40
1.0
 40
1.0
 40
1.0
 10
110.30403374565971
 20
158.19585639105901
 30
0.0
 10
127.21773003472221
 20
158.19585639105901
 30
0.0
 10
127.21773003472221
 20
158.19585639105901
 30
0.0
 10
127.21773003472221
 20
158.19585639105901
 30
0.0
  0
SPLINE
  5
99
100
AcDbEntity
  8
レイヤー_1_0
 62
     7
100
AcDbSpline
210
0.0
220
0.0
230
1.0
 70
     8
 71
     3
 72
     8
 73
     4
 74
     0
 42
0.00000001
 43
0.00000001
 40
0.0
 40
0.0
 40
0.0
 40
0.0
 40
1.0
 40
1.0
 40
1.0
 40
1.0
 10
98.914892578124991
 20
158.96083984374999
 30
0.0
 10
141.36845974392361
 20
158.96083984374999
 30
0.0
 10
141.36845974392361
 20
158.96083984374999
 30
0.0
 10
141.36845974392361
 20
158.96083984374999
 30
0.0
  0
SPLINE
  5
98
100
AcDbEntity
  8
レイヤー_1_0
 62
     7
100
AcDbSpline
210
0.0
220
0.0
230
1.0
 70
     8
 71
     3
 72
     8
 73
     4
 74
     0
 42
0.00000001
 43
0.00000001
 40
0.0
 40
0.0
 40
0.0
 40
0.0
 40
1.0
 40
1.0
 40
1.0
 40
1.0
 10
96.1526150173611
 20
158.96083984374999
 30
0.0
 10
98.914892578124991
 20
158.96083984374999
 30
0.0
 10
98.914892578124991
 20
158.96083984374999
 30
0.0
 10
98.914892578124991
 20
158.96083984374999
 30
0.0
  0
SPLINE
  5
97
100
AcDbEntity
  8
レイヤー_1_0
 62
     7
100
AcDbSpline
210
0.0
220
0.0
230
1.0
 70
     8
 71
     3
 72
     8
 73
     4
 74
     0
 42
0.00000001
 43
0.00000001
 40
0.0
 40
0.0
 40
0.0
 40
0.0
 40
1.0
 40
1.0
 40
1.0
 40
1.0
 10
88.290734863281244
 20
181.35654432508679
 30
0.0
 10
153.14000651041664
 20
181.35654432508679
 30
0.0
 10
153.14000651041664
 20
181.35654432508679
 30
0.0
 10
153.14000651041664
 20
181.35654432508679
 30
0.0
  0
SPLINE
  5
96
100
AcDbEntity
  8
レイヤー_1_0
 62
     7
100
AcDbSpline
210
0.0
220
0.0
230
1.0
 70
     8
 71
     3
 72
     8
 73
     4
 74
     0
 42
0.00000001
 43
0.00000001
 40
0.0
 40
0.0
 40
0.0
 40
0.0
 40
1.0
 40
1.0
 40
1.0
 40
1.0
 10
84.381068250868054
 20
181.35654432508679
 30
0.0
 10
88.290734863281244
 20
181.35654432508679
 30
0.0
 10
88.290734863281244
 20
181.35654432508679
 30
0.0
 10
88.290734863281244
 20
181.35654432508679
 30
0.0
  0
SPLINE
  5
95
100
AcDbEntity
  8
レイヤー_1_0
 62
     7
100
AcDbSpline
210
0.0
220
0.0
230
1.0
 70
     8
 71
     3
 72
    41
 73
    37
 74
     0
 42
0.00000001
 43
0.00000001
 40
0.0
 40
0.0
 40
0.0
 40
0.0
 40
1.0
 40
1.0
 40
1.0
 40
2.0
 40
2.0
 40
2.0
 40
3.0
 40
3.0
 40
3.0
 40
4.0
 40
4.0
 40
4.0
 40
5.0
 40
5.0
 40
5.0
 40
6.0
 40
6.0
 40
6.0
 40
7.0
 40
7.0
 40
7.0
 40
8.0
 40
8.0
 40
8.0
 40
9.0
 40
9.0
 40
9.0
 40
10.0
 40
10.0
 40
10.0
 40
11.0
 40
11.0
 40
11.0
 40
12.0
 40
12.0
 40
12.0
 40
12.0
 10
140.9440239800347
 20
158.57843424479165
 30
0.0
 10
141.36845974392361
 20
158.96083984374999
 30
0.0
 10
141.36845974392361
 20
158.96083984374999
 30
0.0
 10
141.36845974392361
 20
158.96083984374999
 30
0.0
 10
141.36845974392361
 20
171.53991699218747
 30
0.0
 10
141.36845974392361
 20
171.53991699218747
 30
0.0
 10
141.36845974392361
 20
171.53991699218747
 30
0.0
 10
141.36845974392361
 20
175.44958360460069
 30
0.0
 10
144.08836263020831
 20
179.40145263671874
 30
0.0
 10
148.04057617187499
 20
180.1664360894097
 30
0.0
 10
153.14000651041664
 20
181.35654432508679
 30
0.0
 10
153.14000651041664
 20
181.35654432508679
 30
0.0
 10
153.14000651041664
 20
181.35654432508679
 30
0.0
 10
153.14000651041664
 20
182.92871365017359
 30
0.0
 10
153.14000651041664
 20
182.92871365017359
 30
0.0
 10
153.14000651041664
 20
182.92871365017359
 30
0.0
 10
84.381068250868054
 20
182.92871365017359
 30
0.0
 10
84.381068250868054
 20
182.92871365017359
 30
0.0
 10
84.381068250868054
 20
182.92871365017359
 30
0.0
 10
84.381068250868054
 20
181.35654432508679
 30
0.0
 10
84.381068250868054
 20
181.35654432508679
 30
0.0
 10
84.381068250868054
 20
181.35654432508679
 30
0.0
 10
89.480843098958331
 20
180.1664360894097
 30
0.0
 10
89.480843098958331
 20
180.1664360894097
 30
0.0
 10
89.480843098958331
 20
180.1664360894097
 30
0.0
 10
93.433056640624997
 20
179.40145263671874
 30
0.0
 10
96.1526150173611
 20
175.44958360460069
 30
0.0
 10
96.1526150173611
 20
171.53991699218747
 30
0.0
 10
96.1526150173611
 20
158.96083984374999
 30
0.0
 10
96.1526150173611
 20
158.96083984374999
 30
0.0
 10
96.1526150173611
 20
158.96083984374999
 30
0.0
 10
96.1526150173611
 20
158.57843424479165
 30
0.0
 10
96.1526150173611
 20
158.57843424479165
 30
0.0
 10
96.1526150173611
 20
158.57843424479165
 30
0.0
 10
96.1526150173611
 20
158.57843424479165
 30
0.0
 10
140.9440239800347
 20
158.57843424479165
 30
0.0
 10
140.9440239800347
 20
158.57843424479165
 30
0.0
  0
HATCH
  5
94
100
AcDbEntity
  8
レイヤー_1_0
 62
     7
100
AcDbHatch
 10
0.0
 20
0.0
 30
0.0
210
0.0
220
0.0
230
1.0
  2
SOLID
 70
     1
 71
     0
 91
        1
 92
        3
 72
     0
 73
     1
 93
        3
 10
164.91189778645833
 20
239.5336995442708
 10
153.52275661892361
 20
245.01587999131942
 10
164.91189778645833
 20
250.92266845703122
 97
        0
 75
     0
 76
     1
 98
        1
 10
0.0
 20
0.0
  0
HATCH
  5
93
100
AcDbEntity
  8
レイヤー_1_0
 62
     7
100
AcDbHatch
 10
0.0
 20
0.0
 30
0.0
210
0.0
220
0.0
230
1.0
  2
SOLID
 70
     1
 71
     0
 91
        1
 92
        3
 72
     0
 73
     1
 93
        3
 10
71.419757758246519
 20
250.92266845703122
 10
82.808898925781236
 20
245.01587999131942
 10
71.419757758246519
 20
239.5336995442708
 97
        0
 75
     0
 76
     1
 98
        1
 10
0.0
 20
0.0
  0
HATCH
  5
92
100
AcDbEntity
  8
レイヤー_1_0
 62
     7
100
AcDbHatch
 10
0.0
 20
0.0
 30
0.0
210
0.0
220
0.0
230
1.0
  2
SOLID
 70
     1
 71
     0
 91
        1
 92
        3
 72
     0
 73
     1
 93
        3
 10
129.17247721354167
 20
56.799633789062497
 10
140.9440239800347
 20
50.892673068576386
 10
129.17247721354167
 20
45.410492621527773
 97
        0
 75
     0
 76
     1
 98
        1
 10
0.0
 20
0.0
  0
LINE
  5
91
100
AcDbEntity
  8
レイヤー_1_0
 62
     7
100
AcDbLine
 10
140.561274
 20
45.410493
 30
0.0
 11
140.561274
 21
77.623169
 31
0.0
  0
HATCH
  5
90
100
AcDbEntity
  8
レイヤー_1_0
 62
     7
100
AcDbHatch
 10
0.0
 20
0.0
 30
0.0
210
0.0
220
0.0
230
1.0
  2
SOLID
 70
     1
 71
     0
 91
        1
 92
        3
 72
     0
 73
     1
 93
        3
 10
107.15935058593749
 20
45.410492621527773
 10
95.38763156467013
 20
50.892673068576386
 10
107.15935058593749
 20
56.799633789062497
 97
        0
 75
     0
 76
     1
 98
        1
 10
0.0
 20
0.0
  0
INSERT
  5
8A
100
AcDbEntity
  8
レイヤー_1_0
 62
     7
100
AcDbBlockReference
  2
AI9-BLK7
 10
149.995409
 20
114.169689
 30
0.0
  0
INSERT
  5
85
100
AcDbEntity
  8
レイヤー_1_0
 62
     7
100
AcDbBlockReference
  2
AI9-BLK6
 10
198.526211
 20
177.234315
 30
0.0
  0
LINE
  5
83
100
AcDbEntity
  8
レイヤー_1_0
 62
     7
100
AcDbLine
 10
198.738601
 20
119.651956
 30
0.0
 11
198.738601
 21
174.302195
 31
0.0
  0
INSERT
  5
7F
100
AcDbEntity
  8
レイヤー_1_0
 62
     7
100
AcDbBlockReference
  2
AI9-BLK5
 10
198.717414
 20
89.224356
 30
0.0
  0
INSERT
  5
7A
100
AcDbEntity
  8
レイヤー_1_0
 62
     7
100
AcDbBlockReference
  2
AI9-BLK4
 10
180.656673
 20
118.8868
 30
0.0
  0
INSERT
  5
75
100
AcDbEntity
  8
レイヤー_1_0
 62
     7
100
AcDbBlockReference
  2
AI9-BLK3
 10
198.717414
 20
113.19223
 30
0.0
  0
INSERT
  5
6D
100
AcDbEntity
  8
レイヤー_1_0
 62
     7
100
AcDbBlockReference
  2
AI9-BLK2
 10
132.699394
 20
164.272919
 30
0.0
  0
INSERT
  5
68
100
AcDbEntity
  8
レイヤー_1_0
 62
     7
100
AcDbBlockReference
  2
AI9-BLK1
 10
198.526211
 20
124.963776
 30
0.0
  0
LINE
  5
66
100
AcDbEntity
  8
レイヤー_1_0
 62
     7
100
AcDbLine
 10
39.207598
 20
182.928714
 30
0.0
 11
81.236385
 21
182.928714
 31
0.0
  0
HATCH
  5
65
100
AcDbEntity
  8
レイヤー_1_0
 62
     7
100
AcDbHatch
 10
0.0
 20
0.0
 30
0.0
210
0.0
220
0.0
230
1.0
  2
SOLID
 70
     1
 71
     0
 91
        1
 92
        3
 72
     0
 73
     1
 93
        3
 10
39.207598198784716
 20
171.15751139322916
 10
45.072011990017359
 20
182.54613579644095
 10
50.979317220052081
 20
171.15751139322916
 97
        0
 75
     0
 76
     1
 98
        1
 10
0.0
 20
0.0
  0
LINE
  5
64
100
AcDbEntity
  8
レイヤー_1_0
 62
     7
100
AcDbLine
 10
45.497137
 20
174.302195
 30
0.0
 11
45.497137
 21
160.533354
 31
0.0
  0
LINE
  5
63
100
AcDbEntity
  8
レイヤー_1_0
 62
     7
100
AcDbLine
 10
39.207598
 20
201.414579
 30
0.0
 11
81.618963
 21
201.414579
 31
0.0
  0
HATCH
  5
62
100
AcDbEntity
  8
レイヤー_1_0
 62
     7
100
AcDbHatch
 10
0.0
 20
0.0
 30
0.0
210
0.0
220
0.0
230
1.0
  2
SOLID
 70
     1
 71
     0
 91
        1
 92
        3
 72
     0
 73
     1
 93
        3
 10
50.979317220052081
 20
213.18612603081596
 10
45.072011990017359
 20
201.79715711805554
 10
39.207598198784716
 20
213.18612603081596
 97
        0
 75
     0
 76
     1
 98
        1
 10
0.0
 20
0.0
  0
LINE
  5
61
100
AcDbEntity
  8
レイヤー_1_0
 62
     7
100
AcDbLine
 10
45.497137
 20
210.041443
 30
0.0
 11
45.497137
 21
223.810284
 31
0.0
  0
LINE
  5
60
100
AcDbEntity
  8
レイヤー_1_0
 62
     7
100
AcDbLine
 10
83.616429
 20
250.922668
 30
0.0
 11
83.616429
 21
208.468929
 31
0.0
  0
LINE
  5
5F
100
AcDbEntity
  8
レイヤー_1_0
 62
     7
100
AcDbLine
 10
153.947881
 20
250.922668
 30
0.0
 11
153.947881
 21
208.468929
 31
0.0
  0
LINE
  5
5E
100
AcDbEntity
  8
レイヤー_1_0
 62
     7
100
AcDbLine
 10
115.021058
 20
151.09896
 30
0.0
 11
121.693175
 21
151.09896
 31
0.0
  0
LINE
  5
5D
100
AcDbEntity
  8
レイヤー_1_0
 62
     7
100
AcDbLine
 10
115.021058
 20
147.954277
 30
0.0
 11
121.693175
 21
147.954277
 31
0.0
  0
LINE
  5
5C
100
AcDbEntity
  8
レイヤー_1_0
 62
     7
100
AcDbLine
 10
115.021058
 20
144.809766
 30
0.0
 11
121.693175
 21
144.809766
 31
0.0
  0
LINE
  5
5B
100
AcDbEntity
  8
レイヤー_1_0
 62
     7
100
AcDbLine
 10
115.021058
 20
141.282332
 30
0.0
 11
121.693175
 21
141.282332
 31
0.0
  0
LINE
  5
5A
100
AcDbEntity
  8
レイヤー_1_0
 62
     7
100
AcDbLine
 10
115.021058
 20
138.137305
 30
0.0
 11
121.693175
 21
138.137305
 31
0.0
  0
LINE
  5
59
100
AcDbEntity
  8
レイヤー_1_0
 62
     7
100
AcDbLine
 10
115.021058
 20
134.992966
 30
0.0
 11
121.693175
 21
134.992966
 31
0.0
  0
LINE
  5
58
100
AcDbEntity
  8
レイヤー_1_0
 62
     7
100
AcDbLine
 10
115.021058
 20
131.847938
 30
0.0
 11
121.693175
 21
131.847938
 31
0.0
  0
LINE
  5
57
100
AcDbEntity
  8
レイヤー_1_0
 62
     7
100
AcDbLine
 10
115.021058
 20
128.7036
 30
0.0
 11
121.693175
 21
128.7036
 31
0.0
  0
LINE
  5
56
100
AcDbEntity
  8
レイヤー_1_0
 62
     7
100
AcDbLine
 10
115.021058
 20
125.558572
 30
0.0
 11
121.693175
 21
125.558572
 31
0.0
  0
LINE
  5
55
100
AcDbEntity
  8
レイヤー_1_0
 62
     7
100
AcDbLine
 10
115.021058
 20
122.031828
 30
0.0
 11
121.693175
 21
122.031828
 31
0.0
  0
LINE
  5
54
100
AcDbEntity
  8
レイヤー_1_0
 62
     7
100
AcDbLine
 10
115.021058
 20
118.8868
 30
0.0
 11
121.693175
 21
118.8868
 31
0.0
  0
LINE
  5
53
100
AcDbEntity
  8
レイヤー_1_0
 62
     7
100
AcDbLine
 10
115.021058
 20
112.597434
 30
0.0
 11
121.693175
 21
112.597434
 31
0.0
  0
LINE
  5
52
100
AcDbEntity
  8
レイヤー_1_0
 62
     7
100
AcDbLine
 10
96.152615
 20
83.529785
 30
0.0
 11
141.36846
 21
86.249688
 31
0.0
  0
LINE
  5
51
100
AcDbEntity
  8
レイヤー_1_0
 62
     7
100
AcDbLine
 10
96.152615
 20
85.484532
 30
0.0
 11
141.36846
 21
87.821685
 31
0.0
  0
LINE
  5
50
100
AcDbEntity
  8
レイヤー_1_0
 62
     7
100
AcDbLine
 10
96.152615
 20
87.439969
 30
0.0
 11
141.36846
 21
89.819151
 31
0.0
  0
LINE
  5
4F
100
AcDbEntity
  8
レイヤー_1_0
 62
     7
100
AcDbLine
 10
96.152615
 20
89.394716
 30
0.0
 11
141.36846
 21
91.773899
 31
0.0
  0
LINE
  5
4E
100
AcDbEntity
  8
レイヤー_1_0
 62
     7
100
AcDbLine
 10
96.152615
 20
91.391493
 30
0.0
 11
141.36846
 21
93.729335
 31
0.0
  0
LINE
  5
4D
100
AcDbEntity
  8
レイヤー_1_0
 62
     7
100
AcDbLine
 10
96.152615
 20
92.964179
 30
0.0
 11
104.43962
 21
93.729335
 31
0.0
  0
LINE
  5
4C
100
AcDbEntity
  8
レイヤー_1_0
 62
     7
100
AcDbLine
 10
129.979663
 20
83.529785
 30
0.0
 11
141.36846
 21
84.294941
 31
0.0
  0
POLYLINE
  5
45
100
AcDbEntity
  8
レイヤー_1_0
 62
     7
100
AcDb2dPolyline
 66
     1
 10
0.0
 20
0.0
 30
0.0
  0
VERTEX
  5
46
100
AcDbEntity
  8
レイヤー_1_0
 62
     7
100
AcDbVertex
100
AcDb2dVertex
 10
153.140007
 20
174.6846
 30
0.0
  0
VERTEX
  5
47
100
AcDbEntity
  8
レイヤー_1_0
 62
     7
100
AcDbVertex
100
AcDb2dVertex
 10
142.516021
 20
167.205298
 30
0.0
  0
VERTEX
  5
48
100
AcDbEntity
  8
レイヤー_1_0
 62
     7
100
AcDbVertex
100
AcDb2dVertex
 10
94.19804
 20
167.205298
 30
0.0
  0
VERTEX
  5
49
100
AcDbEntity
  8
レイヤー_1_0
 62
     7
100
AcDbVertex
100
AcDb2dVertex
 10
83.191477
 20
174.6846
 30
0.0
  0
VERTEX
  5
4A
100
AcDbEntity
  8
レイヤー_1_0
 62
     7
100
AcDbVertex
100
AcDb2dVertex
 10
153.140007
 20
174.6846
 30
0.0
  0
SEQEND
  5
4B
100
AcDbEntity
  8
レイヤー_1_0
 62
     7
  0
POLYLINE
  5
3F
100
AcDbEntity
  8
レイヤー_1_0
 62
     7
100
AcDb2dPolyline
 66
     1
 10
0.0
 20
0.0
 30
0.0
 70
     1
  0
VERTEX
  5
40
100
AcDbEntity
  8
レイヤー_1_0
 62
     7
100
AcDbVertex
100
AcDb2dVertex
 10
153.140007
 20
174.6846
 30
0.0
  0
VERTEX
  5
41
100
AcDbEntity
  8
レイヤー_1_0
 62
     7
100
AcDbVertex
100
AcDb2dVertex
 10
142.516021
 20
167.205298
 30
0.0
  0
VERTEX
  5
42
100
AcDbEntity
  8
レイヤー_1_0
 62
     7
100
AcDbVertex
100
AcDb2dVertex
 10
94.19804
 20
167.205298
 30
0.0
  0
VERTEX
  5
43
100
AcDbEntity
  8
レイヤー_1_0
 62
     7
100
AcDbVertex
100
AcDb2dVertex
 10
83.191477
 20
174.6846
 30
0.0
  0
SEQEND
  5
44
100
AcDbEntity
  8
レイヤー_1_0
 62
     7
  0
HATCH
  5
3E
100
AcDbEntity
  8
レイヤー_1_0
 62
     7
100
AcDbHatch
 10
0.0
 20
0.0
 30
0.0
210
0.0
220
0.0
230
1.0
  2
SOLID
 70
     1
 71
     0
 91
        1
 92
        3
 72
     0
 73
     1
 93
        6
 10
38.782645670572911
 20
106.69047309027776
 10
37.210476345486107
 20
106.69047309027776
 10
37.210476345486107
 20
117.31480305989582
 10
51.78684760199652
 20
107.4976589626736
 10
50.979317220052081
 20
106.30806749131943
 10
38.782645670572911
 20
114.55218098958332
 97
        0
 75
     0
 76
     1
 98
        1
 10
0.0
 20
0.0
  0
HATCH
  5
3D
100
AcDbEntity
  8
レイヤー_1_0
 62
     7
100
AcDbHatch
 10
0.0
 20
0.0
 30
0.0
210
0.0
220
0.0
230
1.0
  2
SOLID
 70
     1
 71
     0
 91
        1
 92
        3
 72
     0
 73
     1
 93
        4
 10
46.262120225694439
 20
127.13091362847221
 10
47.834461805555549
 20
127.13091362847221
 10
47.834461805555549
 20
123.22141927083332
 10
46.262120225694439
 20
123.22141927083332
 97
        0
 75
     0
 76
     1
 98
        1
 10
0.0
 20
0.0
  0
HATCH
  5
3C
100
AcDbEntity
  8
レイヤー_1_0
 62
     7
100
AcDbHatch
 10
0.0
 20
0.0
 30
0.0
210
0.0
220
0.0
230
1.0
  2
SOLID
 70
     1
 71
     0
 91
        1
 92
        3
 72
     0
 73
     1
 93
        6
 10
38.782645670572911
 20
135.80015190972222
 10
37.210476345486107
 20
136.5653076171875
 10
37.210476345486107
 20
139.71033528645833
 10
51.78684760199652
 20
139.71033528645833
 10
51.78684760199652
 20
138.13730468749998
 10
38.782645670572911
 20
138.13730468749998
 97
        0
 75
     0
 76
     1
 98
        1
 10
0.0
 20
0.0
  0
HATCH
  5
3B
100
AcDbEntity
  8
レイヤー_1_0
 62
     7
100
AcDbHatch
 10
0.0
 20
0.0
 30
0.0
210
0.0
220
0.0
230
1.0
  2
SOLID
 70
     1
 71
     0
 91
        1
 92
        3
 72
     0
 73
     1
 93
        6
 10
38.782645670572911
 20
145.61729600694443
 10
37.210476345486107
 20
145.61729600694443
 10
37.210476345486107
 20
155.81615668402776
 10
51.78684760199652
 20
146.38210720486109
 10
50.979317220052081
 20
145.19217122395833
 10
38.782645670572911
 20
153.05405137803817
 97
        0
 75
     0
 76
     1
 98
        1
 10
0.0
 20
0.0
  0
HATCH
  5
3A
100
AcDbEntity
  8
レイヤー_1_0
 62
     7
100
AcDbHatch
 10
0.0
 20
0.0
 30
0.0
210
0.0
220
0.0
230
1.0
  2
SOLID
 70
     1
 71
     0
 91
        3
 92
       16
 93
        1
 72
     4
 94
        3
 73
     0
 74
     0
 95
       77
 96
       73
 40
0.0
 40
0.0
 40
0.0
 40
0.0
 40
1.0
 40
1.0
 40
1.0
 40
2.0
 40
2.0
 40
2.0
 40
3.0
 40
3.0
 40
3.0
 40
4.0
 40
4.0
 40
4.0
 40
5.0
 40
5.0
 40
5.0
 40
6.0
 40
6.0
 40
6.0
 40
7.0
 40
7.0
 40
7.0
 40
8.0
 40
8.0
 40
8.0
 40
9.0
 40
9.0
 40
9.0
 40
10.0
 40
10.0
 40
10.0
 40
11.0
 40
11.0
 40
11.0
 40
12.0
 40
12.0
 40
12.0
 40
13.0
 40
13.0
 40
13.0
 40
14.0
 40
14.0
 40
14.0
 40
15.0
 40
15.0
 40
15.0
 40
16.0
 40
16.0
 40
16.0
 40
17.0
 40
17.0
 40
17.0
 40
18.0
 40
18.0
 40
18.0
 40
19.0
 40
19.0
 40
19.0
 40
20.0
 40
20.0
 40
20.0
 40
21.0
 40
21.0
 40
21.0
 40
22.0
 40
22.0
 40
22.0
 40
23.0
 40
23.0
 40
23.0
 40
24.0
 40
24.0
 40
24.0
 40
24.0
 10
95.38763156467013
 20
236.77142198350691
 10
96.1526150173611
 20
235.96423611111109
 10
96.1526150173611
 20
235.96423611111109
 10
96.1526150173611
 20
235.96423611111109
 10
97.725128851996516
 20
237.5364054361979
 10
97.725128851996516
 20
237.5364054361979
 10
97.725128851996516
 20
237.5364054361979
 10
97.725128851996516
 20
237.5364054361979
 10
98.150253634982633
 20
237.15399983723955
 10
98.150253634982633
 20
237.15399983723955
 10
98.150253634982633
 20
237.15399983723955
 10
98.150253634982633
 20
237.15399983723955
 10
98.532659233940961
 20
237.15399983723955
 10
98.914892578124991
 20
236.77142198350691
 10
99.722422960069437
 20
236.38936089409719
 10
100.48740641276041
 20
235.96423611111109
 10
100.86998426649305
 20
235.96423611111109
 10
101.67751464843749
 20
235.96423611111109
 10
102.44198133680554
 20
235.96423611111109
 10
103.63208957248263
 20
235.96423611111109
 10
104.82219780815971
 20
235.96423611111109
 10
106.01178927951388
 20
236.77142198350691
 10
107.15935058593749
 20
237.5364054361979
 10
107.96688096788193
 20
238.34393581814234
 10
108.73169216579861
 20
239.5336995442708
 10
109.15681694878471
 20
240.29868299696179
 10
109.53887803819444
 20
241.48861897786455
 10
109.53887803819444
 20
243.06113281249998
 10
109.53887803819444
 20
243.82628851996526
 10
109.53887803819444
 20
244.63347439236108
 10
109.15681694878471
 20
245.39828559027777
 10
109.15681694878471
 20
246.20581597222221
 10
108.34928656684026
 20
246.97045491536457
 10
107.96688096788193
 20
247.77798529730902
 10
109.53887803819444
 20
249.35049913194442
 10
109.53887803819444
 20
249.35049913194442
 10
109.53887803819444
 20
249.35049913194442
 10
108.73169216579861
 20
250.1154825846354
 10
108.73169216579861
 20
250.1154825846354
 10
108.73169216579861
 20
250.1154825846354
 10
107.15935058593749
 20
248.54296874999997
 10
107.15935058593749
 20
248.54296874999997
 10
107.15935058593749
 20
248.54296874999997
 10
106.77660047743055
 20
248.54296874999997
 10
106.77660047743055
 20
248.54296874999997
 10
106.77660047743055
 20
248.96809353298607
 10
106.39419487847221
 20
248.96809353298607
 10
106.39419487847221
 20
248.96809353298607
 10
106.39419487847221
 20
248.96809353298607
 10
105.58700900607639
 20
249.35049913194442
 10
105.20460340711804
 20
249.73307698567706
 10
104.43961995442707
 20
249.73307698567706
 10
104.01449517144096
 20
250.1154825846354
 10
103.24951171874999
 20
250.1154825846354
 10
102.44198133680554
 20
250.1154825846354
 10
101.29493679470485
 20
250.1154825846354
 10
100.10482855902777
 20
249.73307698567706
 10
98.914892578124991
 20
248.96809353298607
 10
97.725128851996516
 20
248.54296874999997
 10
96.960145399305546
 20
247.77798529730902
 10
96.1526150173611
 20
246.58839382595485
 10
95.770209418402771
 20
245.39828559027777
 10
95.38763156467013
 20
244.25089653862844
 10
95.38763156467013
 20
243.06113281249998
 10
95.38763156467013
 20
242.25360243055553
 10
95.38763156467013
 20
241.48861897786455
 10
95.770209418402771
 20
240.68108859592013
 10
95.770209418402771
 20
239.91610514322915
 10
96.1526150173611
 20
239.10891927083333
 10
96.960145399305546
 20
238.34393581814234
 10
96.960145399305546
 20
238.34393581814234
 10
95.38763156467013
 20
236.77142198350691
 10
95.38763156467013
 20
236.77142198350691
 97
        0
 92
        1
 93
        1
 72
     4
 94
        3
 73
     0
 74
     0
 95
       29
 96
       25
 40
0.0
 40
0.0
 40
0.0
 40
0.0
 40
1.0
 40
1.0
 40
1.0
 40
2.0
 40
2.0
 40
2.0
 40
3.0
 40
3.0
 40
3.0
 40
4.0
 40
4.0
 40
4.0
 40
5.0
 40
5.0
 40
5.0
 40
6.0
 40
6.0
 40
6.0
 40
7.0
 40
7.0
 40
7.0
 40
8.0
 40
8.0
 40
8.0
 40
8.0
 10
97.725128851996516
 20
239.5336995442708
 10
97.342723253038187
 20
240.29868299696179
 10
97.342723253038187
 20
240.68108859592013
 10
96.960145399305546
 20
241.10621337890623
 10
96.960145399305546
 20
241.87119683159719
 10
96.960145399305546
 20
242.25360243055553
 10
96.960145399305546
 20
243.06113281249998
 10
96.960145399305546
 20
243.82628851996526
 10
96.960145399305546
 20
245.01587999131942
 10
97.725128851996516
 20
245.82341037326387
 10
98.150253634982633
 20
246.58839382595485
 10
98.914892578124991
 20
247.39557969835067
 10
99.722422960069437
 20
247.77798529730902
 10
100.48740641276041
 20
248.54296874999997
 10
101.29493679470485
 20
248.54296874999997
 10
102.44198133680554
 20
248.54296874999997
 10
103.24951171874999
 20
248.54296874999997
 10
103.63208957248263
 20
248.54296874999997
 10
104.43961995442707
 20
248.54296874999997
 10
104.82219780815971
 20
248.16056315104166
 10
105.20460340711804
 20
247.77798529730902
 10
106.01178927951388
 20
247.39557969835067
 10
106.01178927951388
 20
247.39557969835067
 10
97.725128851996516
 20
239.5336995442708
 10
97.725128851996516
 20
239.5336995442708
 97
        0
 92
        1
 93
        1
 72
     4
 94
        3
 73
     0
 74
     0
 95
       29
 96
       25
 40
0.0
 40
0.0
 40
0.0
 40
0.0
 40
1.0
 40
1.0
 40
1.0
 40
2.0
 40
2.0
 40
2.0
 40
3.0
 40
3.0
 40
3.0
 40
4.0
 40
4.0
 40
4.0
 40
5.0
 40
5.0
 40
5.0
 40
6.0
 40
6.0
 40
6.0
 40
7.0
 40
7.0
 40
7.0
 40
8.0
 40
8.0
 40
8.0
 40
8.0
 10
106.77660047743055
 20
246.58839382595485
 10
107.15935058593749
 20
245.82341037326387
 10
107.58413085937499
 20
245.39828559027777
 10
107.96688096788193
 20
244.63347439236108
 10
107.96688096788193
 20
244.25089653862844
 10
107.96688096788193
 20
243.44371066623262
 10
107.96688096788193
 20
243.06113281249998
 10
107.96688096788193
 20
241.87119683159719
 10
107.96688096788193
 20
241.10621337890623
 10
107.15935058593749
 20
239.91610514322915
 10
106.77660047743055
 20
239.10891927083333
 10
106.01178927951388
 20
238.34393581814234
 10
105.20460340711804
 20
237.961530219184
 10
104.43961995442707
 20
237.5364054361979
 10
103.63208957248263
 20
237.15399983723955
 10
102.44198133680554
 20
237.15399983723955
 10
101.67751464843749
 20
237.15399983723955
 10
101.29493679470485
 20
237.5364054361979
 10
100.48740641276041
 20
237.5364054361979
 10
99.722422960069437
 20
237.961530219184
 10
99.29729817708332
 20
238.34393581814234
 10
98.914892578124991
 20
238.72651367187498
 10
98.914892578124991
 20
238.72651367187498
 10
106.77660047743055
 20
246.58839382595485
 10
106.77660047743055
 20
246.58839382595485
 97
        0
 75
     0
 76
     1
 98
        1
 10
0.0
 20
0.0
  0
HATCH
  5
39
100
AcDbEntity
  8
レイヤー_1_0
 62
     7
100
AcDbHatch
 10
0.0
 20
0.0
 30
0.0
210
0.0
220
0.0
230
1.0
  2
SOLID
 70
     1
 71
     0
 91
        2
 92
       16
 93
        1
 72
     4
 94
        3
 73
     0
 74
     0
 95
       47
 96
       43
 40
0.0
 40
0.0
 40
0.0
 40
0.0
 40
1.0
 40
1.0
 40
1.0
 40
2.0
 40
2.0
 40
2.0
 40
3.0
 40
3.0
 40
3.0
 40
4.0
 40
4.0
 40
4.0
 40
5.0
 40
5.0
 40
5.0
 40
6.0
 40
6.0
 40
6.0
 40
7.0
 40
7.0
 40
7.0
 40
8.0
 40
8.0
 40
8.0
 40
9.0
 40
9.0
 40
9.0
 40
10.0
 40
10.0
 40
10.0
 40
11.0
 40
11.0
 40
11.0
 40
12.0
 40
12.0
 40
12.0
 40
13.0
 40
13.0
 40
13.0
 40
14.0
 40
14.0
 40
14.0
 40
14.0
 10
122.88311089409721
 20
250.1154825846354
 10
118.16574164496527
 20
243.82628851996526
 10
118.16574164496527
 20
243.82628851996526
 10
118.16574164496527
 20
243.82628851996526
 10
117.78333604600694
 20
243.06113281249998
 10
117.40093044704859
 20
242.67872721354163
 10
117.40093044704859
 20
242.25360243055553
 10
116.9761501736111
 20
241.48861897786455
 10
116.9761501736111
 20
241.10621337890623
 10
116.9761501736111
 20
240.29868299696179
 10
116.9761501736111
 20
239.5336995442708
 10
116.9761501736111
 20
238.72651367187498
 10
117.78333604600694
 20
237.961530219184
 10
118.16574164496527
 20
237.5364054361979
 10
118.54814724392359
 20
236.77142198350691
 10
119.35533311631943
 20
236.38936089409719
 10
120.12048882378471
 20
235.96423611111109
 10
120.92836371527777
 20
235.96423611111109
 10
121.69317491319444
 20
235.96423611111109
 10
122.88311089409721
 20
235.96423611111109
 10
124.07270236545138
 20
236.38936089409719
 10
125.26298285590276
 20
237.15399983723955
 10
126.02744954427082
 20
237.961530219184
 10
126.40985514322915
 20
239.10891927083333
 10
126.40985514322915
 20
240.68108859592013
 10
126.40985514322915
 20
241.87119683159719
 10
126.02744954427082
 20
243.06113281249998
 10
125.26298285590276
 20
243.82628851996526
 10
124.45510796440971
 20
244.63347439236108
 10
123.26551649305554
 20
245.01587999131942
 10
122.11795518663193
 20
245.01587999131942
 10
121.69317491319444
 20
245.01587999131942
 10
121.69317491319444
 20
245.01587999131942
 10
121.3107693142361
 20
245.01587999131942
 10
121.3107693142361
 20
245.01587999131942
 10
120.92836371527777
 20
245.01587999131942
 10
120.92836371527777
 20
245.01587999131942
 10
124.07270236545138
 20
249.35049913194442
 10
124.07270236545138
 20
249.35049913194442
 10
124.07270236545138
 20
249.35049913194442
 10
124.07270236545138
 20
249.35049913194442
 10
122.88311089409721
 20
250.1154825846354
 10
122.88311089409721
 20
250.1154825846354
 97
        0
 92
        1
 93
        1
 72
     4
 94
        3
 73
     0
 74
     0
 95
       29
 96
       25
 40
0.0
 40
0.0
 40
0.0
 40
0.0
 40
1.0
 40
1.0
 40
1.0
 40
2.0
 40
2.0
 40
2.0
 40
3.0
 40
3.0
 40
3.0
 40
4.0
 40
4.0
 40
4.0
 40
5.0
 40
5.0
 40
5.0
 40
6.0
 40
6.0
 40
6.0
 40
7.0
 40
7.0
 40
7.0
 40
8.0
 40
8.0
 40
8.0
 40
8.0
 10
121.69317491319444
 20
243.82628851996526
 10
122.50036078559026
 20
243.82628851996526
 10
123.26551649305554
 20
243.44371066623262
 10
124.07270236545138
 20
242.67872721354163
 10
124.45510796440971
 20
242.25360243055553
 10
124.83751356336805
 20
241.48861897786455
 10
124.83751356336805
 20
240.29868299696179
 10
124.83751356336805
 20
239.5336995442708
 10
124.45510796440971
 20
238.72651367187498
 10
124.07270236545138
 20
238.34393581814234
 10
123.26551649305554
 20
237.5364054361979
 10
122.50036078559026
 20
237.15399983723955
 10
121.69317491319444
 20
237.15399983723955
 10
120.92836371527777
 20
237.15399983723955
 10
120.12048882378471
 20
237.5364054361979
 10
119.35533311631943
 20
238.34393581814234
 10
118.9729275173611
 20
238.72651367187498
 10
118.54814724392359
 20
239.5336995442708
 10
118.54814724392359
 20
240.68108859592013
 10
118.54814724392359
 20
241.48861897786455
 10
118.9729275173611
 20
242.25360243055553
 10
119.35533311631943
 20
242.67872721354163
 10
120.12048882378471
 20
243.44371066623262
 10
120.92836371527777
 20
243.82628851996526
 10
121.69317491319444
 20
243.82628851996526
 97
        0
 75
     0
 76
     1
 98
        1
 10
0.0
 20
0.0
  0
HATCH
  5
38
100
AcDbEntity
  8
レイヤー_1_0
 62
     7
100
AcDbHatch
 10
0.0
 20
0.0
 30
0.0
210
0.0
220
0.0
230
1.0
  2
SOLID
 70
     1
 71
     0
 91
        1
 92
        1
 93
        1
 72
     4
 94
        3
 73
     0
 74
     0
 95
      122
 96
      118
 40
0.0
 40
0.0
 40
0.0
 40
0.0
 40
1.0
 40
1.0
 40
1.0
 40
2.0
 40
2.0
 40
2.0
 40
3.0
 40
3.0
 40
3.0
 40
4.0
 40
4.0
 40
4.0
 40
5.0
 40
5.0
 40
5.0
 40
6.0
 40
6.0
 40
6.0
 40
7.0
 40
7.0
 40
7.0
 40
8.0
 40
8.0
 40
8.0
 40
9.0
 40
9.0
 40
9.0
 40
10.0
 40
10.0
 40
10.0
 40
11.0
 40
11.0
 40
11.0
 40
12.0
 40
12.0
 40
12.0
 40
13.0
 40
13.0
 40
13.0
 40
14.0
 40
14.0
 40
14.0
 40
15.0
 40
15.0
 40
15.0
 40
16.0
 40
16.0
 40
16.0
 40
17.0
 40
17.0
 40
17.0
 40
18.0
 40
18.0
 40
18.0
 40
19.0
 40
19.0
 40
19.0
 40
20.0
 40
20.0
 40
20.0
 40
21.0
 40
21.0
 40
21.0
 40
22.0
 40
22.0
 40
22.0
 40
23.0
 40
23.0
 40
23.0
 40
24.0
 40
24.0
 40
24.0
 40
25.0
 40
25.0
 40
25.0
 40
26.0
 40
26.0
 40
26.0
 40
27.0
 40
27.0
 40
27.0
 40
28.0
 40
28.0
 40
28.0
 40
29.0
 40
29.0
 40
29.0
 40
30.0
 40
30.0
 40
30.0
 40
31.0
 40
31.0
 40
31.0
 40
32.0
 40
32.0
 40
32.0
 40
33.0
 40
33.0
 40
33.0
 40
34.0
 40
34.0
 40
34.0
 40
35.0
 40
35.0
 40
35.0
 40
36.0
 40
36.0
 40
36.0
 40
37.0
 40
37.0
 40
37.0
 40
38.0
 40
38.0
 40
38.0
 40
39.0
 40
39.0
 40
39.0
 40
39.0
 10
132.69991048177081
 20
243.82628851996526
 10
133.12469075520832
 20
243.82628851996526
 10
133.50709635416666
 20
243.82628851996526
 10
133.88950195312498
 20
244.25089653862844
 10
134.27190755208332
 20
244.25089653862844
 10
134.27190755208332
 20
244.25089653862844
 10
134.69668782552083
 20
244.25089653862844
 10
134.69668782552083
 20
244.63347439236108
 10
135.07909342447917
 20
244.63347439236108
 10
135.46184353298611
 20
245.01587999131942
 10
135.46184353298611
 20
245.39828559027777
 10
135.46184353298611
 20
245.82341037326387
 10
135.46184353298611
 20
246.20581597222221
 10
135.46184353298611
 20
246.97045491536457
 10
135.46184353298611
 20
247.77798529730902
 10
135.07909342447917
 20
248.16056315104166
 10
134.69668782552083
 20
248.54296874999997
 10
133.88950195312498
 20
248.54296874999997
 10
133.12469075520832
 20
248.54296874999997
 10
132.69991048177081
 20
248.54296874999997
 10
132.3175048828125
 20
248.54296874999997
 10
132.3175048828125
 20
248.54296874999997
 10
131.93475477430553
 20
248.16056315104166
 10
131.55234917534722
 20
248.16056315104166
 10
131.55234917534722
 20
247.77798529730902
 10
131.12687988281249
 20
247.77798529730902
 10
131.12687988281249
 20
247.39557969835067
 10
131.12687988281249
 20
247.39557969835067
 10
131.12687988281249
 20
246.97045491536457
 10
131.12687988281249
 20
246.97045491536457
 10
130.74447428385415
 20
246.58839382595485
 10
130.74447428385415
 20
246.58839382595485
 10
130.74447428385415
 20
246.58839382595485
 10
129.55488281249998
 20
246.58839382595485
 10
129.55488281249998
 20
246.97045491536457
 10
129.55488281249998
 20
247.39557969835067
 10
129.55488281249998
 20
247.77798529730902
 10
129.55488281249998
 20
247.77798529730902
 10
129.97966308593749
 20
248.16056315104166
 10
129.97966308593749
 20
248.54296874999997
 10
130.36206868489583
 20
248.96809353298607
 10
130.74447428385415
 20
249.35049913194442
 10
131.55234917534722
 20
249.73307698567706
 10
131.93475477430553
 20
250.1154825846354
 10
132.69991048177081
 20
250.1154825846354
 10
133.12469075520832
 20
250.1154825846354
 10
134.27190755208332
 20
250.1154825846354
 10
135.46184353298611
 20
249.73307698567706
 10
135.84424913194442
 20
248.96809353298607
 10
136.65143500434027
 20
248.16056315104166
 10
137.03384060329859
 20
247.39557969835067
 10
137.03384060329859
 20
246.20581597222221
 10
137.03384060329859
 20
245.82341037326387
 10
137.03384060329859
 20
245.01587999131942
 10
136.65143500434027
 20
244.63347439236108
 10
136.26902940538193
 20
244.25089653862844
 10
135.84424913194442
 20
243.44371066623262
 10
135.46184353298611
 20
243.44371066623262
 10
135.84424913194442
 20
243.06113281249998
 10
136.65143500434027
 20
242.67872721354163
 10
136.65143500434027
 20
241.87119683159719
 10
137.03384060329859
 20
241.48861897786455
 10
137.41659071180555
 20
240.68108859592013
 10
137.41659071180555
 20
239.91610514322915
 10
137.41659071180555
 20
238.72651367187498
 10
137.03384060329859
 20
237.961530219184
 10
136.26902940538193
 20
237.15399983723955
 10
135.46184353298611
 20
236.38936089409719
 10
134.27190755208332
 20
235.96423611111109
 10
133.12469075520832
 20
235.96423611111109
 10
132.3175048828125
 20
235.96423611111109
 10
131.55234917534722
 20
235.96423611111109
 10
130.74447428385415
 20
236.38936089409719
 10
130.36206868489583
 20
236.77142198350691
 10
129.97966308593749
 20
237.15399983723955
 10
129.55488281249998
 20
237.961530219184
 10
129.17247721354167
 20
237.961530219184
 10
129.17247721354167
 20
238.34393581814234
 10
129.17247721354167
 20
238.72651367187498
 10
129.17247721354167
 20
238.72651367187498
 10
129.17247721354167
 20
239.10891927083333
 10
128.7897271050347
 20
239.5336995442708
 10
128.7897271050347
 20
239.5336995442708
 10
128.7897271050347
 20
239.5336995442708
 10
130.36206868489583
 20
239.5336995442708
 10
130.36206868489583
 20
239.10891927083333
 10
130.74447428385415
 20
239.10891927083333
 10
130.74447428385415
 20
238.72651367187498
 10
130.74447428385415
 20
238.72651367187498
 10
130.74447428385415
 20
238.34393581814234
 10
130.74447428385415
 20
238.34393581814234
 10
131.12687988281249
 20
237.961530219184
 10
131.55234917534722
 20
237.5364054361979
 10
131.93475477430553
 20
237.5364054361979
 10
132.3175048828125
 20
237.15399983723955
 10
132.69991048177081
 20
237.15399983723955
 10
133.12469075520832
 20
237.15399983723955
 10
133.88950195312498
 20
237.15399983723955
 10
134.69668782552083
 20
237.5364054361979
 10
135.07909342447917
 20
237.961530219184
 10
135.46184353298611
 20
238.72651367187498
 10
135.84424913194442
 20
239.10891927083333
 10
135.84424913194442
 20
239.91610514322915
 10
135.84424913194442
 20
240.68108859592013
 10
135.84424913194442
 20
241.10621337890623
 10
135.46184353298611
 20
241.48861897786455
 10
135.07909342447917
 20
241.87119683159719
 10
135.07909342447917
 20
242.25360243055553
 10
134.27190755208332
 20
242.25360243055553
 10
134.27190755208332
 20
242.25360243055553
 10
133.88950195312498
 20
242.67872721354163
 10
133.88950195312498
 20
242.67872721354163
 10
133.50709635416666
 20
242.67872721354163
 10
133.12469075520832
 20
242.67872721354163
 10
132.69991048177081
 20
242.67872721354163
 10
132.69991048177081
 20
242.67872721354163
 10
132.69991048177081
 20
243.82628851996526
 10
132.69991048177081
 20
243.82628851996526
 97
        0
 75
     0
 76
     1
 98
        1
 10
0.0
 20
0.0
  0
HATCH
  5
37
100
AcDbEntity
  8
レイヤー_1_0
 62
     7
100
AcDbHatch
 10
0.0
 20
0.0
 30
0.0
210
0.0
220
0.0
230
1.0
  2
SOLID
 70
     1
 71
     0
 91
        1
 92
        1
 93
        1
 72
     4
 94
        3
 73
     0
 74
     0
 95
      122
 96
      118
 40
0.0
 40
0.0
 40
0.0
 40
0.0
 40
1.0
 40
1.0
 40
1.0
 40
2.0
 40
2.0
 40
2.0
 40
3.0
 40
3.0
 40
3.0
 40
4.0
 40
4.0
 40
4.0
 40
5.0
 40
5.0
 40
5.0
 40
6.0
 40
6.0
 40
6.0
 40
7.0
 40
7.0
 40
7.0
 40
8.0
 40
8.0
 40
8.0
 40
9.0
 40
9.0
 40
9.0
 40
10.0
 40
10.0
 40
10.0
 40
11.0
 40
11.0
 40
11.0
 40
12.0
 40
12.0
 40
12.0
 40
13.0
 40
13.0
 40
13.0
 40
14.0
 40
14.0
 40
14.0
 40
15.0
 40
15.0
 40
15.0
 40
16.0
 40
16.0
 40
16.0
 40
17.0
 40
17.0
 40
17.0
 40
18.0
 40
18.0
 40
18.0
 40
19.0
 40
19.0
 40
19.0
 40
20.0
 40
20.0
 40
20.0
 40
21.0
 40
21.0
 40
21.0
 40
22.0
 40
22.0
 40
22.0
 40
23.0
 40
23.0
 40
23.0
 40
24.0
 40
24.0
 40
24.0
 40
25.0
 40
25.0
 40
25.0
 40
26.0
 40
26.0
 40
26.0
 40
27.0
 40
27.0
 40
27.0
 40
28.0
 40
28.0
 40
28.0
 40
29.0
 40
29.0
 40
29.0
 40
30.0
 40
30.0
 40
30.0
 40
31.0
 40
31.0
 40
31.0
 40
32.0
 40
32.0
 40
32.0
 40
33.0
 40
33.0
 40
33.0
 40
34.0
 40
34.0
 40
34.0
 40
35.0
 40
35.0
 40
35.0
 40
36.0
 40
36.0
 40
36.0
 40
37.0
 40
37.0
 40
37.0
 40
38.0
 40
38.0
 40
38.0
 40
39.0
 40
39.0
 40
39.0
 40
39.0
 10
194.02157660590277
 20
59.944661458333329
 10
194.02157660590277
 20
60.327067057291664
 10
194.02157660590277
 20
60.709472656249993
 10
194.02157660590277
 20
60.709472656249993
 10
194.02157660590277
 20
61.134252929687491
 10
194.02157660590277
 20
61.516658528645827
 10
193.59679633246526
 20
61.516658528645827
 10
193.59679633246526
 20
61.899408637152774
 10
193.21439073350692
 20
62.281814236111103
 10
192.83164062499998
 20
62.281814236111103
 10
192.44923502604166
 20
62.706594509548609
 10
192.02445475260416
 20
62.706594509548609
 10
191.64204915364581
 20
62.706594509548609
 10
190.87689344618053
 20
62.706594509548609
 10
190.45176866319443
 20
62.281814236111103
 10
190.07005208333331
 20
61.899408637152774
 10
189.68730197482637
 20
61.516658528645827
 10
189.30489637586803
 20
61.134252929687491
 10
189.30489637586803
 20
60.327067057291664
 10
189.30489637586803
 20
59.944661458333329
 10
189.30489637586803
 20
59.562255859374993
 10
189.68730197482637
 20
59.136786566840271
 10
189.68730197482637
 20
58.755069986979159
 10
190.07005208333331
 20
58.755069986979159
 10
190.07005208333331
 20
58.37266438802083
 10
190.45176866319443
 20
58.37266438802083
 10
190.45176866319443
 20
58.37266438802083
 10
190.87689344618053
 20
57.989914279513883
 10
190.87689344618053
 20
57.989914279513883
 10
191.25964355468747
 20
57.989914279513883
 10
191.64204915364581
 20
57.989914279513883
 10
191.64204915364581
 20
57.989914279513883
 10
191.64204915364581
 20
57.989914279513883
 10
191.64204915364581
 20
56.417228190104161
 10
191.25964355468747
 20
56.417228190104161
 10
190.87689344618053
 20
56.799633789062497
 10
190.45176866319443
 20
56.799633789062497
 10
190.07005208333331
 20
56.799633789062497
 10
189.68730197482637
 20
56.799633789062497
 10
189.68730197482637
 20
57.182039388020826
 10
188.87942708333333
 20
57.564789496527773
 10
188.49702148437498
 20
57.989914279513883
 10
188.49702148437498
 20
58.37266438802083
 10
188.11461588541664
 20
59.136786566840271
 10
188.11461588541664
 20
59.562255859374993
 10
188.11461588541664
 20
60.327067057291664
 10
188.11461588541664
 20
61.516658528645827
 10
188.49702148437498
 20
62.281814236111103
 10
188.87942708333333
 20
63.089000108506937
 10
189.68730197482637
 20
63.853811306423609
 10
190.45176866319443
 20
64.279280598958323
 10
191.64204915364581
 20
64.279280598958323
 10
192.44923502604166
 20
64.279280598958323
 10
192.83164062499998
 20
63.853811306423609
 10
193.59679633246526
 20
63.853811306423609
 10
194.02157660590277
 20
63.471405707465273
 10
194.40398220486108
 20
63.089000108506937
 10
194.78638780381942
 20
62.281814236111103
 10
195.16879340277777
 20
63.089000108506937
 10
195.59426269531249
 20
63.471405707465273
 10
195.97666829427081
 20
63.853811306423609
 10
196.74182400173609
 20
64.279280598958323
 10
197.16625976562497
 20
64.279280598958323
 10
197.93141547309025
 20
64.279280598958323
 10
199.12100694444442
 20
64.279280598958323
 10
200.3112874348958
 20
63.853811306423609
 10
201.07575412326386
 20
63.089000108506937
 10
201.88362901475693
 20
62.281814236111103
 10
202.26603461371525
 20
61.516658528645827
 10
202.26603461371525
 20
59.944661458333329
 10
202.26603461371525
 20
59.136786566840271
 10
201.88362901475693
 20
58.755069986979159
 10
201.88362901475693
 20
57.989914279513883
 10
201.45815972222221
 20
57.182039388020826
 10
201.07575412326386
 20
56.799633789062497
 10
200.3112874348958
 20
56.417228190104161
 10
199.8861626519097
 20
56.417228190104161
 10
199.8861626519097
 20
56.417228190104161
 10
199.50375705295136
 20
55.992447916666663
 10
199.12100694444442
 20
55.992447916666663
 10
198.7386013454861
 20
55.992447916666663
 10
198.3138210720486
 20
55.992447916666663
 10
198.3138210720486
 20
55.992447916666663
 10
198.3138210720486
 20
55.992447916666663
 10
198.3138210720486
 20
57.564789496527773
 10
198.7386013454861
 20
57.564789496527773
 10
199.12100694444442
 20
57.564789496527773
 10
199.12100694444442
 20
57.564789496527773
 10
199.50375705295136
 20
57.564789496527773
 10
199.50375705295136
 20
57.989914279513883
 10
199.8861626519097
 20
57.989914279513883
 10
199.8861626519097
 20
58.37266438802083
 10
200.3112874348958
 20
58.37266438802083
 10
200.69403754340277
 20
58.755069986979159
 10
200.69403754340277
 20
59.136786566840271
 10
200.69403754340277
 20
59.944661458333329
 10
200.69403754340277
 20
60.327067057291664
 10
200.69403754340277
 20
61.134252929687491
 10
200.69403754340277
 20
61.516658528645827
 10
199.8861626519097
 20
62.281814236111103
 10
199.50375705295136
 20
62.706594509548609
 10
198.7386013454861
 20
62.706594509548609
 10
197.93141547309025
 20
63.089000108506937
 10
197.54900987413194
 20
63.089000108506937
 10
197.16625976562497
 20
62.706594509548609
 10
196.74182400173609
 20
62.706594509548609
 10
196.35941840277775
 20
62.281814236111103
 10
195.97666829427081
 20
61.899408637152774
 10
195.59426269531249
 20
61.516658528645827
 10
195.59426269531249
 20
61.516658528645827
 10
195.59426269531249
 20
61.134252929687491
 10
195.59426269531249
 20
60.709472656249993
 10
195.59426269531249
 20
60.709472656249993
 10
195.59426269531249
 20
60.327067057291664
 10
195.59426269531249
 20
59.944661458333329
 10
195.59426269531249
 20
59.944661458333329
 10
194.02157660590277
 20
59.944661458333329
 10
194.02157660590277
 20
59.944661458333329
 97
        0
 75
     0
 76
     1
 98
        1
 10
0.0
 20
0.0
  0
HATCH
  5
36
100
AcDbEntity
  8
レイヤー_1_0
 62
     7
100
AcDbHatch
 10
0.0
 20
0.0
 30
0.0
210
0.0
220
0.0
230
1.0
  2
SOLID
 70
     1
 71
     0
 91
        1
 92
        1
 93
        1
 72
     4
 94
        3
 73
     0
 74
     0
 95
       74
 96
       70
 40
0.0
 40
0.0
 40
0.0
 40
0.0
 40
1.0
 40
1.0
 40
1.0
 40
2.0
 40
2.0
 40
2.0
 40
3.0
 40
3.0
 40
3.0
 40
4.0
 40
4.0
 40
4.0
 40
5.0
 40
5.0
 40
5.0
 40
6.0
 40
6.0
 40
6.0
 40
7.0
 40
7.0
 40
7.0
 40
8.0
 40
8.0
 40
8.0
 40
9.0
 40
9.0
 40
9.0
 40
10.0
 40
10.0
 40
10.0
 40
11.0
 40
11.0
 40
11.0
 40
12.0
 40
12.0
 40
12.0
 40
13.0
 40
13.0
 40
13.0
 40
14.0
 40
14.0
 40
14.0
 40
15.0
 40
15.0
 40
15.0
 40
16.0
 40
16.0
 40
16.0
 40
17.0
 40
17.0
 40
17.0
 40
18.0
 40
18.0
 40
18.0
 40
19.0
 40
19.0
 40
19.0
 40
20.0
 40
20.0
 40
20.0
 40
21.0
 40
21.0
 40
21.0
 40
22.0
 40
22.0
 40
22.0
 40
23.0
 40
23.0
 40
23.0
 40
23.0
 10
200.69403754340277
 20
76.433577473958323
 10
200.69403754340277
 20
76.433577473958323
 10
200.69403754340277
 20
76.433577473958323
 10
201.88362901475693
 20
76.433577473958323
 10
201.88362901475693
 20
76.433577473958323
 10
201.88362901475693
 20
76.433577473958323
 10
201.88362901475693
 20
67.423619249131931
 10
201.88362901475693
 20
67.423619249131931
 10
201.88362901475693
 20
67.423619249131931
 10
196.35941840277775
 20
72.523394097222209
 10
195.16879340277777
 20
73.288549804687491
 10
194.40398220486108
 20
74.095391167534714
 10
193.59679633246526
 20
74.478141276041654
 10
193.21439073350692
 20
74.860546874999997
 10
192.44923502604166
 20
74.860546874999997
 10
192.02445475260416
 20
74.860546874999997
 10
191.25964355468747
 20
74.860546874999997
 10
190.45176866319443
 20
74.478141276041654
 10
190.07005208333331
 20
74.095391167534714
 10
189.68730197482637
 20
73.712985568576386
 10
189.30489637586803
 20
72.905799696180551
 10
189.30489637586803
 20
72.14098849826388
 10
189.30489637586803
 20
71.716208224826389
 10
189.30489637586803
 20
71.333802625868046
 10
189.68730197482637
 20
70.951052517361106
 10
190.07005208333331
 20
70.568646918402777
 10
190.07005208333331
 20
70.143177625868049
 10
190.45176866319443
 20
69.76077202690972
 10
190.87689344618053
 20
69.76077202690972
 10
190.87689344618053
 20
69.76077202690972
 10
191.25964355468747
 20
69.3790554470486
 10
191.64204915364581
 20
69.3790554470486
 10
191.64204915364581
 20
69.3790554470486
 10
192.02445475260416
 20
69.3790554470486
 10
192.02445475260416
 20
69.3790554470486
 10
192.02445475260416
 20
69.3790554470486
 10
192.02445475260416
 20
67.806369357638886
 10
191.64204915364581
 20
67.806369357638886
 10
191.25964355468747
 20
67.806369357638886
 10
190.87689344618053
 20
68.188774956597214
 10
190.45176866319443
 20
68.188774956597214
 10
190.07005208333331
 20
68.188774956597214
 10
189.68730197482637
 20
68.571180555555543
 10
189.30489637586803
 20
68.996649848090271
 10
188.87942708333333
 20
69.3790554470486
 10
188.49702148437498
 20
70.143177625868049
 10
188.11461588541664
 20
70.568646918402777
 10
188.11461588541664
 20
71.333802625868046
 10
188.11461588541664
 20
72.14098849826388
 10
188.11461588541664
 20
73.288549804687491
 10
188.49702148437498
 20
74.478141276041654
 10
189.30489637586803
 20
75.286016167534711
 10
190.07005208333331
 20
76.050827365451383
 10
190.87689344618053
 20
76.433577473958323
 10
192.02445475260416
 20
76.433577473958323
 10
192.44923502604166
 20
76.433577473958323
 10
193.21439073350692
 20
76.433577473958323
 10
193.59679633246526
 20
76.050827365451383
 10
194.02157660590277
 20
76.050827365451383
 10
194.40398220486108
 20
75.668421766493054
 10
195.16879340277777
 20
75.286016167534711
 10
195.59426269531249
 20
74.860546874999997
 10
196.35941840277775
 20
74.095391167534714
 10
197.16625976562497
 20
73.288549804687491
 10
197.16625976562497
 20
73.288549804687491
 10
197.16625976562497
 20
73.288549804687491
 10
200.69403754340277
 20
70.568646918402777
 10
200.69403754340277
 20
70.568646918402777
 10
200.69403754340277
 20
76.433577473958323
 10
200.69403754340277
 20
76.433577473958323
 97
        0
 75
     0
 76
     1
 98
        1
 10
0.0
 20
0.0
  0
HATCH
  5
35
100
AcDbEntity
  8
レイヤー_1_0
 62
     7
100
AcDbHatch
 10
0.0
 20
0.0
 30
0.0
210
0.0
220
0.0
230
1.0
  2
SOLID
 70
     1
 71
     0
 91
        3
 92
       16
 93
        1
 72
     4
 94
        3
 73
     0
 74
     0
 95
       77
 96
       73
 40
0.0
 40
0.0
 40
0.0
 40
0.0
 40
1.0
 40
1.0
 40
1.0
 40
2.0
 40
2.0
 40
2.0
 40
3.0
 40
3.0
 40
3.0
 40
4.0
 40
4.0
 40
4.0
 40
5.0
 40
5.0
 40
5.0
 40
6.0
 40
6.0
 40
6.0
 40
7.0
 40
7.0
 40
7.0
 40
8.0
 40
8.0
 40
8.0
 40
9.0
 40
9.0
 40
9.0
 40
10.0
 40
10.0
 40
10.0
 40
11.0
 40
11.0
 40
11.0
 40
12.0
 40
12.0
 40
12.0
 40
13.0
 40
13.0
 40
13.0
 40
14.0
 40
14.0
 40
14.0
 40
15.0
 40
15.0
 40
15.0
 40
16.0
 40
16.0
 40
16.0
 40
17.0
 40
17.0
 40
17.0
 40
18.0
 40
18.0
 40
18.0
 40
19.0
 40
19.0
 40
19.0
 40
20.0
 40
20.0
 40
20.0
 40
21.0
 40
21.0
 40
21.0
 40
22.0
 40
22.0
 40
22.0
 40
23.0
 40
23.0
 40
23.0
 40
24.0
 40
24.0
 40
24.0
 40
24.0
 10
4.2333333333333325
 20
50.127861870659714
 10
4.9983167860243052
 20
49.320675998263887
 10
4.9983167860243052
 20
49.320675998263887
 10
4.9983167860243052
 20
49.320675998263887
 10
6.5704861111111104
 20
50.892673068576386
 10
6.5704861111111104
 20
50.892673068576386
 10
6.5704861111111104
 20
50.892673068576386
 10
6.9954386393229164
 20
50.892673068576386
 10
6.9954386393229164
 20
50.892673068576386
 10
6.9954386393229164
 20
50.51026746961805
 10
7.3780164930555552
 20
50.51026746961805
 10
7.3780164930555552
 20
50.51026746961805
 10
7.3780164930555552
 20
50.51026746961805
 10
8.1429999457465279
 20
50.127861870659714
 10
8.5679524739583321
 20
49.745111762152774
 10
9.332763671875
 20
49.745111762152774
 10
10.097747124565972
 20
49.320675998263887
 10
10.522699652777776
 20
49.320675998263887
 10
11.28768310546875
 20
49.320675998263887
 10
12.859852430555554
 20
49.320675998263887
 10
14.049960666232638
 20
49.745111762152774
 10
15.239896647135415
 20
50.127861870659714
 10
16.004880099826387
 20
50.892673068576386
 10
16.812065972222221
 20
51.69985894097222
 10
17.577049424913191
 20
52.847420247395831
 10
18.384579806857637
 20
54.037700737847217
 10
18.767157660590275
 20
55.227292209201387
 10
18.767157660590275
 20
56.417228190104161
 10
18.767157660590275
 20
57.182039388020826
 10
18.384579806857637
 20
57.989914279513883
 10
18.384579806857637
 20
58.755069986979159
 10
17.959627278645833
 20
59.562255859374993
 10
17.577049424913191
 20
60.327067057291664
 10
16.812065972222221
 20
61.134252929687491
 10
18.384579806857637
 20
62.706594509548609
 10
18.384579806857637
 20
62.706594509548609
 10
18.384579806857637
 20
62.706594509548609
 10
17.577049424913191
 20
63.471405707465273
 10
17.577049424913191
 20
63.471405707465273
 10
17.577049424913191
 20
63.471405707465273
 10
16.004880099826387
 20
61.899408637152774
 10
16.004880099826387
 20
61.899408637152774
 10
16.004880099826387
 20
61.899408637152774
 10
15.622474500868055
 20
62.281814236111103
 10
15.622474500868055
 20
62.281814236111103
 10
15.622474500868055
 20
62.281814236111103
 10
15.622474500868055
 20
62.281814236111103
 10
15.622474500868055
 20
62.281814236111103
 10
15.239896647135415
 20
62.281814236111103
 10
14.814944118923609
 20
62.706594509548609
 10
14.049960666232638
 20
63.089000108506937
 10
13.6673828125
 20
63.471405707465273
 10
12.859852430555554
 20
63.471405707465273
 10
12.095213487413194
 20
63.471405707465273
 10
11.28768310546875
 20
63.471405707465273
 10
10.097747124565972
 20
63.471405707465273
 10
8.9501858181423604
 20
63.089000108506937
 10
7.7604220920138882
 20
62.706594509548609
 10
6.5704861111111104
 20
61.899408637152774
 10
5.8055026584201386
 20
61.134252929687491
 10
5.4230970594618046
 20
59.944661458333329
 10
4.6159111870659721
 20
58.755069986979159
 10
4.2333333333333325
 20
57.564789496527773
 10
4.2333333333333325
 20
56.417228190104161
 10
4.2333333333333325
 20
55.610042317708327
 10
4.2333333333333325
 20
54.844886610243051
 10
4.6159111870659721
 20
54.037700737847217
 10
4.9983167860243052
 20
53.272889539930553
 10
5.4230970594618046
 20
52.847420247395831
 10
5.8055026584201386
 20
52.082264539930549
 10
5.8055026584201386
 20
52.082264539930549
 10
4.2333333333333325
 20
50.127861870659714
 10
4.2333333333333325
 20
50.127861870659714
 97
        0
 92
        1
 93
        1
 72
     4
 94
        3
 73
     0
 74
     0
 95
       29
 96
       25
 40
0.0
 40
0.0
 40
0.0
 40
0.0
 40
1.0
 40
1.0
 40
1.0
 40
2.0
 40
2.0
 40
2.0
 40
3.0
 40
3.0
 40
3.0
 40
4.0
 40
4.0
 40
4.0
 40
5.0
 40
5.0
 40
5.0
 40
6.0
 40
6.0
 40
6.0
 40
7.0
 40
7.0
 40
7.0
 40
8.0
 40
8.0
 40
8.0
 40
8.0
 10
6.9954386393229164
 20
52.847420247395831
 10
6.5704861111111104
 20
53.655295138888881
 10
6.1879082573784716
 20
54.037700737847217
 10
6.1879082573784716
 20
54.844886610243051
 10
5.8055026584201386
 20
55.227292209201387
 10
5.8055026584201386
 20
55.610042317708327
 10
5.8055026584201386
 20
56.417228190104161
 10
5.8055026584201386
 20
57.564789496527773
 10
6.1879082573784716
 20
58.37266438802083
 10
6.5704861111111104
 20
59.136786566840271
 10
6.9954386393229164
 20
60.327067057291664
 10
7.7604220920138882
 20
60.709472656249993
 10
8.5679524739583321
 20
61.516658528645827
 10
9.332763671875
 20
61.899408637152774
 10
10.522699652777776
 20
62.281814236111103
 10
11.28768310546875
 20
62.281814236111103
 10
12.095213487413194
 20
62.281814236111103
 10
12.859852430555554
 20
61.899408637152774
 10
13.242430284288194
 20
61.899408637152774
 10
13.6673828125
 20
61.516658528645827
 10
14.432366265190971
 20
61.516658528645827
 10
14.814944118923609
 20
61.134252929687491
 10
14.814944118923609
 20
61.134252929687491
 10
6.9954386393229164
 20
52.847420247395831
 10
6.9954386393229164
 20
52.847420247395831
 97
        0
 92
        1
 93
        1
 72
     4
 94
        3
 73
     0
 74
     0
 95
       29
 96
       25
 40
0.0
 40
0.0
 40
0.0
 40
0.0
 40
1.0
 40
1.0
 40
1.0
 40
2.0
 40
2.0
 40
2.0
 40
3.0
 40
3.0
 40
3.0
 40
4.0
 40
4.0
 40
4.0
 40
5.0
 40
5.0
 40
5.0
 40
6.0
 40
6.0
 40
6.0
 40
7.0
 40
7.0
 40
7.0
 40
8.0
 40
8.0
 40
8.0
 40
8.0
 10
16.004880099826387
 20
59.944661458333329
 10
16.387113444010414
 20
59.562255859374993
 10
16.387113444010414
 20
58.755069986979159
 10
16.812065972222221
 20
58.37266438802083
 10
16.812065972222221
 20
57.564789496527773
 10
17.194643825954859
 20
57.182039388020826
 10
17.194643825954859
 20
56.417228190104161
 10
17.194643825954859
 20
55.227292209201387
 10
16.812065972222221
 20
54.420106336805553
 10
16.387113444010414
 20
53.655295138888881
 10
15.622474500868055
 20
52.847420247395831
 10
15.239896647135415
 20
52.082264539930549
 10
14.432366265190971
 20
51.69985894097222
 10
13.242430284288194
 20
50.892673068576386
 10
12.477619086371528
 20
50.892673068576386
 10
11.28768310546875
 20
50.892673068576386
 10
10.90510525173611
 20
50.892673068576386
 10
10.097747124565972
 20
50.892673068576386
 10
9.332763671875
 20
51.318142361111107
 10
8.9501858181423604
 20
51.318142361111107
 10
8.1429999457465279
 20
51.69985894097222
 10
7.7604220920138882
 20
52.082264539930549
 10
7.7604220920138882
 20
52.082264539930549
 10
16.004880099826387
 20
59.944661458333329
 10
16.004880099826387
 20
59.944661458333329
 97
        0
 75
     0
 76
     1
 98
        1
 10
0.0
 20
0.0
  0
HATCH
  5
34
100
AcDbEntity
  8
レイヤー_1_0
 62
     7
100
AcDbHatch
 10
0.0
 20
0.0
 30
0.0
210
0.0
220
0.0
230
1.0
  2
SOLID
 70
     1
 71
     0
 91
        1
 92
        1
 93
        1
 72
     4
 94
        3
 73
     0
 74
     0
 95
       98
 96
       94
 40
0.0
 40
0.0
 40
0.0
 40
0.0
 40
1.0
 40
1.0
 40
1.0
 40
2.0
 40
2.0
 40
2.0
 40
3.0
 40
3.0
 40
3.0
 40
4.0
 40
4.0
 40
4.0
 40
5.0
 40
5.0
 40
5.0
 40
6.0
 40
6.0
 40
6.0
 40
7.0
 40
7.0
 40
7.0
 40
8.0
 40
8.0
 40
8.0
 40
9.0
 40
9.0
 40
9.0
 40
10.0
 40
10.0
 40
10.0
 40
11.0
 40
11.0
 40
11.0
 40
12.0
 40
12.0
 40
12.0
 40
13.0
 40
13.0
 40
13.0
 40
14.0
 40
14.0
 40
14.0
 40
15.0
 40
15.0
 40
15.0
 40
16.0
 40
16.0
 40
16.0
 40
17.0
 40
17.0
 40
17.0
 40
18.0
 40
18.0
 40
18.0
 40
19.0
 40
19.0
 40
19.0
 40
20.0
 40
20.0
 40
20.0
 40
21.0
 40
21.0
 40
21.0
 40
22.0
 40
22.0
 40
22.0
 40
23.0
 40
23.0
 40
23.0
 40
24.0
 40
24.0
 40
24.0
 40
25.0
 40
25.0
 40
25.0
 40
26.0
 40
26.0
 40
26.0
 40
27.0
 40
27.0
 40
27.0
 40
28.0
 40
28.0
 40
28.0
 40
29.0
 40
29.0
 40
29.0
 40
30.0
 40
30.0
 40
30.0
 40
31.0
 40
31.0
 40
31.0
 40
31.0
 10
39.590176052517357
 20
56.417228190104161
 10
39.590176052517357
 20
56.417228190104161
 10
39.590176052517357
 20
56.417228190104161
 10
39.590176052517357
 20
55.992447916666663
 10
39.590176052517357
 20
55.227292209201387
 10
39.590176052517357
 20
54.844886610243051
 10
39.207598198784716
 20
54.037700737847217
 10
39.207598198784716
 20
53.655295138888881
 10
39.207598198784716
 20
53.272889539930553
 10
38.782645670572911
 20
52.465014648437496
 10
38.400067816840277
 20
51.69985894097222
 10
37.210476345486107
 20
50.892673068576386
 10
36.445492892795137
 20
50.127861870659714
 10
35.255556911892356
 20
49.745111762152774
 10
34.107995605468744
 20
49.320675998263887
 10
32.918231879340276
 20
49.320675998263887
 10
31.728295898437498
 20
49.320675998263887
 10
30.538704427083331
 20
49.745111762152774
 10
29.39114312065972
 20
50.127861870659714
 10
28.201207139756942
 20
50.892673068576386
 10
27.393676757812496
 20
51.69985894097222
 10
27.011098904079859
 20
52.847420247395831
 10
26.246459960937496
 20
54.037700737847217
 10
25.821507432725692
 20
55.227292209201387
 10
25.821507432725692
 20
56.417228190104161
 10
25.821507432725692
 20
57.564789496527773
 10
26.246459960937496
 20
59.136786566840271
 10
27.011098904079859
 20
59.944661458333329
 10
27.393676757812496
 20
61.134252929687491
 10
28.201207139756942
 20
61.899408637152774
 10
29.39114312065972
 20
62.706594509548609
 10
30.538704427083331
 20
63.089000108506937
 10
31.728295898437498
 20
63.471405707465273
 10
32.918231879340276
 20
63.471405707465273
 10
33.683387586805551
 20
63.471405707465273
 10
34.49040120442708
 20
63.471405707465273
 10
35.255556911892356
 20
63.089000108506937
 10
36.063087293836801
 20
63.089000108506937
 10
36.828070746527771
 20
62.706594509548609
 10
37.210476345486107
 20
62.281814236111103
 10
37.635256618923606
 20
61.899408637152774
 10
38.017662217881941
 20
61.899408637152774
 10
38.017662217881941
 20
61.516658528645827
 10
38.400067816840277
 20
61.134252929687491
 10
38.400067816840277
 20
61.134252929687491
 10
38.782645670572911
 20
60.709472656249993
 10
38.782645670572911
 20
60.709472656249993
 10
38.782645670572911
 20
60.709472656249993
 10
37.635256618923606
 20
59.562255859374993
 10
37.210476345486107
 20
60.327067057291664
 10
36.445492892795137
 20
61.134252929687491
 10
35.637962510850691
 20
61.516658528645827
 10
34.872979058159721
 20
61.899408637152774
 10
34.107995605468744
 20
62.281814236111103
 10
33.300809733072917
 20
62.281814236111103
 10
32.110873752170136
 20
62.281814236111103
 10
30.963312445746524
 20
61.899408637152774
 10
30.15612657335069
 20
61.516658528645827
 10
29.39114312065972
 20
60.709472656249993
 10
28.583612738715274
 20
60.327067057291664
 10
28.201207139756942
 20
59.136786566840271
 10
27.818629286024304
 20
58.37266438802083
 10
27.393676757812496
 20
57.564789496527773
 10
27.393676757812496
 20
56.417228190104161
 10
27.393676757812496
 20
55.227292209201387
 10
27.818629286024304
 20
54.420106336805553
 10
28.201207139756942
 20
53.655295138888881
 10
28.583612738715274
 20
52.847420247395831
 10
29.39114312065972
 20
52.082264539930549
 10
30.15612657335069
 20
51.69985894097222
 10
30.963312445746524
 20
50.892673068576386
 10
32.110873752170136
 20
50.892673068576386
 10
32.918231879340276
 20
50.892673068576386
 10
33.683387586805551
 20
50.892673068576386
 10
34.872979058159721
 20
50.892673068576386
 10
35.637962510850691
 20
51.318142361111107
 10
36.445492892795137
 20
51.69985894097222
 10
36.828070746527771
 20
52.465014648437496
 10
37.210476345486107
 20
53.272889539930553
 10
37.635256618923606
 20
53.272889539930553
 10
37.635256618923606
 20
53.655295138888881
 10
37.635256618923606
 20
54.037700737847217
 10
37.635256618923606
 20
54.420106336805553
 10
38.017662217881941
 20
54.420106336805553
 10
38.017662217881941
 20
55.227292209201387
 10
38.017662217881941
 20
55.227292209201387
 10
38.017662217881941
 20
55.227292209201387
 10
33.683387586805551
 20
55.227292209201387
 10
33.683387586805551
 20
55.227292209201387
 10
33.683387586805551
 20
55.227292209201387
 10
33.683387586805551
 20
56.417228190104161
 10
33.683387586805551
 20
56.417228190104161
 10
39.590176052517357
 20
56.417228190104161
 10
39.590176052517357
 20
56.417228190104161
 97
        0
 75
     0
 76
     1
 98
        1
 10
0.0
 20
0.0
  0
HATCH
  5
33
100
AcDbEntity
  8
レイヤー_1_0
 62
     7
100
AcDbHatch
 10
0.0
 20
0.0
 30
0.0
210
0.0
220
0.0
230
1.0
  2
SOLID
 70
     1
 71
     0
 91
        1
 92
        3
 72
     0
 73
     1
 93
        6
 10
49.024225531684024
 20
61.899408637152774
 10
49.789208984374994
 20
63.471405707465273
 10
52.933892144097214
 20
63.471405707465273
 10
52.933892144097214
 20
49.745111762152774
 10
51.36172281901041
 20
49.745111762152774
 10
51.36172281901041
 20
61.899408637152774
 97
        0
 75
     0
 76
     1
 98
        1
 10
0.0
 20
0.0
  0
HATCH
  5
32
100
AcDbEntity
  8
レイヤー_1_0
 62
     7
100
AcDbHatch
 10
0.0
 20
0.0
 30
0.0
210
0.0
220
0.0
230
1.0
  2
SOLID
 70
     1
 71
     0
 91
        4
 92
       16
 93
        1
 72
     4
 94
        3
 73
     0
 74
     0
 95
       23
 96
       19
 40
0.0
 40
0.0
 40
0.0
 40
0.0
 40
1.0
 40
1.0
 40
1.0
 40
2.0
 40
2.0
 40
2.0
 40
3.0
 40
3.0
 40
3.0
 40
4.0
 40
4.0
 40
4.0
 40
5.0
 40
5.0
 40
5.0
 40
6.0
 40
6.0
 40
6.0
 40
6.0
 10
60.795772298177077
 20
62.281814236111103
 10
60.795772298177077
 20
62.281814236111103
 10
60.795772298177077
 20
55.227292209201387
 10
60.795772298177077
 20
55.227292209201387
 10
60.795772298177077
 20
55.227292209201387
 10
61.985880533854164
 20
55.227292209201387
 10
61.985880533854164
 20
55.227292209201387
 10
61.985880533854164
 20
55.227292209201387
 10
61.985880533854164
 20
63.471405707465273
 10
61.985880533854164
 20
63.471405707465273
 10
61.985880533854164
 20
63.471405707465273
 10
60.030788845486107
 20
63.471405707465273
 10
60.030788845486107
 20
63.471405707465273
 10
60.030788845486107
 20
63.471405707465273
 10
59.648383246527771
 20
62.281814236111103
 10
59.648383246527771
 20
62.281814236111103
 10
59.648383246527771
 20
62.281814236111103
 10
60.795772298177077
 20
62.281814236111103
 10
60.795772298177077
 20
62.281814236111103
 97
        0
 92
       16
 93
        1
 72
     4
 94
        3
 73
     0
 74
     0
 95
       17
 96
       13
 40
0.0
 40
0.0
 40
0.0
 40
0.0
 40
1.0
 40
1.0
 40
1.0
 40
2.0
 40
2.0
 40
2.0
 40
3.0
 40
3.0
 40
3.0
 40
4.0
 40
4.0
 40
4.0
 40
4.0
 10
69.847760687934027
 20
63.471405707465273
 10
69.847760687934027
 20
63.471405707465273
 10
61.985880533854164
 20
49.745111762152774
 10
61.985880533854164
 20
49.745111762152774
 10
61.985880533854164
 20
49.745111762152774
 10
62.750863986545134
 20
49.320675998263887
 10
62.750863986545134
 20
49.320675998263887
 10
62.750863986545134
 20
49.320675998263887
 10
71.03735215928819
 20
63.089000108506937
 10
71.03735215928819
 20
63.089000108506937
 10
71.03735215928819
 20
63.089000108506937
 10
69.847760687934027
 20
63.471405707465273
 10
69.847760687934027
 20
63.471405707465273
 97
        0
 92
       16
 93
        1
 72
     4
 94
        3
 73
     0
 74
     0
 95
       32
 96
       28
 40
0.0
 40
0.0
 40
0.0
 40
0.0
 40
1.0
 40
1.0
 40
1.0
 40
2.0
 40
2.0
 40
2.0
 40
3.0
 40
3.0
 40
3.0
 40
4.0
 40
4.0
 40
4.0
 40
5.0
 40
5.0
 40
5.0
 40
6.0
 40
6.0
 40
6.0
 40
7.0
 40
7.0
 40
7.0
 40
8.0
 40
8.0
 40
8.0
 40
9.0
 40
9.0
 40
9.0
 40
9.0
 10
73.757082790798606
 20
51.69985894097222
 10
73.757082790798606
 20
51.69985894097222
 10
73.757082790798606
 20
58.37266438802083
 10
73.757082790798606
 20
58.37266438802083
 10
73.757082790798606
 20
58.37266438802083
 10
67.89266899956597
 20
50.892673068576386
 10
67.89266899956597
 20
50.892673068576386
 10
67.89266899956597
 20
50.892673068576386
 10
72.609865993923606
 20
50.892673068576386
 10
72.609865993923606
 20
50.892673068576386
 10
72.609865993923606
 20
50.892673068576386
 10
72.609865993923606
 20
49.745111762152774
 10
72.609865993923606
 20
49.745111762152774
 10
72.609865993923606
 20
49.745111762152774
 10
73.757082790798606
 20
49.745111762152774
 10
73.757082790798606
 20
49.745111762152774
 10
73.757082790798606
 20
49.745111762152774
 10
73.757082790798606
 20
50.892673068576386
 10
73.757082790798606
 20
50.892673068576386
 10
73.757082790798606
 20
50.892673068576386
 10
74.564613172743051
 20
50.892673068576386
 10
74.564613172743051
 20
50.892673068576386
 10
74.564613172743051
 20
50.892673068576386
 10
74.564613172743051
 20
51.69985894097222
 10
74.564613172743051
 20
51.69985894097222
 10
74.564613172743051
 20
51.69985894097222
 10
73.757082790798606
 20
51.69985894097222
 10
73.757082790798606
 20
51.69985894097222
 97
        0
 92
        1
 93
        1
 72
     4
 94
        3
 73
     0
 74
     0
 95
       14
 96
       10
 40
0.0
 40
0.0
 40
0.0
 40
0.0
 40
1.0
 40
1.0
 40
1.0
 40
2.0
 40
2.0
 40
2.0
 40
3.0
 40
3.0
 40
3.0
 40
3.0
 10
72.609865993923606
 20
51.69985894097222
 10
72.609865993923606
 20
51.69985894097222
 10
69.847760687934027
 20
51.69985894097222
 10
69.847760687934027
 20
51.69985894097222
 10
69.847760687934027
 20
51.69985894097222
 10
72.609865993923606
 20
55.227292209201387
 10
72.609865993923606
 20
55.227292209201387
 10
72.609865993923606
 20
55.227292209201387
 10
72.609865993923606
 20
51.69985894097222
 10
72.609865993923606
 20
51.69985894097222
 97
        0
 75
     0
 76
     1
 98
        1
 10
0.0
 20
0.0
  0
HATCH
  5
31
100
AcDbEntity
  8
レイヤー_1_0
 62
     7
100
AcDbHatch
 10
0.0
 20
0.0
 30
0.0
210
0.0
220
0.0
230
1.0
  2
SOLID
 70
     1
 71
     0
 91
        3
 92
       16
 93
        1
 72
     4
 94
        3
 73
     0
 74
     0
 95
       50
 96
       46
 40
0.0
 40
0.0
 40
0.0
 40
0.0
 40
1.0
 40
1.0
 40
1.0
 40
2.0
 40
2.0
 40
2.0
 40
3.0
 40
3.0
 40
3.0
 40
4.0
 40
4.0
 40
4.0
 40
5.0
 40
5.0
 40
5.0
 40
6.0
 40
6.0
 40
6.0
 40
7.0
 40
7.0
 40
7.0
 40
8.0
 40
8.0
 40
8.0
 40
9.0
 40
9.0
 40
9.0
 40
10.0
 40
10.0
 40
10.0
 40
11.0
 40
11.0
 40
11.0
 40
12.0
 40
12.0
 40
12.0
 40
13.0
 40
13.0
 40
13.0
 40
14.0
 40
14.0
 40
14.0
 40
15.0
 40
15.0
 40
15.0
 40
15.0
 10
77.32671847873263
 20
49.745111762152774
 10
80.471746148003461
 20
49.745111762152774
 10
80.471746148003461
 20
49.745111762152774
 10
80.471746148003461
 20
49.745111762152774
 10
81.23638509114582
 20
49.745111762152774
 10
82.043915473090266
 20
49.745111762152774
 10
82.426493326822907
 20
49.745111762152774
 10
83.191476779513877
 20
49.745111762152774
 10
83.616429307725681
 20
50.127861870659714
 10
83.999007161458323
 20
50.51026746961805
 10
84.381068250868054
 20
50.892673068576386
 10
84.763646104600681
 20
51.318142361111107
 10
84.763646104600681
 20
51.69985894097222
 10
85.188598632812486
 20
52.465014648437496
 10
85.188598632812486
 20
52.847420247395831
 10
85.188598632812486
 20
53.272889539930553
 10
85.188598632812486
 20
54.420106336805553
 10
85.188598632812486
 20
55.227292209201387
 10
84.763646104600681
 20
55.610042317708327
 10
83.999007161458323
 20
56.417228190104161
 10
83.616429307725681
 20
56.799633789062497
 10
82.808898925781236
 20
56.799633789062497
 10
83.191476779513877
 20
57.182039388020826
 10
83.616429307725681
 20
57.564789496527773
 10
83.616429307725681
 20
57.989914279513883
 10
83.999007161458323
 20
58.37266438802083
 10
83.999007161458323
 20
59.136786566840271
 10
83.999007161458323
 20
59.562255859374993
 10
83.999007161458323
 20
60.327067057291664
 10
83.999007161458323
 20
60.709472656249993
 10
83.616429307725681
 20
61.134252929687491
 10
83.616429307725681
 20
61.899408637152774
 10
83.191476779513877
 20
62.281814236111103
 10
82.808898925781236
 20
62.706594509548609
 10
82.426493326822907
 20
62.706594509548609
 10
82.043915473090266
 20
63.089000108506937
 10
81.618962944878461
 20
63.089000108506937
 10
80.853979492187491
 20
63.471405707465273
 10
80.471746148003461
 20
63.471405707465273
 10
79.664215766059016
 20
63.471405707465273
 10
77.32671847873263
 20
63.471405707465273
 10
77.32671847873263
 20
63.471405707465273
 10
77.32671847873263
 20
63.471405707465273
 10
77.32671847873263
 20
63.471405707465273
 10
77.32671847873263
 20
49.745111762152774
 10
77.32671847873263
 20
49.745111762152774
 97
        0
 92
        1
 93
        1
 72
     4
 94
        3
 73
     0
 74
     0
 95
       38
 96
       34
 40
0.0
 40
0.0
 40
0.0
 40
0.0
 40
1.0
 40
1.0
 40
1.0
 40
2.0
 40
2.0
 40
2.0
 40
3.0
 40
3.0
 40
3.0
 40
4.0
 40
4.0
 40
4.0
 40
5.0
 40
5.0
 40
5.0
 40
6.0
 40
6.0
 40
6.0
 40
7.0
 40
7.0
 40
7.0
 40
8.0
 40
8.0
 40
8.0
 40
9.0
 40
9.0
 40
9.0
 40
10.0
 40
10.0
 40
10.0
 40
11.0
 40
11.0
 40
11.0
 40
11.0
 10
78.474279785156241
 20
57.182039388020826
 10
78.474279785156241
 20
61.899408637152774
 10
78.474279785156241
 20
61.899408637152774
 10
78.474279785156241
 20
61.899408637152774
 10
80.046793619791657
 20
61.899408637152774
 10
80.046793619791657
 20
61.899408637152774
 10
80.046793619791657
 20
61.899408637152774
 10
80.471746148003461
 20
61.899408637152774
 10
80.853979492187491
 20
61.899408637152774
 10
81.23638509114582
 20
61.899408637152774
 10
81.23638509114582
 20
61.899408637152774
 10
81.618962944878461
 20
61.516658528645827
 10
81.618962944878461
 20
61.516658528645827
 10
82.043915473090266
 20
61.134252929687491
 10
82.426493326822907
 20
61.134252929687491
 10
82.426493326822907
 20
60.709472656249993
 10
82.426493326822907
 20
60.327067057291664
 10
82.426493326822907
 20
59.944661458333329
 10
82.426493326822907
 20
59.562255859374993
 10
82.426493326822907
 20
59.136786566840271
 10
82.426493326822907
 20
58.755069986979159
 10
82.426493326822907
 20
58.755069986979159
 10
82.043915473090266
 20
58.37266438802083
 10
82.043915473090266
 20
57.989914279513883
 10
81.618962944878461
 20
57.989914279513883
 10
81.618962944878461
 20
57.564789496527773
 10
81.23638509114582
 20
57.564789496527773
 10
80.853979492187491
 20
57.182039388020826
 10
80.853979492187491
 20
57.182039388020826
 10
80.471746148003461
 20
57.182039388020826
 10
79.664215766059016
 20
57.182039388020826
 10
79.664215766059016
 20
57.182039388020826
 10
78.474279785156241
 20
57.182039388020826
 10
78.474279785156241
 20
57.182039388020826
 97
        0
 92
        1
 93
        1
 72
     4
 94
        3
 73
     0
 74
     0
 95
       38
 96
       34
 40
0.0
 40
0.0
 40
0.0
 40
0.0
 40
1.0
 40
1.0
 40
1.0
 40
2.0
 40
2.0
 40
2.0
 40
3.0
 40
3.0
 40
3.0
 40
4.0
 40
4.0
 40
4.0
 40
5.0
 40
5.0
 40
5.0
 40
6.0
 40
6.0
 40
6.0
 40
7.0
 40
7.0
 40
7.0
 40
8.0
 40
8.0
 40
8.0
 40
9.0
 40
9.0
 40
9.0
 40
10.0
 40
10.0
 40
10.0
 40
11.0
 40
11.0
 40
11.0
 40
11.0
 10
78.474279785156241
 20
50.892673068576386
 10
78.474279785156241
 20
55.992447916666663
 10
78.474279785156241
 20
55.992447916666663
 10
78.474279785156241
 20
55.992447916666663
 10
80.046793619791657
 20
55.992447916666663
 10
80.046793619791657
 20
55.992447916666663
 10
80.046793619791657
 20
55.992447916666663
 10
80.853979492187491
 20
55.992447916666663
 10
81.23638509114582
 20
55.992447916666663
 10
81.618962944878461
 20
55.992447916666663
 10
82.043915473090266
 20
55.610042317708327
 10
82.426493326822907
 20
55.610042317708327
 10
82.426493326822907
 20
55.610042317708327
 10
82.808898925781236
 20
55.227292209201387
 10
83.191476779513877
 20
55.227292209201387
 10
83.616429307725681
 20
54.844886610243051
 10
83.616429307725681
 20
54.420106336805553
 10
83.616429307725681
 20
54.037700737847217
 10
83.616429307725681
 20
53.655295138888881
 10
83.616429307725681
 20
53.272889539930553
 10
83.616429307725681
 20
52.847420247395831
 10
83.616429307725681
 20
52.465014648437496
 10
83.191476779513877
 20
52.082264539930549
 10
83.191476779513877
 20
51.69985894097222
 10
82.808898925781236
 20
51.69985894097222
 10
82.426493326822907
 20
51.318142361111107
 10
82.426493326822907
 20
51.318142361111107
 10
82.043915473090266
 20
50.892673068576386
 10
81.618962944878461
 20
50.892673068576386
 10
81.23638509114582
 20
50.892673068576386
 10
80.471746148003461
 20
50.892673068576386
 10
80.471746148003461
 20
50.892673068576386
 10
78.474279785156241
 20
50.892673068576386
 10
78.474279785156241
 20
50.892673068576386
 97
        0
 75
     0
 76
     1
 98
        1
 10
0.0
 20
0.0
  0
HATCH
  5
30
100
AcDbEntity
  8
レイヤー_1_0
 62
     7
100
AcDbHatch
 10
0.0
 20
0.0
 30
0.0
210
0.0
220
0.0
230
1.0
  2
SOLID
 70
     1
 71
     0
 91
        2
 92
       16
 93
        1
 72
     4
 94
        3
 73
     0
 74
     0
 95
       47
 96
       43
 40
0.0
 40
0.0
 40
0.0
 40
0.0
 40
1.0
 40
1.0
 40
1.0
 40
2.0
 40
2.0
 40
2.0
 40
3.0
 40
3.0
 40
3.0
 40
4.0
 40
4.0
 40
4.0
 40
5.0
 40
5.0
 40
5.0
 40
6.0
 40
6.0
 40
6.0
 40
7.0
 40
7.0
 40
7.0
 40
8.0
 40
8.0
 40
8.0
 40
9.0
 40
9.0
 40
9.0
 40
10.0
 40
10.0
 40
10.0
 40
11.0
 40
11.0
 40
11.0
 40
12.0
 40
12.0
 40
12.0
 40
13.0
 40
13.0
 40
13.0
 40
14.0
 40
14.0
 40
14.0
 40
14.0
 10
189.30489637586803
 20
221.85519205729165
 10
195.97666829427081
 20
217.13833957248261
 10
195.97666829427081
 20
217.13833957248261
 10
195.97666829427081
 20
217.13833957248261
 10
196.35941840277775
 20
216.7133870442708
 10
197.16625976562497
 20
216.33098144531249
 10
197.54900987413194
 20
215.94840359157985
 10
197.93141547309025
 20
215.94840359157985
 10
198.7386013454861
 20
215.94840359157985
 10
199.12100694444442
 20
215.94840359157985
 10
199.8861626519097
 20
215.94840359157985
 10
200.69403754340277
 20
215.94840359157985
 10
201.45815972222221
 20
216.33098144531249
 10
202.26603461371525
 20
216.7133870442708
 10
202.64878472222222
 20
217.52091742621525
 10
203.03119032118053
 20
218.28555636935761
 10
203.45597059461804
 20
219.09308675130205
 10
203.83837619357638
 20
219.85807020399304
 10
203.83837619357638
 20
220.66560058593748
 10
203.83837619357638
 20
221.85519205729165
 10
203.45597059461804
 20
223.00275336371527
 10
202.26603461371525
 20
223.81028374565969
 10
201.45815972222221
 20
225.00021972656248
 10
200.3112874348958
 20
225.38279758029512
 10
199.12100694444442
 20
225.38279758029512
 10
197.54900987413194
 20
225.38279758029512
 10
196.74182400173609
 20
225.00021972656248
 10
195.97666829427081
 20
224.19268934461803
 10
194.78638780381942
 20
223.42770589192708
 10
194.40398220486108
 20
222.23776991102429
 10
194.40398220486108
 20
221.04800618489583
 10
194.40398220486108
 20
220.66560058593748
 10
194.40398220486108
 20
220.66560058593748
 10
194.40398220486108
 20
220.28302273220484
 10
194.40398220486108
 20
220.28302273220484
 10
194.78638780381942
 20
219.85807020399304
 10
194.78638780381942
 20
219.4754923502604
 10
190.07005208333331
 20
223.00275336371527
 10
190.07005208333331
 20
223.00275336371527
 10
190.07005208333331
 20
223.00275336371527
 10
190.07005208333331
 20
223.00275336371527
 10
189.30489637586803
 20
221.85519205729165
 10
189.30489637586803
 20
221.85519205729165
 97
        0
 92
        1
 93
        1
 72
     4
 94
        3
 73
     0
 74
     0
 95
       29
 96
       25
 40
0.0
 40
0.0
 40
0.0
 40
0.0
 40
1.0
 40
1.0
 40
1.0
 40
2.0
 40
2.0
 40
2.0
 40
3.0
 40
3.0
 40
3.0
 40
4.0
 40
4.0
 40
4.0
 40
5.0
 40
5.0
 40
5.0
 40
6.0
 40
6.0
 40
6.0
 40
7.0
 40
7.0
 40
7.0
 40
8.0
 40
8.0
 40
8.0
 40
8.0
 10
195.97666829427081
 20
220.66560058593748
 10
195.97666829427081
 20
221.43058403862844
 10
196.35941840277775
 20
222.23776991102429
 10
196.74182400173609
 20
223.00275336371527
 10
197.54900987413194
 20
223.42770589192708
 10
198.3138210720486
 20
223.81028374565969
 10
199.12100694444442
 20
223.81028374565969
 10
199.8861626519097
 20
223.81028374565969
 10
200.69403754340277
 20
223.42770589192708
 10
201.45815972222221
 20
223.00275336371527
 10
201.88362901475693
 20
222.23776991102429
 10
202.26603461371525
 20
221.43058403862844
 10
202.26603461371525
 20
220.66560058593748
 10
202.26603461371525
 20
219.85807020399304
 10
201.88362901475693
 20
219.09308675130205
 10
201.45815972222221
 20
218.28555636935761
 10
200.69403754340277
 20
217.52091742621525
 10
199.8861626519097
 20
217.52091742621525
 10
199.12100694444442
 20
217.52091742621525
 10
198.3138210720486
 20
217.52091742621525
 10
197.54900987413194
 20
217.52091742621525
 10
196.74182400173609
 20
218.28555636935761
 10
196.35941840277775
 20
219.09308675130205
 10
195.97666829427081
 20
219.85807020399304
 10
195.97666829427081
 20
220.66560058593748
 97
        0
 75
     0
 76
     1
 98
        1
 10
0.0
 20
0.0
  0
HATCH
  5
2F
100
AcDbEntity
  8
レイヤー_1_0
 62
     7
100
AcDbHatch
 10
0.0
 20
0.0
 30
0.0
210
0.0
220
0.0
230
1.0
  2
SOLID
 70
     1
 71
     0
 91
        2
 92
       16
 93
        1
 72
     4
 94
        3
 73
     0
 74
     0
 95
       47
 96
       43
 40
0.0
 40
0.0
 40
0.0
 40
0.0
 40
1.0
 40
1.0
 40
1.0
 40
2.0
 40
2.0
 40
2.0
 40
3.0
 40
3.0
 40
3.0
 40
4.0
 40
4.0
 40
4.0
 40
5.0
 40
5.0
 40
5.0
 40
6.0
 40
6.0
 40
6.0
 40
7.0
 40
7.0
 40
7.0
 40
8.0
 40
8.0
 40
8.0
 40
9.0
 40
9.0
 40
9.0
 40
10.0
 40
10.0
 40
10.0
 40
11.0
 40
11.0
 40
11.0
 40
12.0
 40
12.0
 40
12.0
 40
13.0
 40
13.0
 40
13.0
 40
14.0
 40
14.0
 40
14.0
 40
14.0
 10
189.68730197482637
 20
232.43714735243054
 10
189.68730197482637
 20
231.24703911675346
 10
189.68730197482637
 20
230.48205566406247
 10
190.45176866319443
 20
229.67452528211803
 10
191.25964355468747
 20
229.29211968315971
 10
192.02445475260416
 20
228.52748074001735
 10
192.83164062499998
 20
228.10235595703122
 10
194.02157660590277
 20
227.71995035807291
 10
195.16879340277777
 20
227.33737250434027
 10
196.74182400173609
 20
227.33737250434027
 10
197.54900987413194
 20
227.33737250434027
 10
198.3138210720486
 20
227.71995035807291
 10
199.12100694444442
 20
227.71995035807291
 10
200.3112874348958
 20
228.10235595703122
 10
200.69403754340277
 20
228.10235595703122
 10
201.45815972222221
 20
228.90954182942707
 10
202.26603461371525
 20
229.29211968315971
 10
202.64878472222222
 20
229.67452528211803
 10
203.03119032118053
 20
230.48205566406247
 10
203.45597059461804
 20
230.86463351779511
 10
203.83837619357638
 20
231.67216389973956
 10
203.83837619357638
 20
232.43714735243054
 10
203.83837619357638
 20
233.24433322482636
 10
203.45597059461804
 20
233.62673882378471
 10
203.03119032118053
 20
234.39189453124999
 10
202.64878472222222
 20
234.81684705946179
 10
202.26603461371525
 20
235.58183051215275
 10
201.88362901475693
 20
235.96423611111109
 10
201.07575412326386
 20
236.38936089409719
 10
200.3112874348958
 20
236.77142198350691
 10
199.50375705295136
 20
237.15399983723955
 10
198.3138210720486
 20
237.15399983723955
 10
197.54900987413194
 20
237.15399983723955
 10
196.74182400173609
 20
237.15399983723955
 10
195.16879340277777
 20
237.15399983723955
 10
194.02157660590277
 20
237.15399983723955
 10
192.83164062499998
 20
236.77142198350691
 10
192.02445475260416
 20
236.38936089409719
 10
191.25964355468747
 20
235.58183051215275
 10
190.45176866319443
 20
234.81684705946179
 10
189.68730197482637
 20
234.00931667751735
 10
189.68730197482637
 20
233.24433322482636
 10
189.68730197482637
 20
232.43714735243054
 97
        0
 92
        1
 93
        1
 72
     4
 94
        3
 73
     0
 74
     0
 95
       38
 96
       34
 40
0.0
 40
0.0
 40
0.0
 40
0.0
 40
1.0
 40
1.0
 40
1.0
 40
2.0
 40
2.0
 40
2.0
 40
3.0
 40
3.0
 40
3.0
 40
4.0
 40
4.0
 40
4.0
 40
5.0
 40
5.0
 40
5.0
 40
6.0
 40
6.0
 40
6.0
 40
7.0
 40
7.0
 40
7.0
 40
8.0
 40
8.0
 40
8.0
 40
9.0
 40
9.0
 40
9.0
 40
10.0
 40
10.0
 40
10.0
 40
11.0
 40
11.0
 40
11.0
 40
11.0
 10
190.87689344618053
 20
232.43714735243054
 10
190.87689344618053
 20
232.81955295138886
 10
191.25964355468747
 20
233.62673882378471
 10
191.64204915364581
 20
234.00931667751735
 10
192.02445475260416
 20
234.81684705946179
 10
192.83164062499998
 20
235.19942491319443
 10
193.59679633246526
 20
235.19942491319443
 10
194.40398220486108
 20
235.58183051215275
 10
195.59426269531249
 20
235.96423611111109
 10
196.74182400173609
 20
235.96423611111109
 10
197.54900987413194
 20
235.96423611111109
 10
198.7386013454861
 20
235.58183051215275
 10
199.50375705295136
 20
235.19942491319443
 10
200.3112874348958
 20
235.19942491319443
 10
201.07575412326386
 20
234.81684705946179
 10
201.45815972222221
 20
234.00931667751735
 10
202.26603461371525
 20
233.62673882378471
 10
202.26603461371525
 20
233.24433322482636
 10
202.26603461371525
 20
232.43714735243054
 10
202.26603461371525
 20
231.24703911675346
 10
201.88362901475693
 20
230.48205566406247
 10
200.69403754340277
 20
230.09965006510416
 10
199.50375705295136
 20
229.29211968315971
 10
198.3138210720486
 20
228.90954182942707
 10
196.74182400173609
 20
228.90954182942707
 10
195.59426269531249
 20
228.90954182942707
 10
194.40398220486108
 20
228.90954182942707
 10
193.59679633246526
 20
229.29211968315971
 10
192.83164062499998
 20
229.67452528211803
 10
192.02445475260416
 20
230.09965006510416
 10
191.64204915364581
 20
230.48205566406247
 10
191.25964355468747
 20
231.24703911675346
 10
190.87689344618053
 20
231.67216389973956
 10
190.87689344618053
 20
232.43714735243054
 97
        0
 75
     0
 76
     1
 98
        1
 10
0.0
 20
0.0
  0
HATCH
  5
2E
100
AcDbEntity
  8
レイヤー_1_0
 62
     7
100
AcDbHatch
 10
0.0
 20
0.0
 30
0.0
210
0.0
220
0.0
230
1.0
  2
SOLID
 70
     1
 71
     0
 91
        1
 92
        3
 72
     0
 73
     1
 93
        4
 10
198.3138210720486
 20
208.08652343749998
 10
199.8861626519097
 20
208.08652343749998
 10
199.8861626519097
 20
204.13465440538192
 10
198.3138210720486
 20
204.13465440538192
 97
        0
 75
     0
 76
     1
 98
        1
 10
0.0
 20
0.0
  0
HATCH
  5
2D
100
AcDbEntity
  8
レイヤー_1_0
 62
     7
100
AcDbHatch
 10
0.0
 20
0.0
 30
0.0
210
0.0
220
0.0
230
1.0
  2
SOLID
 70
     1
 71
     0
 91
        1
 92
        1
 93
        1
 72
     4
 94
        3
 73
     0
 74
     0
 95
       74
 96
       70
 40
0.0
 40
0.0
 40
0.0
 40
0.0
 40
1.0
 40
1.0
 40
1.0
 40
2.0
 40
2.0
 40
2.0
 40
3.0
 40
3.0
 40
3.0
 40
4.0
 40
4.0
 40
4.0
 40
5.0
 40
5.0
 40
5.0
 40
6.0
 40
6.0
 40
6.0
 40
7.0
 40
7.0
 40
7.0
 40
8.0
 40
8.0
 40
8.0
 40
9.0
 40
9.0
 40
9.0
 40
10.0
 40
10.0
 40
10.0
 40
11.0
 40
11.0
 40
11.0
 40
12.0
 40
12.0
 40
12.0
 40
13.0
 40
13.0
 40
13.0
 40
14.0
 40
14.0
 40
14.0
 40
15.0
 40
15.0
 40
15.0
 40
16.0
 40
16.0
 40
16.0
 40
17.0
 40
17.0
 40
17.0
 40
18.0
 40
18.0
 40
18.0
 40
19.0
 40
19.0
 40
19.0
 40
20.0
 40
20.0
 40
20.0
 40
21.0
 40
21.0
 40
21.0
 40
22.0
 40
22.0
 40
22.0
 40
23.0
 40
23.0
 40
23.0
 40
23.0
 10
202.26603461371525
 20
195.89019639756944
 10
202.26603461371525
 20
195.89019639756944
 10
202.26603461371525
 20
195.89019639756944
 10
203.45597059461804
 20
195.89019639756944
 10
203.45597059461804
 20
195.89019639756944
 10
203.45597059461804
 20
195.89019639756944
 10
203.45597059461804
 20
186.88092719184027
 10
203.45597059461804
 20
186.88092719184027
 10
203.45597059461804
 20
186.88092719184027
 10
197.54900987413194
 20
191.98052978515622
 10
196.74182400173609
 20
192.74551323784721
 10
195.97666829427081
 20
193.55269911024303
 10
195.16879340277777
 20
193.93527696397567
 10
194.40398220486108
 20
194.31768256293401
 10
194.02157660590277
 20
194.31768256293401
 10
193.59679633246526
 20
194.31768256293401
 10
192.83164062499998
 20
194.31768256293401
 10
192.02445475260416
 20
193.93527696397567
 10
191.64204915364581
 20
193.55269911024303
 10
191.25964355468747
 20
193.17029351128471
 10
190.87689344618053
 20
192.36310763888886
 10
190.87689344618053
 20
191.59812418619791
 10
190.87689344618053
 20
191.17299940321178
 10
190.87689344618053
 20
190.79059380425346
 10
191.25964355468747
 20
190.40801595052082
 10
191.25964355468747
 20
190.02561035156248
 10
191.64204915364581
 20
189.60083007812497
 10
192.02445475260416
 20
189.21842447916666
 10
192.44923502604166
 20
189.21842447916666
 10
192.44923502604166
 20
189.21842447916666
 10
192.83164062499998
 20
189.21842447916666
 10
192.83164062499998
 20
188.83584662543402
 10
193.21439073350692
 20
188.83584662543402
 10
193.59679633246526
 20
188.83584662543402
 10
193.59679633246526
 20
188.83584662543402
 10
193.59679633246526
 20
188.83584662543402
 10
193.59679633246526
 20
187.26333279079859
 10
193.21439073350692
 20
187.26333279079859
 10
192.83164062499998
 20
187.64591064453123
 10
192.44923502604166
 20
187.64591064453123
 10
192.02445475260416
 20
187.64591064453123
 10
191.64204915364581
 20
187.64591064453123
 10
191.25964355468747
 20
188.02831624348957
 10
190.87689344618053
 20
188.45344102647567
 10
190.45176866319443
 20
188.83584662543402
 10
190.07005208333331
 20
189.60083007812497
 10
189.68730197482637
 20
190.02561035156248
 10
189.30489637586803
 20
190.79059380425346
 10
189.30489637586803
 20
191.59812418619791
 10
189.30489637586803
 20
192.74551323784721
 10
190.07005208333331
 20
193.93527696397567
 10
190.45176866319443
 20
194.74280734592011
 10
191.25964355468747
 20
195.5077907986111
 10
192.44923502604166
 20
195.89019639756944
 10
193.59679633246526
 20
195.89019639756944
 10
194.02157660590277
 20
195.89019639756944
 10
194.40398220486108
 20
195.89019639756944
 10
194.78638780381942
 20
195.5077907986111
 10
195.59426269531249
 20
195.5077907986111
 10
195.97666829427081
 20
195.12521294487846
 10
196.35941840277775
 20
194.74280734592011
 10
197.16625976562497
 20
194.31768256293401
 10
197.93141547309025
 20
193.93527696397567
 10
198.7386013454861
 20
192.74551323784721
 10
198.7386013454861
 20
192.74551323784721
 10
198.7386013454861
 20
192.74551323784721
 10
202.26603461371525
 20
190.02561035156248
 10
202.26603461371525
 20
190.02561035156248
 10
202.26603461371525
 20
195.89019639756944
 10
202.26603461371525
 20
195.89019639756944
 97
        0
 75
     0
 76
     1
 98
        1
 10
0.0
 20
0.0
  0
LINE
  5
2C
100
AcDbEntity
  8
レイヤー_1_0
 62
     7
100
AcDbLine
 10
39.207598
 20
105.925662
 30
0.0
 11
39.590176
 21
105.925662
 31
0.0
  0
LINE
  5
2B
100
AcDbEntity
  8
レイヤー_1_0
 62
     7
100
AcDbLine
 10
39.207598
 20
105.543256
 30
0.0
 11
39.207598
 21
105.925662
 31
0.0
  0
ENDSEC
  0
SECTION
  2
OBJECTS
  0
DICTIONARY
  5
19
100
AcDbDictionary
280
     0
281
     1
  3
ACAD_GROUP
350
1A
  3
ACAD_MLINESTYLE
350
1B
  3
ACAD_LAYOUT
350
1E
  3
ACAD_PLOTSETTINGS
350
22
  3
ACAD_PLOTSTYLENAME
350
1F
  3
ACAD_WIPEOUT_VARS
350
23
  0
DICTIONARY
  5
1A
102
{ACAD_REACTORS
330
19
102
}
100
AcDbDictionary
280
     0
281
     1
  0
DICTIONARY
  5
1B
102
{ACAD_REACTORS
330
19
102
}
100
AcDbDictionary
280
     0
281
     1
  3
Standard
350
1C
  0
MLINESTYLE
  5
1C
102
{ACAD_REACTORS
330
1B
102
}
100
AcDbMlineStyle
  2
Standard
 70
     0
  3

 62
     0
 51
90.0
 52
90.0
 71
     2
 49
0.5
 62
   256
  6
BYLAYER
 49
-0.5
 62
   256
  6
BYLAYER
  0
ACDBDICTIONARYWDFLT
  5
1F
102
{ACAD_REACTORS
330
19
102
}
100
AcDbDictionary
281
     1
  3
Normal
350
1D
100
AcDbDictionaryWithDefault
340
1D
  0
ACDBPLACEHOLDER
  5
1D
102
{ACAD_REACTORS
330
1F
102
}
  0
LAYOUT
  5
20
102
{ACAD_REACTORS
330
1E
102
}
100
AcDbPlotSettings
  1

  2

  4

  6

 40
0.0
 41
0.0
 42
0.0
 43
0.0
 44
0.0
 45
0.0
 46
0.0
 47
0.0
 48
0.0
 49
0.0
140
0.0
141
0.0
142
1.0
143
1.0
 70
  1024
 72
     0
 73
     0
 74
     0
  7

 75
     0
147
1.0
148
0.0
149
0.0
100
AcDbLayout
  1
Model
 70
     0
 71
     0
 10
0.0
 20
0.0
 11
0.0
 21
0.0
 12
0.0
 22
0.0
 32
0.0
 14
0.0
 24
0.0
 34
0.0
 15
0.0
 25
0.0
 35
0.0
146
0.0
 13
0.0
 23
0.0
 33
0.0
 16
0.0
 26
0.0
 36
0.0
 17
0.0
 27
0.0
 37
0.0
 76
     0
330
A
331
0
345
0
346
0
  0
LAYOUT
  5
21
102
{ACAD_REACTORS
330
1E
102
}
100
AcDbPlotSettings
  1

  2

  4

  6

 40
0.0
 41
0.0
 42
0.0
 43
0.0
 44
0.0
 45
0.0
 46
0.0
 47
0.0
 48
0.0
 49
0.0
140
0.0
141
0.0
142
1.0
143
1.0
 70
     0
 72
     0
 73
     0
 74
     0
  7

 75
     0
147
1.0
148
0.0
149
0.0
100
AcDbLayout
  1
Layout1
 70
     0
 71
     0
 10
0.0
 20
0.0
 11
0.0
 21
0.0
 12
0.0
 22
0.0
 32
0.0
 14
0.0
 24
0.0
 34
0.0
 15
0.0
 25
0.0
 35
0.0
146
0.0
 13
0.0
 23
0.0
 33
0.0
 16
0.0
 26
0.0
 36
0.0
 17
0.0
 27
0.0
 37
0.0
 76
     0
330
B
331
0
345
0
346
0
  0
DICTIONARY
  5
1E
102
{ACAD_REACTORS
330
19
102
}
100
AcDbDictionary
280
     0
281
     1
  3
Layout1
350
21
  3
Model
350
20
  0
DICTIONARY
  5
22
102
{ACAD_REACTORS
330
19
102
}
100
AcDbDictionary
280
     0
281
     1
  0
WIPEOUTVARIABLES
  5
23
100
AcDbWipeoutVariables
 70
     1
  0
ENDSEC
  0
EOF
