999
Erzeugt mit innoplus bad 
0
SECTION
2
HEADER
9
$ACADVER
1
AC1009
9
$DWGCODEPAGE
3
ISO8859-1
0
ENDSEC
0
SECTION
2
TABLES
0
TABLE
2
LAYER
70
1
0
LAYER
2
0
70
0
62
7
6
CONTINUOUS
0
ENDTAB
0
ENDSEC
0
SECTION
2
ENTITIES
0
LINE
8
0
6
CONTINUOUS
10
122.654835
20
-112.307790
30
0.0
11
122.654225
21
-112.017840
31
0.0
0
LINE
8
0
6
CONTINUOUS
10
122.655425
20
-114.043960
30
0.0
11
122.655425
21
-113.754710
31
0.0
0
LINE
8
0
6
CONTINUOUS
10
122.655425
20
-113.754710
30
0.0
11
122.655425
21
-113.465460
31
0.0
0
LINE
8
0
6
CONTINUOUS
10
122.655425
20
-113.176210
30
0.0
11
122.655425
21
-112.886970
31
0.0
0
LINE
8
0
6
CONTINUOUS
10
34.574975
20
-23.277450
30
0.0
11
33.119695
21
-23.812450
31
0.0
0
LINE
8
0
6
CONTINUOUS
10
122.655425
20
-113.465460
30
0.0
11
122.655425
21
-113.176210
31
0.0
0
LINE
8
0
6
CONTINUOUS
10
36.718775
20
-23.347510
30
0.0
11
36.088575
21
-23.053320
31
0.0
0
LINE
8
0
6
CONTINUOUS
10
35.402155
20
-23.007890
30
0.0
11
34.737065
21
-23.217870
31
0.0
0
LINE
8
0
6
CONTINUOUS
10
34.737065
20
-23.217870
30
0.0
11
34.574975
21
-23.277450
31
0.0
0
LINE
8
0
6
CONTINUOUS
10
34.139865
20
-23.580230
30
0.0
11
34.737065
21
-23.217870
31
0.0
0
LINE
8
0
6
CONTINUOUS
10
36.088575
20
-23.053320
30
0.0
11
35.402155
21
-23.007890
31
0.0
0
LINE
8
0
6
CONTINUOUS
10
33.587695
20
-24.012180
30
0.0
11
34.139865
21
-23.580230
31
0.0
0
LINE
8
0
6
CONTINUOUS
10
122.312875
20
-105.852000
30
0.0
11
120.537825
21
-100.171050
31
0.0
0
LINE
8
0
6
CONTINUOUS
10
122.653695
20
-111.759940
30
0.0
11
122.312875
21
-105.852000
31
0.0
0
LINE
8
0
6
CONTINUOUS
10
114.985015
20
-126.847540
30
0.0
11
118.801825
21
-122.652460
31
0.0
0
LINE
8
0
6
CONTINUOUS
10
118.801825
20
-122.652460
30
0.0
11
121.446635
21
-117.508090
31
0.0
0
LINE
8
0
6
CONTINUOUS
10
122.654225
20
-112.017840
30
0.0
11
122.653695
21
-111.759940
31
0.0
0
LINE
8
0
6
CONTINUOUS
10
121.446635
20
-117.508090
30
0.0
11
122.653695
21
-111.759940
31
0.0
0
LINE
8
0
6
CONTINUOUS
10
120.537825
20
-100.171050
30
0.0
11
117.460015
21
-95.203710
31
0.0
0
LINE
8
0
6
CONTINUOUS
10
117.460015
20
-95.203710
30
0.0
11
113.290455
21
-90.906520
31
0.0
0
LINE
8
0
6
CONTINUOUS
10
113.290455
20
-90.906520
30
0.0
11
108.893895
21
-87.015140
31
0.0
0
LINE
8
0
6
CONTINUOUS
10
37.283735
20
-23.766940
30
0.0
11
36.718775
21
-23.347510
31
0.0
0
LINE
8
0
6
CONTINUOUS
10
96.605645
20
-76.138860
30
0.0
11
92.901265
21
-72.860120
31
0.0
0
LINE
8
0
6
CONTINUOUS
10
100.310015
20
-79.417580
30
0.0
11
96.605645
21
-76.138860
31
0.0
0
LINE
8
0
6
CONTINUOUS
10
108.893895
20
-87.015140
30
0.0
11
104.014395
21
-82.696300
31
0.0
0
LINE
8
0
6
CONTINUOUS
10
104.014395
20
-82.696300
30
0.0
11
100.310015
21
-79.417580
31
0.0
0
LINE
8
0
6
CONTINUOUS
10
122.655435
20
-112.597720
30
0.0
11
122.654835
21
-112.307790
31
0.0
0
LINE
8
0
6
CONTINUOUS
10
122.655425
20
-112.886970
30
0.0
11
122.655435
21
-112.597720
31
0.0
0
LINE
8
0
6
CONTINUOUS
10
32.506845
20
-24.173300
30
0.0
11
31.966185
21
-24.586640
31
0.0
0
LINE
8
0
6
CONTINUOUS
10
33.088075
20
-23.824060
30
0.0
11
32.506845
21
-24.173300
31
0.0
0
LINE
8
0
6
CONTINUOUS
10
79.174737
20
-115.314282
30
0.0
11
81.018165
21
-121.255030
31
0.0
0
LINE
8
0
6
CONTINUOUS
10
30.622845
20
-26.152990
30
0.0
11
30.535035
21
-26.731950
31
0.0
0
LINE
8
0
6
CONTINUOUS
10
30.535035
20
-26.731950
30
0.0
11
30.542575
21
-26.784400
31
0.0
0
LINE
8
0
6
CONTINUOUS
10
30.955405
20
-25.598750
30
0.0
11
30.622845
21
-26.152990
31
0.0
0
LINE
8
0
6
CONTINUOUS
10
32.279835
20
-26.979790
30
0.0
11
32.561865
21
-27.630690
31
0.0
0
LINE
8
0
6
CONTINUOUS
10
30.542575
20
-26.784400
30
0.0
11
30.637325
21
-27.333580
31
0.0
0
LINE
8
0
6
CONTINUOUS
10
30.637325
20
-27.333580
30
0.0
11
30.687935
21
-27.442510
31
0.0
0
LINE
8
0
6
CONTINUOUS
10
79.511511
20
-115.851356
30
0.0
11
80.786985
21
-118.940510
31
0.0
0
LINE
8
0
6
CONTINUOUS
10
67.828085
20
-93.376880
30
0.0
11
32.730425
21
-27.943800
31
0.0
0
LINE
8
0
6
CONTINUOUS
10
32.131835
20
-26.291010
30
0.0
11
32.279835
21
-26.979790
31
0.0
0
LINE
8
0
6
CONTINUOUS
10
32.234885
20
-25.599580
30
0.0
11
32.578805
21
-24.983920
31
0.0
0
LINE
8
0
6
CONTINUOUS
10
32.578805
20
-24.983920
30
0.0
11
33.054615
21
-24.468270
31
0.0
0
LINE
8
0
6
CONTINUOUS
10
32.131835
20
-26.291010
30
0.0
11
32.234885
21
-25.599580
31
0.0
0
LINE
8
0
6
CONTINUOUS
10
33.054615
20
-24.468270
30
0.0
11
33.587695
21
-24.012180
31
0.0
0
LINE
8
0
6
CONTINUOUS
10
88.164775
20
-126.661120
30
0.0
11
93.244265
21
-129.638140
31
0.0
0
LINE
8
0
6
CONTINUOUS
10
93.244265
20
-129.638140
30
0.0
11
98.848375
21
-131.239250
31
0.0
0
LINE
8
0
6
CONTINUOUS
10
110.138235
20
-129.741670
30
0.0
11
114.985015
21
-126.847540
31
0.0
0
LINE
8
0
6
CONTINUOUS
10
104.629745
20
-131.268930
30
0.0
11
110.138235
21
-129.741670
31
0.0
0
LINE
8
0
6
CONTINUOUS
10
98.848375
20
-131.239250
30
0.0
11
104.629745
21
-131.268930
31
0.0
0
LINE
8
0
6
CONTINUOUS
10
84.049435
20
-122.542780
30
0.0
11
88.164775
21
-126.661120
31
0.0
0
LINE
8
0
6
CONTINUOUS
10
80.811495
20
-117.483270
30
0.0
11
84.049435
21
-122.542780
31
0.0
0
LINE
8
0
6
CONTINUOUS
10
80.811495
20
-117.483270
30
0.0
11
78.011855
21
-112.285160
31
0.0
0
LINE
8
0
6
CONTINUOUS
10
70.186955
20
-97.756620
30
0.0
11
67.828085
21
-93.376880
31
0.0
0
LINE
8
0
6
CONTINUOUS
10
72.545825
20
-102.136340
30
0.0
11
70.186955
21
-97.756620
31
0.0
0
LINE
8
0
6
CONTINUOUS
10
78.011855
20
-112.285160
30
0.0
11
74.904695
21
-106.516080
31
0.0
0
LINE
8
0
6
CONTINUOUS
10
74.904695
20
-106.516080
30
0.0
11
72.545825
21
-102.136340
31
0.0
0
LINE
8
0
6
CONTINUOUS
10
74.454335
20
-106.824700
30
0.0
11
77.802615
21
-112.877450
31
0.0
0
LINE
8
0
6
CONTINUOUS
10
71.992065
20
-102.373610
30
0.0
11
74.454335
21
-106.824700
31
0.0
0
LINE
8
0
6
CONTINUOUS
10
31.201415
20
-28.388900
30
0.0
11
67.067505
21
-93.471410
31
0.0
0
LINE
8
0
6
CONTINUOUS
10
31.171815
20
-28.376050
30
0.0
11
36.120554
21
-37.315157
31
0.0
0
LINE
8
0
6
CONTINUOUS
10
31.966185
20
-24.586640
30
0.0
11
31.453835
21
-25.034940
31
0.0
0
LINE
8
0
6
CONTINUOUS
10
31.453835
20
-25.034940
30
0.0
11
30.995775
21
-25.536160
31
0.0
0
LINE
8
0
6
CONTINUOUS
10
30.701455
20
-27.471620
30
0.0
11
30.998645
21
-28.064420
31
0.0
0
LINE
8
0
6
CONTINUOUS
10
67.067505
20
-93.471410
30
0.0
11
69.529785
21
-97.922520
31
0.0
0
LINE
8
0
6
CONTINUOUS
10
69.529785
20
-97.922520
30
0.0
11
71.992065
21
-102.373610
31
0.0
0
LINE
8
0
6
CONTINUOUS
10
77.802615
20
-112.877450
30
0.0
11
80.736255
21
-118.184730
31
0.0
0
LINE
8
0
6
CONTINUOUS
10
80.736255
20
-118.184730
30
0.0
11
84.053705
21
-124.242160
31
0.0
0
LINE
8
0
6
CONTINUOUS
10
92.901265
20
-72.860120
30
0.0
11
37.548675
21
-24.001160
31
0.0
0
LINE
8
0
6
CONTINUOUS
10
37.548675
20
-24.001160
30
0.0
11
37.283735
21
-23.766940
31
0.0
0
LINE
8
0
6
CONTINUOUS
10
32.561865
20
-27.630690
30
0.0
11
32.730425
21
-27.943800
31
0.0
0
LINE
8
0
6
CONTINUOUS
10
30.998645
20
-28.064420
30
0.0
11
31.171815
21
-28.376050
31
0.0
0
LINE
8
0
6
CONTINUOUS
10
122.655425
20
-116.873200
30
0.0
11
122.655425
21
-114.043960
31
0.0
0
LINE
8
0
6
CONTINUOUS
10
118.800165
20
-126.969890
30
0.0
11
121.448585
21
-122.182700
31
0.0
0
LINE
8
0
6
CONTINUOUS
10
122.656745
20
-117.000390
30
0.0
11
122.655425
21
-116.873200
31
0.0
0
LINE
8
0
6
CONTINUOUS
10
121.448585
20
-122.182700
30
0.0
11
122.656745
21
-117.000390
31
0.0
0
LINE
8
0
6
CONTINUOUS
10
114.980625
20
-131.035050
30
0.0
11
118.800165
21
-126.969890
31
0.0
0
LINE
8
0
6
CONTINUOUS
10
84.059125
20
-130.254810
30
0.0
11
88.157775
21
-133.471440
31
0.0
0
LINE
8
0
6
CONTINUOUS
10
88.157775
20
-133.471440
30
0.0
11
93.241915
21
-135.607000
31
0.0
0
LINE
8
0
6
CONTINUOUS
10
93.241915
20
-135.607000
30
0.0
11
98.851435
21
-136.479690
31
0.0
0
LINE
8
0
6
CONTINUOUS
10
79.354375
20
-120.254740
30
0.0
11
81.018165
21
-125.511890
31
0.0
0
LINE
8
0
6
CONTINUOUS
10
79.133095
20
-115.284435
30
0.0
11
79.354375
21
-120.254740
31
0.0
0
LINE
8
0
6
CONTINUOUS
10
104.631695
20
-135.943550
30
0.0
11
110.136575
21
-134.059090
31
0.0
0
LINE
8
0
6
CONTINUOUS
10
98.851435
20
-136.479690
30
0.0
11
104.631695
21
-135.943550
31
0.0
0
LINE
8
0
6
CONTINUOUS
10
81.018165
20
-125.511890
30
0.0
11
84.059125
21
-130.254810
31
0.0
0
LINE
8
0
6
CONTINUOUS
10
110.136575
20
-134.059090
30
0.0
11
114.980625
21
-131.035050
31
0.0
0
LINE
8
0
6
CONTINUOUS
10
115.125915
20
1.404840
30
0.0
11
115.125905
21
82.997340
31
0.0
0
LINE
8
0
6
CONTINUOUS
10
87.367475
20
82.997320
30
0.0
11
87.367485
21
1.404820
31
0.0
0
LINE
8
0
6
CONTINUOUS
10
87.382005
20
90.042380
30
0.0
11
87.367475
21
82.997320
31
0.0
0
LINE
8
0
6
CONTINUOUS
10
115.125905
20
82.997340
30
0.0
11
115.111385
21
91.311840
31
0.0
0
LINE
8
0
6
CONTINUOUS
10
86.049445
20
105.059870
30
0.0
11
87.382005
21
90.042380
31
0.0
0
LINE
8
0
6
CONTINUOUS
10
115.111385
20
91.311840
30
0.0
11
113.338065
21
110.145260
31
0.0
0
LINE
8
0
6
CONTINUOUS
10
82.326115
20
118.144470
30
0.0
11
86.049445
21
105.059870
31
0.0
0
LINE
8
0
6
CONTINUOUS
10
113.338065
20
110.145260
30
0.0
11
108.234475
21
128.108750
31
0.0
0
LINE
8
0
6
CONTINUOUS
10
76.487025
20
129.995570
30
0.0
11
82.326115
21
118.144470
31
0.0
0
LINE
8
0
6
CONTINUOUS
10
108.234475
20
128.108750
30
0.0
11
100.261685
21
144.323690
31
0.0
0
LINE
8
0
6
CONTINUOUS
10
68.787095
20
140.601880
30
0.0
11
76.487025
21
129.995570
31
0.0
0
LINE
8
0
6
CONTINUOUS
10
100.261685
20
144.323690
30
0.0
11
89.900985
21
158.622280
31
0.0
0
LINE
8
0
6
CONTINUOUS
10
59.494745
20
149.882470
30
0.0
11
68.787095
21
140.601880
31
0.0
0
LINE
8
0
6
CONTINUOUS
10
89.900985
20
158.622280
30
0.0
11
77.619895
21
170.906520
31
0.0
0
LINE
8
0
6
CONTINUOUS
10
48.917645
20
157.716370
30
0.0
11
59.494745
21
149.882470
31
0.0
0
LINE
8
0
6
CONTINUOUS
10
77.619895
20
170.906520
30
0.0
11
63.847025
21
181.118160
31
0.0
0
LINE
8
0
6
CONTINUOUS
10
37.405125
20
163.973310
30
0.0
11
48.917645
21
157.716370
31
0.0
0
LINE
8
0
6
CONTINUOUS
10
63.847025
20
181.118160
30
0.0
11
48.969015
21
189.208370
31
0.0
0
LINE
8
0
6
CONTINUOUS
10
25.340485
20
168.535120
30
0.0
11
37.405125
21
163.973310
31
0.0
0
LINE
8
0
6
CONTINUOUS
10
48.969015
20
189.208370
30
0.0
11
33.338675
21
195.116270
31
0.0
0
LINE
8
0
6
CONTINUOUS
10
13.130575
20
171.309390
30
0.0
11
25.340485
21
168.535120
31
0.0
0
LINE
8
0
6
CONTINUOUS
10
33.338675
20
195.116270
30
0.0
11
17.285285
21
198.755190
31
0.0
0
LINE
8
0
6
CONTINUOUS
10
1.073355
20
172.242130
30
0.0
11
13.130575
21
171.309390
31
0.0
0
LINE
8
0
6
CONTINUOUS
10
17.285285
20
198.755190
30
0.0
11
1.246975
21
200.000000
31
0.0
0
LINE
8
0
6
CONTINUOUS
10
-10.473885
20
171.487430
30
0.0
11
1.073355
21
172.242130
31
0.0
0
LINE
8
0
6
CONTINUOUS
10
1.246975
20
200.000000
30
0.0
11
-14.095335
21
199.008640
31
0.0
0
LINE
8
0
6
CONTINUOUS
10
-21.052505
20
169.376910
30
0.0
11
-10.473885
21
171.487430
31
0.0
0
LINE
8
0
6
CONTINUOUS
10
-14.095335
20
199.008640
30
0.0
11
-28.234535
21
196.190150
31
0.0
0
LINE
8
0
6
CONTINUOUS
10
-30.675735
20
166.114620
30
0.0
11
-21.052505
21
169.376910
31
0.0
0
LINE
8
0
6
CONTINUOUS
10
-28.234535
20
196.190150
30
0.0
11
-41.191805
21
191.803970
31
0.0
0
LINE
8
0
6
CONTINUOUS
10
-39.418155
20
161.882320
30
0.0
11
-30.675735
21
166.114620
31
0.0
0
LINE
8
0
6
CONTINUOUS
10
-41.191805
20
191.803970
30
0.0
11
-52.927065
21
186.131860
31
0.0
0
LINE
8
0
6
CONTINUOUS
10
-47.324345
20
156.854550
30
0.0
11
-39.418155
21
161.882320
31
0.0
0
LINE
8
0
6
CONTINUOUS
10
-52.927065
20
186.131860
30
0.0
11
-63.430175
21
179.462780
31
0.0
0
LINE
8
0
6
CONTINUOUS
10
-54.412145
20
151.212270
30
0.0
11
-47.324345
21
156.854550
31
0.0
0
LINE
8
0
6
CONTINUOUS
10
-63.430175
20
179.462780
30
0.0
11
-72.717735
21
172.079390
31
0.0
0
LINE
8
0
6
CONTINUOUS
10
-60.681265
20
145.150760
30
0.0
11
-54.412145
21
151.212270
31
0.0
0
LINE
8
0
6
CONTINUOUS
10
-72.717735
20
172.079390
30
0.0
11
-80.824505
21
164.249920
31
0.0
0
LINE
8
0
6
CONTINUOUS
10
-66.121975
20
138.881840
30
0.0
11
-60.681265
21
145.150760
31
0.0
0
LINE
8
0
6
CONTINUOUS
10
-80.824505
20
164.249920
30
0.0
11
-87.794755
21
156.226040
31
0.0
0
LINE
8
0
6
CONTINUOUS
10
-70.721425
20
132.634120
30
0.0
11
-66.121975
21
138.881840
31
0.0
0
LINE
8
0
6
CONTINUOUS
10
-87.794755
20
156.226040
30
0.0
11
-93.675765
21
148.242800
31
0.0
0
LINE
8
0
6
CONTINUOUS
10
-74.346265
20
126.866680
30
0.0
11
-70.721425
21
132.634120
31
0.0
0
LINE
8
0
6
CONTINUOUS
10
-93.675765
20
148.242800
30
0.0
11
-98.635245
21
140.304600
31
0.0
0
LINE
8
0
6
CONTINUOUS
10
-77.721515
20
119.905830
30
0.0
11
-74.346265
21
126.866680
31
0.0
0
LINE
8
0
6
CONTINUOUS
10
-98.635245
20
140.304600
30
0.0
11
-103.361695
21
130.541230
31
0.0
0
LINE
8
0
6
CONTINUOUS
10
-80.542365
20
111.778090
30
0.0
11
-77.721515
21
119.905830
31
0.0
0
LINE
8
0
6
CONTINUOUS
10
-103.361695
20
130.541230
30
0.0
11
-107.123025
21
119.778000
31
0.0
0
LINE
8
0
6
CONTINUOUS
10
-82.915605
20
102.437380
30
0.0
11
-80.542365
21
111.778090
31
0.0
0
LINE
8
0
6
CONTINUOUS
10
-107.123025
20
119.778000
30
0.0
11
-110.018575
21
108.434010
31
0.0
0
LINE
8
0
6
CONTINUOUS
10
-84.852555
20
92.130930
30
0.0
11
-82.915605
21
102.437380
31
0.0
0
LINE
8
0
6
CONTINUOUS
10
-110.018575
20
108.434010
30
0.0
11
-112.232435
21
96.635130
31
0.0
0
LINE
8
0
6
CONTINUOUS
10
-112.232435
20
96.635130
30
0.0
11
-114.626035
21
74.615420
31
0.0
0
LINE
8
0
6
CONTINUOUS
10
-87.227285
20
71.202640
30
0.0
11
-84.852555
21
92.130930
31
0.0
0
LINE
8
0
6
CONTINUOUS
10
-87.269855
20
70.824850
30
0.0
11
-87.242885
21
71.064090
31
0.0
0
LINE
8
0
6
CONTINUOUS
10
-87.242885
20
71.064090
30
0.0
11
-87.227285
21
71.202640
31
0.0
0
LINE
8
0
6
CONTINUOUS
10
-114.641185
20
74.476910
30
0.0
11
-114.667275
21
74.237690
31
0.0
0
LINE
8
0
6
CONTINUOUS
10
-114.626035
20
74.615420
30
0.0
11
-114.641185
21
74.476910
31
0.0
0
LINE
8
0
6
CONTINUOUS
10
87.367485
20
0.677200
30
0.0
11
87.367480
21
-0.000015
31
0.0
0
LINE
8
0
6
CONTINUOUS
10
115.125915
20
-0.000015
30
0.0
11
115.125915
21
0.677200
31
0.0
0
LINE
8
0
6
CONTINUOUS
10
101.246675
20
1.082060
30
0.0
11
108.186285
21
1.082060
31
0.0
0
LINE
8
0
6
CONTINUOUS
10
94.307075
20
1.082060
30
0.0
11
101.246675
21
1.082060
31
0.0
0
LINE
8
0
6
CONTINUOUS
10
89.226935
20
1.082060
30
0.0
11
94.307075
21
1.082060
31
0.0
0
LINE
8
0
6
CONTINUOUS
10
108.186285
20
1.082060
30
0.0
11
113.266445
21
1.082060
31
0.0
0
LINE
8
0
6
CONTINUOUS
10
115.125905
20
1.082060
30
0.0
11
115.125915
21
1.404840
31
0.0
0
LINE
8
0
6
CONTINUOUS
10
113.266445
20
1.082060
30
0.0
11
115.125905
21
1.082060
31
0.0
0
LINE
8
0
6
CONTINUOUS
10
87.367485
20
1.404820
30
0.0
11
87.367485
21
1.082060
31
0.0
0
LINE
8
0
6
CONTINUOUS
10
87.367485
20
1.082060
30
0.0
11
89.226935
21
1.082060
31
0.0
0
LINE
8
0
6
CONTINUOUS
10
108.186295
20
0.999980
30
0.0
11
101.246685
21
0.999970
31
0.0
0
LINE
8
0
6
CONTINUOUS
10
101.246685
20
0.999970
30
0.0
11
94.307085
21
0.999970
31
0.0
0
LINE
8
0
6
CONTINUOUS
10
94.307085
20
0.999970
30
0.0
11
89.226925
21
0.999970
31
0.0
0
LINE
8
0
6
CONTINUOUS
10
108.186295
20
0.999980
30
0.0
11
113.266455
21
0.999970
31
0.0
0
LINE
8
0
6
CONTINUOUS
10
115.125915
20
0.999980
30
0.0
11
113.266455
21
0.999970
31
0.0
0
LINE
8
0
6
CONTINUOUS
10
115.125915
20
0.677200
30
0.0
11
115.125915
21
0.999980
31
0.0
0
LINE
8
0
6
CONTINUOUS
10
87.367475
20
0.999970
30
0.0
11
87.367485
21
0.677200
31
0.0
0
LINE
8
0
6
CONTINUOUS
10
89.226925
20
0.999970
30
0.0
11
87.367475
21
0.999970
31
0.0
0
LINE
8
0
6
CONTINUOUS
10
-93.620865
20
-15.989300
30
0.0
11
-85.825995
21
70.138510
31
0.0
0
LINE
8
0
6
CONTINUOUS
10
-116.263195
20
73.929560
30
0.0
11
-117.883674
21
63.202915
31
0.0
0
LINE
8
0
6
CONTINUOUS
10
-125.982489
20
9.593399
30
0.0
11
-129.178235
21
-11.560610
31
0.0
0
LINE
8
0
6
CONTINUOUS
10
-121.851995
20
63.571990
30
0.0
11
-121.928745
21
62.998100
31
0.0
0
LINE
8
0
6
CONTINUOUS
10
-121.851995
20
63.571990
30
0.0
11
-121.275515
21
63.518100
31
0.0
0
LINE
8
0
6
CONTINUOUS
10
-128.987155
20
10.415590
30
0.0
11
-128.426205
21
10.264280
31
0.0
0
LINE
8
0
6
CONTINUOUS
10
-128.984255
20
10.417500
30
0.0
11
-128.423265
21
10.266210
31
0.0
0
LINE
8
0
6
CONTINUOUS
10
-128.984255
20
10.417500
30
0.0
11
-128.904415
21
10.993000
31
0.0
0
LINE
8
0
6
CONTINUOUS
10
-125.982232
20
9.595099
30
0.0
11
-128.423265
21
10.266210
31
0.0
0
LINE
8
0
6
CONTINUOUS
10
-117.883698
20
63.202761
30
0.0
11
-121.275515
21
63.518100
31
0.0
0
LINE
8
0
6
CONTINUOUS
10
-121.928745
20
62.998100
30
0.0
11
-128.904415
21
10.993000
31
0.0
0
LINE
8
0
6
CONTINUOUS
10
-95.137095
20
71.801720
30
0.0
11
-98.953545
21
72.277470
31
0.0
0
LINE
8
0
6
CONTINUOUS
10
-103.015855
20
72.782970
30
0.0
11
-102.948985
21
72.775020
31
0.0
0
LINE
8
0
6
CONTINUOUS
10
-103.015855
20
72.782970
30
0.0
11
-106.832305
21
73.258670
31
0.0
0
LINE
8
0
6
CONTINUOUS
10
-88.797105
20
71.011750
30
0.0
11
-91.628525
21
71.364820
31
0.0
0
LINE
8
0
6
CONTINUOUS
10
-113.172255
20
74.048250
30
0.0
11
-115.142015
21
74.293790
31
0.0
0
LINE
8
0
6
CONTINUOUS
10
-95.137095
20
71.801720
30
0.0
11
-91.628525
21
71.364820
31
0.0
0
LINE
8
0
6
CONTINUOUS
10
-116.188385
20
74.423920
30
0.0
11
-116.263195
21
73.929560
31
0.0
0
LINE
8
0
6
CONTINUOUS
10
-115.142015
20
74.293790
30
0.0
11
-116.188385
21
74.423920
31
0.0
0
LINE
8
0
6
CONTINUOUS
10
-86.827385
20
70.766390
30
0.0
11
-88.797105
21
71.011750
31
0.0
0
LINE
8
0
6
CONTINUOUS
10
-98.953545
20
72.277470
30
0.0
11
-103.015855
21
72.782970
31
0.0
0
LINE
8
0
6
CONTINUOUS
10
-106.832305
20
73.258670
30
0.0
11
-110.340725
21
73.695370
31
0.0
0
LINE
8
0
6
CONTINUOUS
10
-110.340725
20
73.695370
30
0.0
11
-113.172255
21
74.048250
31
0.0
0
LINE
8
0
6
CONTINUOUS
10
-85.825995
20
70.138510
30
0.0
11
-85.781015
21
70.636480
31
0.0
0
LINE
8
0
6
CONTINUOUS
10
-85.781015
20
70.636480
30
0.0
11
-86.827385
21
70.766390
31
0.0
0
LINE
8
0
6
CONTINUOUS
10
-97.212365
20
-16.100310
30
0.0
11
-94.912405
21
-16.386050
31
0.0
0
LINE
8
0
6
CONTINUOUS
10
-129.178235
20
-11.560610
30
0.0
11
-129.246705
21
-12.110420
31
0.0
0
LINE
8
0
6
CONTINUOUS
10
-128.023795
20
-12.262000
30
0.0
11
-125.723755
21
-12.548560
31
0.0
0
LINE
8
0
6
CONTINUOUS
10
-113.844445
20
-14.028820
30
0.0
11
-109.092855
21
-14.620230
31
0.0
0
LINE
8
0
6
CONTINUOUS
10
-118.306005
20
-13.472400
30
0.0
11
-113.844445
21
-14.028820
31
0.0
0
LINE
8
0
6
CONTINUOUS
10
-125.723755
20
-12.548560
30
0.0
11
-122.408705
21
-12.961500
31
0.0
0
LINE
8
0
6
CONTINUOUS
10
-100.534245
20
-15.686680
30
0.0
11
-97.212365
21
-16.100310
31
0.0
0
LINE
8
0
6
CONTINUOUS
10
-93.689265
20
-16.538750
30
0.0
11
-93.620865
21
-15.989300
31
0.0
0
LINE
8
0
6
CONTINUOUS
10
-109.092855
20
-14.620230
30
0.0
11
-104.632865
21
-15.175300
31
0.0
0
LINE
8
0
6
CONTINUOUS
10
-128.023795
20
-12.262000
30
0.0
11
-129.246705
21
-12.110420
31
0.0
0
LINE
8
0
6
CONTINUOUS
10
-100.534245
20
-15.686680
30
0.0
11
-104.632865
21
-15.175300
31
0.0
0
LINE
8
0
6
CONTINUOUS
10
-118.306005
20
-13.472400
30
0.0
11
-122.408705
21
-12.961500
31
0.0
0
LINE
8
0
6
CONTINUOUS
10
-93.689265
20
-16.538750
30
0.0
11
-94.912405
21
-16.386050
31
0.0
0
LINE
8
0
6
CONTINUOUS
10
129.211785
20
-199.501210
30
0.0
11
126.051485
21
-154.353910
31
0.0
0
LINE
8
0
6
CONTINUOUS
10
76.441965
20
-154.353910
30
0.0
11
73.281665
21
-199.501210
31
0.0
0
LINE
8
0
6
CONTINUOUS
10
123.022265
20
-111.079310
30
0.0
11
122.635235
21
-105.550290
31
0.0
0
LINE
8
0
6
CONTINUOUS
10
87.211805
20
-0.498790
30
0.0
11
82.772366
21
-63.919482
31
0.0
0
LINE
8
0
6
CONTINUOUS
10
114.769695
20
-0.000020
30
0.0
11
113.371085
21
-0.000020
31
0.0
0
LINE
8
0
6
CONTINUOUS
10
111.146225
20
-0.000020
30
0.0
11
108.246735
21
-0.000020
31
0.0
0
LINE
8
0
6
CONTINUOUS
10
108.246735
20
-0.000020
30
0.0
11
104.870195
21
-0.000020
31
0.0
0
LINE
8
0
6
CONTINUOUS
10
115.281645
20
-0.498790
30
0.0
11
115.246735
21
-0.000020
31
0.0
0
LINE
8
0
6
CONTINUOUS
10
115.246735
20
-0.000020
30
0.0
11
115.125920
21
-0.000015
31
0.0
0
LINE
8
0
6
CONTINUOUS
10
114.769695
20
-0.000020
30
0.0
11
115.246735
21
-0.000020
31
0.0
0
LINE
8
0
6
CONTINUOUS
10
114.371985
20
0.000000
30
0.0
11
114.282565
21
0.000000
31
0.0
0
LINE
8
0
6
CONTINUOUS
10
113.371085
20
-0.000020
30
0.0
11
111.146225
21
-0.000020
31
0.0
0
LINE
8
0
6
CONTINUOUS
10
104.870195
20
-0.000020
30
0.0
11
101.246725
21
-0.000020
31
0.0
0
LINE
8
0
6
CONTINUOUS
10
87.723755
20
-0.000020
30
0.0
11
89.122365
21
-0.000020
31
0.0
0
LINE
8
0
6
CONTINUOUS
10
88.472897
20
0.000000
30
0.0
11
88.210885
21
0.000000
31
0.0
0
LINE
8
0
6
CONTINUOUS
10
91.347225
20
-0.000020
30
0.0
11
94.246725
21
-0.000020
31
0.0
0
LINE
8
0
6
CONTINUOUS
10
92.247050
20
0.000000
30
0.0
11
91.703825
21
0.000000
31
0.0
0
LINE
8
0
6
CONTINUOUS
10
94.246725
20
-0.000020
30
0.0
11
97.623255
21
-0.000020
31
0.0
0
LINE
8
0
6
CONTINUOUS
10
97.753785
20
0.000000
30
0.0
11
97.121066
21
0.000000
31
0.0
0
LINE
8
0
6
CONTINUOUS
10
87.367483
20
-0.000015
30
0.0
11
87.246715
21
-0.000020
31
0.0
0
LINE
8
0
6
CONTINUOUS
10
87.246715
20
-0.000020
30
0.0
11
87.211805
21
-0.498790
31
0.0
0
LINE
8
0
6
CONTINUOUS
10
87.723755
20
-0.000020
30
0.0
11
87.246715
21
-0.000020
31
0.0
0
LINE
8
0
6
CONTINUOUS
10
89.122365
20
-0.000020
30
0.0
11
91.347225
21
-0.000020
31
0.0
0
LINE
8
0
6
CONTINUOUS
10
91.703825
20
0.000000
30
0.0
11
91.286994
21
0.000000
31
0.0
0
LINE
8
0
6
CONTINUOUS
10
97.623255
20
-0.000020
30
0.0
11
101.246725
21
-0.000020
31
0.0
0
LINE
8
0
6
CONTINUOUS
10
98.432767
20
0.000000
30
0.0
11
97.753785
21
0.000000
31
0.0
0
LINE
8
0
6
CONTINUOUS
10
108.493645
20
-200.000000
30
0.0
11
115.246715
21
-200.000000
31
0.0
0
LINE
8
0
6
CONTINUOUS
10
129.246705
20
-200.000000
30
0.0
11
129.211785
21
-199.501210
31
0.0
0
LINE
8
0
6
CONTINUOUS
10
128.292635
20
-200.000000
30
0.0
11
129.246705
21
-200.000000
31
0.0
0
LINE
8
0
6
CONTINUOUS
10
121.045695
20
-200.000000
30
0.0
11
125.495415
21
-200.000000
31
0.0
0
LINE
8
0
6
CONTINUOUS
10
101.246725
20
-200.000000
30
0.0
11
108.493645
21
-200.000000
31
0.0
0
LINE
8
0
6
CONTINUOUS
10
125.495415
20
-200.000000
30
0.0
11
128.292635
21
-200.000000
31
0.0
0
LINE
8
0
6
CONTINUOUS
10
115.246715
20
-200.000000
30
0.0
11
121.045695
21
-200.000000
31
0.0
0
LINE
8
0
6
CONTINUOUS
10
87.246745
20
-200.000000
30
0.0
11
93.999805
21
-200.000000
31
0.0
0
LINE
8
0
6
CONTINUOUS
10
73.281665
20
-199.501210
30
0.0
11
73.246745
21
-200.000000
31
0.0
0
LINE
8
0
6
CONTINUOUS
10
73.246745
20
-200.000000
30
0.0
11
74.200815
21
-200.000000
31
0.0
0
LINE
8
0
6
CONTINUOUS
10
76.998035
20
-200.000000
30
0.0
11
81.447755
21
-200.000000
31
0.0
0
LINE
8
0
6
CONTINUOUS
10
93.999805
20
-200.000000
30
0.0
11
101.246725
21
-200.000000
31
0.0
0
LINE
8
0
6
CONTINUOUS
10
74.200815
20
-200.000000
30
0.0
11
76.998035
21
-200.000000
31
0.0
0
LINE
8
0
6
CONTINUOUS
10
81.447755
20
-200.000000
30
0.0
11
87.246745
21
-200.000000
31
0.0
0
LINE
8
0
6
CONTINUOUS
10
76.999665
20
-146.386750
30
0.0
11
76.441965
21
-154.353910
31
0.0
0
LINE
8
0
6
CONTINUOUS
10
121.398195
20
-125.901850
30
0.0
11
120.299285
21
-128.476050
31
0.0
0
LINE
8
0
6
CONTINUOUS
10
112.246725
20
-136.289410
30
0.0
11
106.940745
21
-138.421940
31
0.0
0
LINE
8
0
6
CONTINUOUS
10
122.497095
20
-123.327670
30
0.0
11
121.398195
21
-125.901850
31
0.0
0
LINE
8
0
6
CONTINUOUS
10
116.803075
20
-132.897040
30
0.0
11
112.246725
21
-136.289410
31
0.0
0
LINE
8
0
6
CONTINUOUS
10
123.246725
20
-117.802790
30
0.0
11
122.497095
21
-112.277910
31
0.0
0
LINE
8
0
6
CONTINUOUS
10
120.299285
20
-128.476050
30
0.0
11
116.803075
21
-132.897040
31
0.0
0
LINE
8
0
6
CONTINUOUS
10
106.940745
20
-138.421940
30
0.0
11
101.246725
21
-139.149300
31
0.0
0
LINE
8
0
6
CONTINUOUS
10
123.257655
20
-117.923780
30
0.0
11
123.246725
21
-117.802790
31
0.0
0
LINE
8
0
6
CONTINUOUS
10
122.497095
20
-123.327670
30
0.0
11
123.246725
21
-117.802790
31
0.0
0
LINE
8
0
6
CONTINUOUS
10
81.095265
20
-125.901850
30
0.0
11
82.194175
21
-128.476050
31
0.0
0
LINE
8
0
6
CONTINUOUS
10
90.246735
20
-136.289410
30
0.0
11
95.552715
21
-138.421940
31
0.0
0
LINE
8
0
6
CONTINUOUS
10
79.996365
20
-123.327670
30
0.0
11
81.095265
21
-125.901850
31
0.0
0
LINE
8
0
6
CONTINUOUS
10
85.690385
20
-132.897040
30
0.0
11
90.246735
21
-136.289410
31
0.0
0
LINE
8
0
6
CONTINUOUS
10
82.194175
20
-128.476050
30
0.0
11
85.690385
21
-132.897040
31
0.0
0
LINE
8
0
6
CONTINUOUS
10
95.552715
20
-138.421940
30
0.0
11
101.246725
21
-139.149300
31
0.0
0
LINE
8
0
6
CONTINUOUS
10
79.246735
20
-117.802790
30
0.0
11
79.235805
21
-117.923780
31
0.0
0
LINE
8
0
6
CONTINUOUS
10
79.996365
20
-123.327670
30
0.0
11
79.674960
21
-120.958868
31
0.0
0
LINE
8
0
6
CONTINUOUS
10
126.051485
20
-154.353910
30
0.0
11
125.493785
21
-146.386750
31
0.0
0
LINE
8
0
6
CONTINUOUS
10
124.162295
20
-127.939530
30
0.0
11
124.117635
21
-127.445100
31
0.0
0
LINE
8
0
6
CONTINUOUS
10
124.206945
20
-128.433980
30
0.0
11
124.162295
21
-127.939530
31
0.0
0
LINE
8
0
6
CONTINUOUS
10
124.251605
20
-128.928430
30
0.0
11
124.206945
21
-128.433980
31
0.0
0
LINE
8
0
6
CONTINUOUS
10
124.296265
20
-129.422860
30
0.0
11
124.251605
21
-128.928430
31
0.0
0
LINE
8
0
6
CONTINUOUS
10
123.886215
20
-123.421460
30
0.0
11
123.022265
21
-111.079310
31
0.0
0
LINE
8
0
6
CONTINUOUS
10
125.493785
20
-146.386750
30
0.0
11
124.831505
21
-136.925580
31
0.0
0
LINE
8
0
6
CONTINUOUS
10
124.340925
20
-129.917320
30
0.0
11
124.296265
21
-129.422860
31
0.0
0
LINE
8
0
6
CONTINUOUS
10
124.831505
20
-136.925580
30
0.0
11
124.340925
21
-129.917320
31
0.0
0
LINE
8
0
6
CONTINUOUS
10
124.340925
20
-129.917320
30
0.0
11
123.886215
21
-123.421460
31
0.0
0
LINE
8
0
6
CONTINUOUS
10
122.635235
20
-105.550290
30
0.0
11
115.281645
21
-0.498790
31
0.0
0
LINE
8
0
6
CONTINUOUS
10
124.117635
20
-127.445100
30
0.0
11
124.075935
21
-126.983480
31
0.0
0
LINE
8
0
6
CONTINUOUS
10
78.375815
20
-127.445100
30
0.0
11
78.331155
21
-127.939530
31
0.0
0
LINE
8
0
6
CONTINUOUS
10
78.331155
20
-127.939530
30
0.0
11
78.286505
21
-128.433980
31
0.0
0
LINE
8
0
6
CONTINUOUS
10
78.286505
20
-128.433980
30
0.0
11
78.241845
21
-128.928430
31
0.0
0
LINE
8
0
6
CONTINUOUS
10
78.241845
20
-128.928430
30
0.0
11
78.197185
21
-129.422860
31
0.0
0
LINE
8
0
6
CONTINUOUS
10
79.171911
20
-115.354658
30
0.0
11
78.607235
21
-123.421460
31
0.0
0
LINE
8
0
6
CONTINUOUS
10
77.661945
20
-136.925580
30
0.0
11
76.999665
21
-146.386750
31
0.0
0
LINE
8
0
6
CONTINUOUS
10
78.152525
20
-129.917320
30
0.0
11
77.661945
21
-136.925580
31
0.0
0
LINE
8
0
6
CONTINUOUS
10
78.197185
20
-129.422860
30
0.0
11
78.152525
21
-129.917320
31
0.0
0
LINE
8
0
6
CONTINUOUS
10
78.607235
20
-123.421460
30
0.0
11
78.152525
21
-129.917320
31
0.0
0
LINE
8
0
6
CONTINUOUS
10
124.075935
20
-126.983480
30
0.0
11
123.257655
21
-117.923780
31
0.0
0
LINE
8
0
6
CONTINUOUS
10
79.235805
20
-117.923780
30
0.0
11
78.417515
21
-126.983480
31
0.0
0
LINE
8
0
6
CONTINUOUS
10
78.417515
20
-126.983480
30
0.0
11
78.375815
21
-127.445100
31
0.0
0
LINE
8
0
6
CONTINUOUS
10
98.432767
20
0.000000
30
0.0
11
101.246685
21
-0.000015
31
0.0
0
LINE
8
0
6
CONTINUOUS
10
115.125915
20
-0.000015
30
0.0
11
114.371985
21
0.000000
31
0.0
0
LINE
8
0
6
CONTINUOUS
10
94.307117
20
-0.000015
30
0.0
11
97.121066
21
0.000000
31
0.0
0
LINE
8
0
6
CONTINUOUS
10
104.349138
20
-136.250191
30
0.0
11
109.293765
21
-134.724408
31
0.0
0
LINE
8
0
6
CONTINUOUS
10
109.293765
20
-134.724408
30
0.0
11
113.662912
21
-132.008861
31
0.0
0
LINE
8
0
6
CONTINUOUS
10
88.472897
20
0.000000
30
0.0
11
89.226935
21
-0.000015
31
0.0
0
LINE
8
0
6
CONTINUOUS
10
92.247050
20
0.000000
30
0.0
11
94.307080
21
-0.000015
31
0.0
0
LINE
8
0
6
CONTINUOUS
10
89.226950
20
-0.000015
30
0.0
11
91.286994
21
0.000000
31
0.0
0
ENDSEC
0
EOF
