ISO-10303-21;
HEADER;
FILE_DESCRIPTION(('CATIA V5 STEP Exchange'),'2;1');

FILE_NAME('C:\\Users\\Administrator\\Desktop\\MINI-VL-DFL-AC.stp','2025-12-18T09:21:24+00:00',('none'),('none'),'CATIA Version 5-6 Release 2018','CATIA V5 STEP AP203','none');

FILE_SCHEMA(('CONFIG_CONTROL_DESIGN'));

ENDSEC;
DATA;
#5=PRODUCT('Part23','','',(#2)) ;
#1=APPLICATION_CONTEXT('configuration controlled 3D design of mechanical parts and assemblies') ;
#14=PRODUCT_DEFINITION('',' ',#6,#3) ;
#16=SECURITY_CLASSIFICATION(' ',' ',#15) ;
#15=SECURITY_CLASSIFICATION_LEVEL('unclassified') ;
#46=CARTESIAN_POINT(' ',(0.,0.,0.)) ;
#51=CARTESIAN_POINT('Axis2P3D Location',(0.,0.,27.4999999997)) ;
#56=CARTESIAN_POINT('Axis2P3D Location',(0.,0.,27.6592324384)) ;
#60=CARTESIAN_POINT('Vertex',(-4.09048565512E-015,-22.2675667682,27.6592324384)) ;
#62=CARTESIAN_POINT('Vertex',(6.81747609186E-015,22.2675667682,27.6592324384)) ;
#65=CARTESIAN_POINT('Axis2P3D Location',(-4.27183890689E-015,-23.2548078889,27.4999999997)) ;
#69=CARTESIAN_POINT('Vertex',(-4.27183890689E-015,-23.2548078889,28.4999999997)) ;
#72=CARTESIAN_POINT('Axis2P3D Location',(0.,0.,28.4999999997)) ;
#76=CARTESIAN_POINT('Vertex',(7.11973151148E-015,23.2548078889,28.4999999997)) ;
#79=CARTESIAN_POINT('Axis2P3D Location',(7.11973151148E-015,23.2548078889,27.4999999997)) ;
#91=CARTESIAN_POINT('Axis2P3D Location',(0.,0.,27.6592324384)) ;
#96=CARTESIAN_POINT('Axis2P3D Location',(0.,0.,28.4999999997)) ;
#108=CARTESIAN_POINT('Axis2P3D Location',(0.,0.,27.4999999997)) ;
#113=CARTESIAN_POINT('Axis2P3D Location',(0.,0.,28.4999999997)) ;
#117=CARTESIAN_POINT('Vertex',(-4.64753460276E-015,-25.3,28.4999999997)) ;
#119=CARTESIAN_POINT('Vertex',(7.74589100461E-015,25.3,28.4999999997)) ;
#122=CARTESIAN_POINT('Axis2P3D Location',(-4.64753460276E-015,-25.3,27.4999999997)) ;
#126=CARTESIAN_POINT('Vertex',(-4.83123162264E-015,-26.3,27.4999999997)) ;
#129=CARTESIAN_POINT('Axis2P3D Location',(0.,0.,27.4999999997)) ;
#133=CARTESIAN_POINT('Vertex',(8.05205270439E-015,26.3,27.4999999997)) ;
#136=CARTESIAN_POINT('Axis2P3D Location',(7.74589100461E-015,25.3,27.4999999997)) ;
#148=CARTESIAN_POINT('Axis2P3D Location',(0.,0.,28.4999999997)) ;
#153=CARTESIAN_POINT('Axis2P3D Location',(0.,0.,27.4999999997)) ;
#165=CARTESIAN_POINT('Axis2P3D Location',(0.,0.,13.5)) ;
#170=CARTESIAN_POINT('Line Origine',(-4.83123162264E-015,-26.3,21.9999999997)) ;
#174=CARTESIAN_POINT('Vertex',(-4.83123162264E-015,-26.3,16.4999999997)) ;
#177=CARTESIAN_POINT('Axis2P3D Location',(0.,0.,16.4999999997)) ;
#181=CARTESIAN_POINT('Vertex',(8.05205270439E-015,26.3,16.4999999997)) ;
#184=CARTESIAN_POINT('Line Origine',(8.05205270439E-015,26.3,21.9999999997)) ;
#196=CARTESIAN_POINT('Axis2P3D Location',(0.,0.,16.4999999997)) ;
#208=CARTESIAN_POINT('Axis2P3D Location',(0.,0.,15.9985077184)) ;
#213=CARTESIAN_POINT('Axis2P3D Location',(0.,0.,16.4999999997)) ;
#217=CARTESIAN_POINT('Vertex',(-2.62609482705E-014,-24.5000000009,16.4999999997)) ;
#219=CARTESIAN_POINT('Vertex',(2.92613329285E-014,24.5000000009,16.4999999997)) ;
#222=CARTESIAN_POINT('Line Origine',(-2.59929794106E-014,-24.2500000009,16.2492538591)) ;
#226=CARTESIAN_POINT('Vertex',(-2.57250105507E-014,-24.0000000009,15.9985077184)) ;
#229=CARTESIAN_POINT('Axis2P3D Location',(0.,0.,15.9985077184)) ;
#233=CARTESIAN_POINT('Vertex',(2.86641628688E-014,24.0000000009,15.9985077184)) ;
#236=CARTESIAN_POINT('Line Origine',(2.89627478987E-014,24.2500000009,16.2492538591)) ;
#248=CARTESIAN_POINT('Axis2P3D Location',(0.,0.,16.4999999997)) ;
#253=CARTESIAN_POINT('Axis2P3D Location',(0.,0.,15.9985077184)) ;
#265=CARTESIAN_POINT('Axis2P3D Location',(0.,0.,13.5)) ;
#270=CARTESIAN_POINT('Line Origine',(-4.4087284771E-015,-24.0000000009,7.24925385935)) ;
#274=CARTESIAN_POINT('Vertex',(-4.4087284771E-015,-24.0000000009,-1.49999999974)) ;
#277=CARTESIAN_POINT('Axis2P3D Location',(0.,0.,-1.49999999974)) ;
#281=CARTESIAN_POINT('Vertex',(-1.39684012785E-014,24.0000000009,-1.49999999974)) ;
#284=CARTESIAN_POINT('Line Origine',(-1.39684012785E-014,24.0000000009,7.24925385935)) ;
#296=CARTESIAN_POINT('Axis2P3D Location',(0.,0.,-1.49999999974)) ;
#308=CARTESIAN_POINT('Axis2P3D Location',(0.,0.,1.13686837722E-013)) ;
#313=CARTESIAN_POINT('Axis2P3D Location',(0.,0.,-1.49999999974)) ;
#317=CARTESIAN_POINT('Vertex',(-1.33863845587E-014,-23.0000000012,-1.49999999974)) ;
#319=CARTESIAN_POINT('Vertex',(1.62030721969E-014,23.0000000012,-1.49999999974)) ;
#322=CARTESIAN_POINT('Line Origine',(-1.32408803787E-014,-22.7500000012,-0.749999999869)) ;
#326=CARTESIAN_POINT('Vertex',(-1.30953761987E-014,-22.5000000012,1.13581512718E-013)) ;
#329=CARTESIAN_POINT('Axis2P3D Location',(0.,0.,1.13686837722E-013)) ;
#333=CARTESIAN_POINT('Vertex',(1.5850831497E-014,22.5000000012,1.13581512718E-013)) ;
#336=CARTESIAN_POINT('Line Origine',(1.60269518469E-014,22.7500000012,-0.749999999869)) ;
#348=CARTESIAN_POINT('Axis2P3D Location',(0.,0.,-1.49999999974)) ;
#353=CARTESIAN_POINT('Axis2P3D Location',(0.,0.,1.13686837722E-013)) ;
#365=CARTESIAN_POINT('Axis2P3D Location',(0.,0.,-4.26325641456E-014)) ;
#370=CARTESIAN_POINT('Axis2P3D Location',(0.,0.,-4.26325641456E-014)) ;
#374=CARTESIAN_POINT('Vertex',(-3.30061121176E-015,-17.9676905704,-4.26325641456E-014)) ;
#376=CARTESIAN_POINT('Vertex',(-1.04574963302E-014,17.9676905704,-4.26325641456E-014)) ;
#379=CARTESIAN_POINT('Line Origine',(-3.69554843344E-015,-20.1176286693,13.8296162192)) ;
#384=CARTESIAN_POINT('Line Origine',(-1.17087962505E-014,20.1176286693,13.8296162192)) ;
#396=CARTESIAN_POINT('Axis2P3D Location',(0.,0.,-4.26325641456E-014)) ;
#408=CARTESIAN_POINT('Axis2P3D Location',(0.,-23.2548078889,28.4999999997)) ;
#422=CARTESIAN_POINT('Axis2P3D Location',(0.,-24.5000000009,16.4999999997)) ;
#436=CARTESIAN_POINT('Axis2P3D Location',(0.,-24.0000000009,-1.49999999974)) ;
#450=CARTESIAN_POINT('Axis2P3D Location',(0.,-17.9676905704,-5.68434188608E-014)) ;
#52=DIRECTION('Axis2P3D Direction',(0.,0.,1.)) ;
#53=DIRECTION('Axis2P3D XDirection',(-1.83697019872E-016,-1.,0.)) ;
#57=DIRECTION('Axis2P3D Direction',(0.,0.,1.)) ;
#66=DIRECTION('Axis2P3D Direction',(-1.,1.83697019872E-016,0.)) ;
#73=DIRECTION('Axis2P3D Direction',(0.,0.,1.)) ;
#80=DIRECTION('Axis2P3D Direction',(1.,-3.06161699787E-016,0.)) ;
#92=DIRECTION('Axis2P3D Direction',(0.,0.,1.)) ;
#97=DIRECTION('Axis2P3D Direction',(0.,0.,1.)) ;
#109=DIRECTION('Axis2P3D Direction',(0.,0.,1.)) ;
#110=DIRECTION('Axis2P3D XDirection',(-1.83697019872E-016,-1.,0.)) ;
#114=DIRECTION('Axis2P3D Direction',(0.,0.,1.)) ;
#123=DIRECTION('Axis2P3D Direction',(-1.,1.83697019872E-016,0.)) ;
#130=DIRECTION('Axis2P3D Direction',(0.,0.,1.)) ;
#137=DIRECTION('Axis2P3D Direction',(1.,-3.06161699787E-016,0.)) ;
#149=DIRECTION('Axis2P3D Direction',(0.,0.,1.)) ;
#154=DIRECTION('Axis2P3D Direction',(0.,0.,1.)) ;
#166=DIRECTION('Axis2P3D Direction',(0.,0.,1.)) ;
#167=DIRECTION('Axis2P3D XDirection',(-1.83697019872E-016,-1.,-0.)) ;
#171=DIRECTION('Vector Direction',(0.,0.,1.)) ;
#178=DIRECTION('Axis2P3D Direction',(0.,0.,1.)) ;
#185=DIRECTION('Vector Direction',(0.,0.,1.)) ;
#197=DIRECTION('Axis2P3D Direction',(0.,0.,1.)) ;
#209=DIRECTION('Axis2P3D Direction',(0.,0.,1.)) ;
#210=DIRECTION('Axis2P3D XDirection',(-1.07187543957E-015,-1.,0.)) ;
#214=DIRECTION('Axis2P3D Direction',(0.,0.,1.)) ;
#223=DIRECTION('Vector Direction',(-7.56800191775E-016,-0.7060523675,0.708159624907)) ;
#230=DIRECTION('Axis2P3D Direction',(0.,0.,1.)) ;
#237=DIRECTION('Vector Direction',(8.43266668964E-016,0.7060523675,0.708159624907)) ;
#249=DIRECTION('Axis2P3D Direction',(0.,0.,1.)) ;
#254=DIRECTION('Axis2P3D Direction',(0.,0.,1.)) ;
#266=DIRECTION('Axis2P3D Direction',(0.,0.,1.)) ;
#267=DIRECTION('Axis2P3D XDirection',(-1.83697019872E-016,-1.,-0.)) ;
#271=DIRECTION('Vector Direction',(0.,0.,1.)) ;
#278=DIRECTION('Axis2P3D Direction',(0.,0.,1.)) ;
#285=DIRECTION('Vector Direction',(0.,0.,1.)) ;
#297=DIRECTION('Axis2P3D Direction',(0.,0.,1.)) ;
#309=DIRECTION('Axis2P3D Direction',(-0.,-0.,-1.)) ;
#310=DIRECTION('Axis2P3D XDirection',(6.12323399574E-017,-1.,0.)) ;
#314=DIRECTION('Axis2P3D Direction',(0.,0.,-1.)) ;
#323=DIRECTION('Vector Direction',(-1.84049847152E-016,-0.316227766067,-0.948683298034)) ;
#330=DIRECTION('Axis2P3D Direction',(0.,0.,-1.)) ;
#337=DIRECTION('Vector Direction',(2.22776579303E-016,0.316227766067,-0.948683298034)) ;
#349=DIRECTION('Axis2P3D Direction',(0.,0.,-1.)) ;
#354=DIRECTION('Axis2P3D Direction',(0.,0.,-1.)) ;
#366=DIRECTION('Axis2P3D Direction',(0.,0.,1.)) ;
#367=DIRECTION('Axis2P3D XDirection',(-1.83697019872E-016,-1.,0.)) ;
#371=DIRECTION('Axis2P3D Direction',(0.,0.,1.)) ;
#380=DIRECTION('Vector Direction',(-2.82184038147E-017,-0.153613835621,0.98813095767)) ;
#385=DIRECTION('Vector Direction',(-8.94058207415E-017,0.153613835621,0.98813095767)) ;
#397=DIRECTION('Axis2P3D Direction',(0.,0.,1.)) ;
#409=DIRECTION('Axis2P3D Direction',(0.,0.,1.)) ;
#410=DIRECTION('Axis2P3D XDirection',(1.,0.,0.)) ;
#423=DIRECTION('Axis2P3D Direction',(0.,0.,1.)) ;
#424=DIRECTION('Axis2P3D XDirection',(1.,0.,0.)) ;
#437=DIRECTION('Axis2P3D Direction',(0.,0.,1.)) ;
#438=DIRECTION('Axis2P3D XDirection',(1.,0.,0.)) ;
#451=DIRECTION('Axis2P3D Direction',(0.,0.,1.)) ;
#452=DIRECTION('Axis2P3D XDirection',(1.,0.,0.)) ;
#47=AXIS2_PLACEMENT_3D(' ',#46,$,$) ;
#54=AXIS2_PLACEMENT_3D('Torus Axis2P3D',#51,#52,#53) ;
#58=AXIS2_PLACEMENT_3D('Circle Axis2P3D',#56,#57,$) ;
#67=AXIS2_PLACEMENT_3D('Circle Axis2P3D',#65,#66,$) ;
#74=AXIS2_PLACEMENT_3D('Circle Axis2P3D',#72,#73,$) ;
#81=AXIS2_PLACEMENT_3D('Circle Axis2P3D',#79,#80,$) ;
#93=AXIS2_PLACEMENT_3D('Circle Axis2P3D',#91,#92,$) ;
#98=AXIS2_PLACEMENT_3D('Circle Axis2P3D',#96,#97,$) ;
#111=AXIS2_PLACEMENT_3D('Torus Axis2P3D',#108,#109,#110) ;
#115=AXIS2_PLACEMENT_3D('Circle Axis2P3D',#113,#114,$) ;
#124=AXIS2_PLACEMENT_3D('Circle Axis2P3D',#122,#123,$) ;
#131=AXIS2_PLACEMENT_3D('Circle Axis2P3D',#129,#130,$) ;
#138=AXIS2_PLACEMENT_3D('Circle Axis2P3D',#136,#137,$) ;
#150=AXIS2_PLACEMENT_3D('Circle Axis2P3D',#148,#149,$) ;
#155=AXIS2_PLACEMENT_3D('Circle Axis2P3D',#153,#154,$) ;
#168=AXIS2_PLACEMENT_3D('Cylinder Axis2P3D',#165,#166,#167) ;
#179=AXIS2_PLACEMENT_3D('Circle Axis2P3D',#177,#178,$) ;
#198=AXIS2_PLACEMENT_3D('Circle Axis2P3D',#196,#197,$) ;
#211=AXIS2_PLACEMENT_3D('Cone Axis2P3D',#208,#209,#210) ;
#215=AXIS2_PLACEMENT_3D('Circle Axis2P3D',#213,#214,$) ;
#231=AXIS2_PLACEMENT_3D('Circle Axis2P3D',#229,#230,$) ;
#250=AXIS2_PLACEMENT_3D('Circle Axis2P3D',#248,#249,$) ;
#255=AXIS2_PLACEMENT_3D('Circle Axis2P3D',#253,#254,$) ;
#268=AXIS2_PLACEMENT_3D('Cylinder Axis2P3D',#265,#266,#267) ;
#279=AXIS2_PLACEMENT_3D('Circle Axis2P3D',#277,#278,$) ;
#298=AXIS2_PLACEMENT_3D('Circle Axis2P3D',#296,#297,$) ;
#311=AXIS2_PLACEMENT_3D('Cone Axis2P3D',#308,#309,#310) ;
#315=AXIS2_PLACEMENT_3D('Circle Axis2P3D',#313,#314,$) ;
#331=AXIS2_PLACEMENT_3D('Circle Axis2P3D',#329,#330,$) ;
#350=AXIS2_PLACEMENT_3D('Circle Axis2P3D',#348,#349,$) ;
#355=AXIS2_PLACEMENT_3D('Circle Axis2P3D',#353,#354,$) ;
#368=AXIS2_PLACEMENT_3D('Cone Axis2P3D',#365,#366,#367) ;
#372=AXIS2_PLACEMENT_3D('Circle Axis2P3D',#370,#371,$) ;
#398=AXIS2_PLACEMENT_3D('Circle Axis2P3D',#396,#397,$) ;
#411=AXIS2_PLACEMENT_3D('Plane Axis2P3D',#408,#409,#410) ;
#425=AXIS2_PLACEMENT_3D('Plane Axis2P3D',#422,#423,#424) ;
#439=AXIS2_PLACEMENT_3D('Plane Axis2P3D',#436,#437,#438) ;
#453=AXIS2_PLACEMENT_3D('Plane Axis2P3D',#450,#451,#452) ;
#40=PRODUCT_DEFINITION_SHAPE(' ',' ',#14) ;
#31=APPROVAL_PERSON_ORGANIZATION(#25,#21,#19) ;
#25=PERSON_AND_ORGANIZATION(#22,#23) ;
#22=PERSON(' ',' ',' ',$,$,$) ;
#23=ORGANIZATION(' ',' ',' ') ;
#21=APPROVAL(#20,' ') ;
#20=APPROVAL_STATUS('not_yet_approved') ;
#19=APPROVAL_ROLE('APPROVER') ;
#13=DATE_AND_TIME(#11,#12) ;
#12=LOCAL_TIME(17,21,24.,#10) ;
#10=COORDINATED_UNIVERSAL_TIME_OFFSET(0,0,.AHEAD.) ;
#85=ORIENTED_EDGE('',*,*,#64,.F.) ;
#86=ORIENTED_EDGE('',*,*,#71,.T.) ;
#87=ORIENTED_EDGE('',*,*,#78,.T.) ;
#88=ORIENTED_EDGE('',*,*,#83,.F.) ;
#102=ORIENTED_EDGE('',*,*,#95,.F.) ;
#103=ORIENTED_EDGE('',*,*,#83,.T.) ;
#104=ORIENTED_EDGE('',*,*,#100,.T.) ;
#105=ORIENTED_EDGE('',*,*,#71,.F.) ;
#142=ORIENTED_EDGE('',*,*,#121,.F.) ;
#143=ORIENTED_EDGE('',*,*,#128,.T.) ;
#144=ORIENTED_EDGE('',*,*,#135,.T.) ;
#145=ORIENTED_EDGE('',*,*,#140,.F.) ;
#159=ORIENTED_EDGE('',*,*,#152,.F.) ;
#160=ORIENTED_EDGE('',*,*,#140,.T.) ;
#161=ORIENTED_EDGE('',*,*,#157,.T.) ;
#162=ORIENTED_EDGE('',*,*,#128,.F.) ;
#190=ORIENTED_EDGE('',*,*,#135,.F.) ;
#191=ORIENTED_EDGE('',*,*,#176,.T.) ;
#192=ORIENTED_EDGE('',*,*,#183,.T.) ;
#193=ORIENTED_EDGE('',*,*,#188,.F.) ;
#202=ORIENTED_EDGE('',*,*,#157,.F.) ;
#203=ORIENTED_EDGE('',*,*,#188,.T.) ;
#204=ORIENTED_EDGE('',*,*,#200,.T.) ;
#205=ORIENTED_EDGE('',*,*,#176,.F.) ;
#242=ORIENTED_EDGE('',*,*,#221,.F.) ;
#243=ORIENTED_EDGE('',*,*,#228,.T.) ;
#244=ORIENTED_EDGE('',*,*,#235,.T.) ;
#245=ORIENTED_EDGE('',*,*,#240,.F.) ;
#259=ORIENTED_EDGE('',*,*,#252,.F.) ;
#260=ORIENTED_EDGE('',*,*,#240,.T.) ;
#261=ORIENTED_EDGE('',*,*,#257,.T.) ;
#262=ORIENTED_EDGE('',*,*,#228,.F.) ;
#290=ORIENTED_EDGE('',*,*,#235,.F.) ;
#291=ORIENTED_EDGE('',*,*,#276,.T.) ;
#292=ORIENTED_EDGE('',*,*,#283,.T.) ;
#293=ORIENTED_EDGE('',*,*,#288,.F.) ;
#302=ORIENTED_EDGE('',*,*,#257,.F.) ;
#303=ORIENTED_EDGE('',*,*,#288,.T.) ;
#304=ORIENTED_EDGE('',*,*,#300,.T.) ;
#305=ORIENTED_EDGE('',*,*,#276,.F.) ;
#342=ORIENTED_EDGE('',*,*,#321,.F.) ;
#343=ORIENTED_EDGE('',*,*,#328,.T.) ;
#344=ORIENTED_EDGE('',*,*,#335,.T.) ;
#345=ORIENTED_EDGE('',*,*,#340,.F.) ;
#359=ORIENTED_EDGE('',*,*,#352,.F.) ;
#360=ORIENTED_EDGE('',*,*,#340,.T.) ;
#361=ORIENTED_EDGE('',*,*,#357,.T.) ;
#362=ORIENTED_EDGE('',*,*,#328,.F.) ;
#390=ORIENTED_EDGE('',*,*,#378,.F.) ;
#391=ORIENTED_EDGE('',*,*,#383,.T.) ;
#392=ORIENTED_EDGE('',*,*,#64,.T.) ;
#393=ORIENTED_EDGE('',*,*,#388,.F.) ;
#402=ORIENTED_EDGE('',*,*,#400,.F.) ;
#403=ORIENTED_EDGE('',*,*,#388,.T.) ;
#404=ORIENTED_EDGE('',*,*,#95,.T.) ;
#405=ORIENTED_EDGE('',*,*,#383,.F.) ;
#414=ORIENTED_EDGE('',*,*,#152,.T.) ;
#415=ORIENTED_EDGE('',*,*,#121,.T.) ;
#418=ORIENTED_EDGE('',*,*,#78,.F.) ;
#419=ORIENTED_EDGE('',*,*,#100,.F.) ;
#428=ORIENTED_EDGE('',*,*,#183,.F.) ;
#429=ORIENTED_EDGE('',*,*,#200,.F.) ;
#432=ORIENTED_EDGE('',*,*,#252,.T.) ;
#433=ORIENTED_EDGE('',*,*,#221,.T.) ;
#442=ORIENTED_EDGE('',*,*,#283,.F.) ;
#443=ORIENTED_EDGE('',*,*,#300,.F.) ;
#446=ORIENTED_EDGE('',*,*,#352,.T.) ;
#447=ORIENTED_EDGE('',*,*,#321,.T.) ;
#456=ORIENTED_EDGE('',*,*,#335,.F.) ;
#457=ORIENTED_EDGE('',*,*,#357,.F.) ;
#460=ORIENTED_EDGE('',*,*,#400,.T.) ;
#461=ORIENTED_EDGE('',*,*,#378,.T.) ;
#420=FACE_BOUND('',#417,.T.) ;
#434=FACE_BOUND('',#431,.T.) ;
#448=FACE_BOUND('',#445,.T.) ;
#462=FACE_BOUND('',#459,.T.) ;
#50=CLOSED_SHELL('Closed Shell',(#90,#107,#147,#164,#195,#207,#247,#264,#295,#307,#347,#364,#395,#407,#421,#435,#449,#463)) ;
#172=VECTOR('Line Direction',#171,1.) ;
#186=VECTOR('Line Direction',#185,1.) ;
#224=VECTOR('Line Direction',#223,1.) ;
#238=VECTOR('Line Direction',#237,1.) ;
#272=VECTOR('Line Direction',#271,1.) ;
#286=VECTOR('Line Direction',#285,1.) ;
#324=VECTOR('Line Direction',#323,1.) ;
#338=VECTOR('Line Direction',#337,1.) ;
#381=VECTOR('Line Direction',#380,1.) ;
#386=VECTOR('Line Direction',#385,1.) ;
#465=ADVANCED_BREP_SHAPE_REPRESENTATION('NONE',(#464),#45) ;
#48=SHAPE_REPRESENTATION(' ',(#47),#45) ;
#90=ADVANCED_FACE('\X2\96F64EF651E04F554F53\X0\',(#89),#55,.T.) ;
#107=ADVANCED_FACE('\X2\96F64EF651E04F554F53\X0\',(#106),#55,.T.) ;
#147=ADVANCED_FACE('\X2\96F64EF651E04F554F53\X0\',(#146),#112,.T.) ;
#164=ADVANCED_FACE('\X2\96F64EF651E04F554F53\X0\',(#163),#112,.T.) ;
#195=ADVANCED_FACE('\X2\96F64EF651E04F554F53\X0\',(#194),#169,.T.) ;
#207=ADVANCED_FACE('\X2\96F64EF651E04F554F53\X0\',(#206),#169,.T.) ;
#247=ADVANCED_FACE('\X2\96F64EF651E04F554F53\X0\',(#246),#212,.T.) ;
#264=ADVANCED_FACE('\X2\96F64EF651E04F554F53\X0\',(#263),#212,.T.) ;
#295=ADVANCED_FACE('\X2\96F64EF651E04F554F53\X0\',(#294),#269,.T.) ;
#307=ADVANCED_FACE('\X2\96F64EF651E04F554F53\X0\',(#306),#269,.T.) ;
#347=ADVANCED_FACE('\X2\96F64EF651E04F554F53\X0\',(#346),#312,.F.) ;
#364=ADVANCED_FACE('\X2\96F64EF651E04F554F53\X0\',(#363),#312,.F.) ;
#395=ADVANCED_FACE('\X2\96F64EF651E04F554F53\X0\',(#394),#369,.F.) ;
#407=ADVANCED_FACE('\X2\96F64EF651E04F554F53\X0\',(#406),#369,.F.) ;
#421=ADVANCED_FACE('\X2\96F64EF651E04F554F53\X0\',(#416,#420),#412,.T.) ;
#435=ADVANCED_FACE('\X2\96F64EF651E04F554F53\X0\',(#430,#434),#426,.F.) ;
#449=ADVANCED_FACE('\X2\96F64EF651E04F554F53\X0\',(#444,#448),#440,.F.) ;
#463=ADVANCED_FACE('\X2\96F64EF651E04F554F53\X0\',(#458,#462),#454,.F.) ;
#4=APPLICATION_PROTOCOL_DEFINITION('international standard','config_control_design',1994,#1) ;
#32=APPROVAL_DATE_TIME(#13,#21) ;
#464=MANIFOLD_SOLID_BREP('\X2\96F64EF651E04F554F53\X0\',#50) ;
#11=CALENDAR_DATE(2025,18,12) ;
#30=CC_DESIGN_APPROVAL(#21,(#16,#6,#14)) ;
#18=CC_DESIGN_DATE_AND_TIME_ASSIGNMENT(#13,#17,(#16)) ;
#29=CC_DESIGN_DATE_AND_TIME_ASSIGNMENT(#13,#28,(#14)) ;
#17=DATE_TIME_ROLE('classification_date') ;
#28=DATE_TIME_ROLE('creation_date') ;
#27=CC_DESIGN_PERSON_AND_ORGANIZATION_ASSIGNMENT(#25,#26,(#16)) ;
#33=CC_DESIGN_PERSON_AND_ORGANIZATION_ASSIGNMENT(#25,#34,(#6)) ;
#35=CC_DESIGN_PERSON_AND_ORGANIZATION_ASSIGNMENT(#25,#36,(#6,#14)) ;
#37=CC_DESIGN_PERSON_AND_ORGANIZATION_ASSIGNMENT(#25,#38,(#5)) ;
#26=PERSON_AND_ORGANIZATION_ROLE('classification_officer') ;
#34=PERSON_AND_ORGANIZATION_ROLE('design_supplier') ;
#36=PERSON_AND_ORGANIZATION_ROLE('creator') ;
#38=PERSON_AND_ORGANIZATION_ROLE('design_owner') ;
#39=CC_DESIGN_SECURITY_CLASSIFICATION(#16,(#6)) ;
#59=CIRCLE('generated circle',#58,22.2675667682) ;
#68=CIRCLE('generated circle',#67,1.) ;
#75=CIRCLE('generated circle',#74,23.2548078889) ;
#82=CIRCLE('generated circle',#81,1.) ;
#94=CIRCLE('generated circle',#93,22.2675667682) ;
#99=CIRCLE('generated circle',#98,23.2548078889) ;
#116=CIRCLE('generated circle',#115,25.3) ;
#125=CIRCLE('generated circle',#124,1.) ;
#132=CIRCLE('generated circle',#131,26.3) ;
#139=CIRCLE('generated circle',#138,1.) ;
#151=CIRCLE('generated circle',#150,25.3) ;
#156=CIRCLE('generated circle',#155,26.3) ;
#180=CIRCLE('generated circle',#179,26.3) ;
#199=CIRCLE('generated circle',#198,26.3) ;
#216=CIRCLE('generated circle',#215,24.5000000009) ;
#232=CIRCLE('generated circle',#231,24.0000000009) ;
#251=CIRCLE('generated circle',#250,24.5000000009) ;
#256=CIRCLE('generated circle',#255,24.0000000009) ;
#280=CIRCLE('generated circle',#279,24.0000000009) ;
#299=CIRCLE('generated circle',#298,24.0000000009) ;
#316=CIRCLE('generated circle',#315,23.0000000012) ;
#332=CIRCLE('generated circle',#331,22.5000000012) ;
#351=CIRCLE('generated circle',#350,23.0000000012) ;
#356=CIRCLE('generated circle',#355,22.5000000012) ;
#373=CIRCLE('generated circle',#372,17.9676905704) ;
#399=CIRCLE('generated circle',#398,17.9676905704) ;
#212=CONICAL_SURFACE('Cone',#211,24.0000000009,0.783908106844) ;
#312=CONICAL_SURFACE('Cone',#311,22.5000000012,0.321750554449) ;
#369=CONICAL_SURFACE('Cone',#368,17.9676905704,0.154224485445) ;
#466=SHAPE_REPRESENTATION_RELATIONSHIP(' ',' ',#48,#465) ;
#169=CYLINDRICAL_SURFACE('generated cylinder',#168,26.3) ;
#269=CYLINDRICAL_SURFACE('generated cylinder',#268,24.0000000009) ;
#55=TOROIDAL_SURFACE('homeo Torus',#54,23.2548078889,1.) ;
#112=TOROIDAL_SURFACE('homeo Torus',#111,25.3,1.) ;
#3=DESIGN_CONTEXT(' ',#1,'design') ;
#64=EDGE_CURVE('',#61,#63,#59,.T.) ;
#71=EDGE_CURVE('',#61,#70,#68,.F.) ;
#78=EDGE_CURVE('',#70,#77,#75,.T.) ;
#83=EDGE_CURVE('',#63,#77,#82,.F.) ;
#95=EDGE_CURVE('',#63,#61,#94,.T.) ;
#100=EDGE_CURVE('',#77,#70,#99,.T.) ;
#121=EDGE_CURVE('',#118,#120,#116,.T.) ;
#128=EDGE_CURVE('',#118,#127,#125,.F.) ;
#135=EDGE_CURVE('',#127,#134,#132,.T.) ;
#140=EDGE_CURVE('',#120,#134,#139,.F.) ;
#152=EDGE_CURVE('',#120,#118,#151,.T.) ;
#157=EDGE_CURVE('',#134,#127,#156,.T.) ;
#176=EDGE_CURVE('',#127,#175,#173,.F.) ;
#183=EDGE_CURVE('',#175,#182,#180,.T.) ;
#188=EDGE_CURVE('',#134,#182,#187,.F.) ;
#200=EDGE_CURVE('',#182,#175,#199,.T.) ;
#221=EDGE_CURVE('',#218,#220,#216,.T.) ;
#228=EDGE_CURVE('',#218,#227,#225,.F.) ;
#235=EDGE_CURVE('',#227,#234,#232,.T.) ;
#240=EDGE_CURVE('',#220,#234,#239,.F.) ;
#252=EDGE_CURVE('',#220,#218,#251,.T.) ;
#257=EDGE_CURVE('',#234,#227,#256,.T.) ;
#276=EDGE_CURVE('',#227,#275,#273,.F.) ;
#283=EDGE_CURVE('',#275,#282,#280,.T.) ;
#288=EDGE_CURVE('',#234,#282,#287,.F.) ;
#300=EDGE_CURVE('',#282,#275,#299,.T.) ;
#321=EDGE_CURVE('',#318,#320,#316,.F.) ;
#328=EDGE_CURVE('',#318,#327,#325,.F.) ;
#335=EDGE_CURVE('',#327,#334,#332,.F.) ;
#340=EDGE_CURVE('',#320,#334,#339,.F.) ;
#352=EDGE_CURVE('',#320,#318,#351,.F.) ;
#357=EDGE_CURVE('',#334,#327,#356,.F.) ;
#378=EDGE_CURVE('',#375,#377,#373,.T.) ;
#383=EDGE_CURVE('',#375,#61,#382,.T.) ;
#388=EDGE_CURVE('',#377,#63,#387,.T.) ;
#400=EDGE_CURVE('',#377,#375,#399,.T.) ;
#84=EDGE_LOOP('',(#85,#86,#87,#88)) ;
#101=EDGE_LOOP('',(#102,#103,#104,#105)) ;
#141=EDGE_LOOP('',(#142,#143,#144,#145)) ;
#158=EDGE_LOOP('',(#159,#160,#161,#162)) ;
#189=EDGE_LOOP('',(#190,#191,#192,#193)) ;
#201=EDGE_LOOP('',(#202,#203,#204,#205)) ;
#241=EDGE_LOOP('',(#242,#243,#244,#245)) ;
#258=EDGE_LOOP('',(#259,#260,#261,#262)) ;
#289=EDGE_LOOP('',(#290,#291,#292,#293)) ;
#301=EDGE_LOOP('',(#302,#303,#304,#305)) ;
#341=EDGE_LOOP('',(#342,#343,#344,#345)) ;
#358=EDGE_LOOP('',(#359,#360,#361,#362)) ;
#389=EDGE_LOOP('',(#390,#391,#392,#393)) ;
#401=EDGE_LOOP('',(#402,#403,#404,#405)) ;
#413=EDGE_LOOP('',(#414,#415)) ;
#417=EDGE_LOOP('',(#418,#419)) ;
#427=EDGE_LOOP('',(#428,#429)) ;
#431=EDGE_LOOP('',(#432,#433)) ;
#441=EDGE_LOOP('',(#442,#443)) ;
#445=EDGE_LOOP('',(#446,#447)) ;
#455=EDGE_LOOP('',(#456,#457)) ;
#459=EDGE_LOOP('',(#460,#461)) ;
#89=FACE_OUTER_BOUND('',#84,.T.) ;
#106=FACE_OUTER_BOUND('',#101,.T.) ;
#146=FACE_OUTER_BOUND('',#141,.T.) ;
#163=FACE_OUTER_BOUND('',#158,.T.) ;
#194=FACE_OUTER_BOUND('',#189,.T.) ;
#206=FACE_OUTER_BOUND('',#201,.T.) ;
#246=FACE_OUTER_BOUND('',#241,.T.) ;
#263=FACE_OUTER_BOUND('',#258,.T.) ;
#294=FACE_OUTER_BOUND('',#289,.T.) ;
#306=FACE_OUTER_BOUND('',#301,.T.) ;
#346=FACE_OUTER_BOUND('',#341,.T.) ;
#363=FACE_OUTER_BOUND('',#358,.T.) ;
#394=FACE_OUTER_BOUND('',#389,.T.) ;
#406=FACE_OUTER_BOUND('',#401,.T.) ;
#416=FACE_OUTER_BOUND('',#413,.T.) ;
#430=FACE_OUTER_BOUND('',#427,.T.) ;
#444=FACE_OUTER_BOUND('',#441,.T.) ;
#458=FACE_OUTER_BOUND('',#455,.T.) ;
#44=UNCERTAINTY_MEASURE_WITH_UNIT(LENGTH_MEASURE(0.005),#41,'distance_accuracy_value','CONFUSED CURVE UNCERTAINTY') ;
#173=LINE('Line',#170,#172) ;
#187=LINE('Line',#184,#186) ;
#225=LINE('Line',#222,#224) ;
#239=LINE('Line',#236,#238) ;
#273=LINE('Line',#270,#272) ;
#287=LINE('Line',#284,#286) ;
#325=LINE('Line',#322,#324) ;
#339=LINE('Line',#336,#338) ;
#382=LINE('Line',#379,#381) ;
#387=LINE('Line',#384,#386) ;
#2=MECHANICAL_CONTEXT(' ',#1,'mechanical') ;
#24=PERSONAL_ADDRESS(' ',' ',' ',' ',' ',' ',' ',' ',' ',' ',' ',' ',(#22),' ') ;
#412=PLANE('',#411) ;
#426=PLANE('',#425) ;
#440=PLANE('',#439) ;
#454=PLANE('',#453) ;
#7=PRODUCT_CATEGORY('part',$) ;
#9=PRODUCT_CATEGORY_RELATIONSHIP(' ',' ',#7,#8) ;
#6=PRODUCT_DEFINITION_FORMATION_WITH_SPECIFIED_SOURCE('',' ',#5,.NOT_KNOWN.) ;
#8=PRODUCT_RELATED_PRODUCT_CATEGORY('detail',$,(#5)) ;
#49=SHAPE_DEFINITION_REPRESENTATION(#40,#48) ;
#61=VERTEX_POINT('',#60) ;
#63=VERTEX_POINT('',#62) ;
#70=VERTEX_POINT('',#69) ;
#77=VERTEX_POINT('',#76) ;
#118=VERTEX_POINT('',#117) ;
#120=VERTEX_POINT('',#119) ;
#127=VERTEX_POINT('',#126) ;
#134=VERTEX_POINT('',#133) ;
#175=VERTEX_POINT('',#174) ;
#182=VERTEX_POINT('',#181) ;
#218=VERTEX_POINT('',#217) ;
#220=VERTEX_POINT('',#219) ;
#227=VERTEX_POINT('',#226) ;
#234=VERTEX_POINT('',#233) ;
#275=VERTEX_POINT('',#274) ;
#282=VERTEX_POINT('',#281) ;
#318=VERTEX_POINT('',#317) ;
#320=VERTEX_POINT('',#319) ;
#327=VERTEX_POINT('',#326) ;
#334=VERTEX_POINT('',#333) ;
#375=VERTEX_POINT('',#374) ;
#377=VERTEX_POINT('',#376) ;
#41=(LENGTH_UNIT()NAMED_UNIT(*)SI_UNIT(.MILLI.,.METRE.)) ;
#42=(NAMED_UNIT(*)PLANE_ANGLE_UNIT()SI_UNIT($,.RADIAN.)) ;
#43=(NAMED_UNIT(*)SI_UNIT($,.STERADIAN.)SOLID_ANGLE_UNIT()) ;
#45=(GEOMETRIC_REPRESENTATION_CONTEXT(3)GLOBAL_UNCERTAINTY_ASSIGNED_CONTEXT((#44))GLOBAL_UNIT_ASSIGNED_CONTEXT((#41,#42,#43))REPRESENTATION_CONTEXT(' ',' ')) ;
ENDSEC;
END-ISO-10303-21;
