ISO-10303-21;
HEADER;
FILE_DESCRIPTION(('CATIA V5 STEP Exchange'),'2;1');

FILE_NAME('G:\\GaaPro\\luo\\5.\X2\5F855F0053D1987976EE\X0\\\3D\X2\4EA754C156FE\X0\\\COMBO-4R1.stp','2025-12-17T10:22:09+00:00',('none'),('none'),'CATIA Version 5-6 Release 2018','CATIA V5 STEP AP203','none');

FILE_SCHEMA(('CONFIG_CONTROL_DESIGN'));

ENDSEC;
DATA;
#5=PRODUCT('Part41','','',(#2)) ;
#1=APPLICATION_CONTEXT('configuration controlled 3D design of mechanical parts and assemblies') ;
#14=PRODUCT_DEFINITION('',' ',#6,#3) ;
#16=SECURITY_CLASSIFICATION(' ',' ',#15) ;
#15=SECURITY_CLASSIFICATION_LEVEL('unclassified') ;
#46=CARTESIAN_POINT(' ',(0.,0.,0.)) ;
#51=CARTESIAN_POINT('Axis2P3D Location',(0.,0.,-0.160000000045)) ;
#56=CARTESIAN_POINT('Axis2P3D Location',(0.,0.,0.)) ;
#60=CARTESIAN_POINT('Vertex',(-45.,5.51091059616E-015,5.55111512313E-017)) ;
#62=CARTESIAN_POINT('Vertex',(45.,0.,0.)) ;
#65=CARTESIAN_POINT('Line Origine',(-45.,5.51091059616E-015,-0.160000000045)) ;
#69=CARTESIAN_POINT('Vertex',(-45.,5.51091059616E-015,1.)) ;
#72=CARTESIAN_POINT('Axis2P3D Location',(0.,0.,1.)) ;
#76=CARTESIAN_POINT('Vertex',(45.,0.,1.)) ;
#79=CARTESIAN_POINT('Line Origine',(45.,-1.10218211923E-014,-0.160000000045)) ;
#91=CARTESIAN_POINT('Axis2P3D Location',(0.,0.,0.)) ;
#96=CARTESIAN_POINT('Axis2P3D Location',(0.,0.,1.)) ;
#108=CARTESIAN_POINT('Axis2P3D Location',(0.,0.,1.)) ;
#113=CARTESIAN_POINT('Axis2P3D Location',(0.,0.,1.)) ;
#117=CARTESIAN_POINT('Vertex',(48.,0.,1.)) ;
#119=CARTESIAN_POINT('Vertex',(-48.,5.87830463591E-015,1.)) ;
#122=CARTESIAN_POINT('Axis2P3D Location',(0.,0.,1.)) ;
#136=CARTESIAN_POINT('Axis2P3D Location',(0.,0.,2.5)) ;
#141=CARTESIAN_POINT('Line Origine',(48.,0.,2.5)) ;
#145=CARTESIAN_POINT('Vertex',(48.,0.,4.)) ;
#148=CARTESIAN_POINT('Axis2P3D Location',(0.,0.,4.)) ;
#152=CARTESIAN_POINT('Vertex',(-48.,5.87830463591E-015,4.)) ;
#155=CARTESIAN_POINT('Line Origine',(-48.,5.87830463591E-015,2.5)) ;
#167=CARTESIAN_POINT('Axis2P3D Location',(0.,0.,4.)) ;
#179=CARTESIAN_POINT('Axis2P3D Location',(0.,0.,4.)) ;
#184=CARTESIAN_POINT('Axis2P3D Location',(0.,0.,4.)) ;
#188=CARTESIAN_POINT('Vertex',(57.5,0.,4.)) ;
#190=CARTESIAN_POINT('Vertex',(-57.5,7.0417190951E-015,4.)) ;
#193=CARTESIAN_POINT('Axis2P3D Location',(0.,0.,4.)) ;
#207=CARTESIAN_POINT('Axis2P3D Location',(0.,0.,2.)) ;
#212=CARTESIAN_POINT('Line Origine',(57.5,0.,2.)) ;
#216=CARTESIAN_POINT('Vertex',(57.5,0.,0.)) ;
#219=CARTESIAN_POINT('Axis2P3D Location',(0.,0.,0.)) ;
#223=CARTESIAN_POINT('Vertex',(-57.5,7.0417190951E-015,0.)) ;
#226=CARTESIAN_POINT('Line Origine',(-57.5,7.0417190951E-015,2.)) ;
#238=CARTESIAN_POINT('Axis2P3D Location',(0.,0.,0.)) ;
#250=CARTESIAN_POINT('Axis2P3D Location',(0.,0.,0.)) ;
#52=DIRECTION('Axis2P3D Direction',(0.,0.,1.)) ;
#53=DIRECTION('Axis2P3D XDirection',(1.,0.,0.)) ;
#57=DIRECTION('Axis2P3D Direction',(0.,0.,1.)) ;
#66=DIRECTION('Vector Direction',(0.,0.,1.)) ;
#73=DIRECTION('Axis2P3D Direction',(0.,0.,1.)) ;
#80=DIRECTION('Vector Direction',(0.,0.,1.)) ;
#92=DIRECTION('Axis2P3D Direction',(0.,0.,1.)) ;
#97=DIRECTION('Axis2P3D Direction',(0.,0.,1.)) ;
#109=DIRECTION('Axis2P3D Direction',(0.,0.,1.)) ;
#110=DIRECTION('Axis2P3D XDirection',(1.,0.,0.)) ;
#114=DIRECTION('Axis2P3D Direction',(0.,0.,1.)) ;
#123=DIRECTION('Axis2P3D Direction',(0.,0.,1.)) ;
#137=DIRECTION('Axis2P3D Direction',(0.,0.,1.)) ;
#138=DIRECTION('Axis2P3D XDirection',(1.,0.,0.)) ;
#142=DIRECTION('Vector Direction',(0.,0.,1.)) ;
#149=DIRECTION('Axis2P3D Direction',(0.,0.,1.)) ;
#156=DIRECTION('Vector Direction',(0.,0.,1.)) ;
#168=DIRECTION('Axis2P3D Direction',(0.,0.,1.)) ;
#180=DIRECTION('Axis2P3D Direction',(0.,0.,1.)) ;
#181=DIRECTION('Axis2P3D XDirection',(1.,0.,0.)) ;
#185=DIRECTION('Axis2P3D Direction',(0.,0.,1.)) ;
#194=DIRECTION('Axis2P3D Direction',(0.,0.,1.)) ;
#208=DIRECTION('Axis2P3D Direction',(0.,0.,1.)) ;
#209=DIRECTION('Axis2P3D XDirection',(1.,0.,0.)) ;
#213=DIRECTION('Vector Direction',(0.,0.,1.)) ;
#220=DIRECTION('Axis2P3D Direction',(0.,0.,1.)) ;
#227=DIRECTION('Vector Direction',(0.,0.,1.)) ;
#239=DIRECTION('Axis2P3D Direction',(0.,0.,1.)) ;
#251=DIRECTION('Axis2P3D Direction',(0.,0.,1.)) ;
#252=DIRECTION('Axis2P3D XDirection',(1.,0.,0.)) ;
#47=AXIS2_PLACEMENT_3D(' ',#46,$,$) ;
#54=AXIS2_PLACEMENT_3D('Cylinder Axis2P3D',#51,#52,#53) ;
#58=AXIS2_PLACEMENT_3D('Circle Axis2P3D',#56,#57,$) ;
#74=AXIS2_PLACEMENT_3D('Circle Axis2P3D',#72,#73,$) ;
#93=AXIS2_PLACEMENT_3D('Circle Axis2P3D',#91,#92,$) ;
#98=AXIS2_PLACEMENT_3D('Circle Axis2P3D',#96,#97,$) ;
#111=AXIS2_PLACEMENT_3D('Plane Axis2P3D',#108,#109,#110) ;
#115=AXIS2_PLACEMENT_3D('Circle Axis2P3D',#113,#114,$) ;
#124=AXIS2_PLACEMENT_3D('Circle Axis2P3D',#122,#123,$) ;
#139=AXIS2_PLACEMENT_3D('Cylinder Axis2P3D',#136,#137,#138) ;
#150=AXIS2_PLACEMENT_3D('Circle Axis2P3D',#148,#149,$) ;
#169=AXIS2_PLACEMENT_3D('Circle Axis2P3D',#167,#168,$) ;
#182=AXIS2_PLACEMENT_3D('Plane Axis2P3D',#179,#180,#181) ;
#186=AXIS2_PLACEMENT_3D('Circle Axis2P3D',#184,#185,$) ;
#195=AXIS2_PLACEMENT_3D('Circle Axis2P3D',#193,#194,$) ;
#210=AXIS2_PLACEMENT_3D('Cylinder Axis2P3D',#207,#208,#209) ;
#221=AXIS2_PLACEMENT_3D('Circle Axis2P3D',#219,#220,$) ;
#240=AXIS2_PLACEMENT_3D('Circle Axis2P3D',#238,#239,$) ;
#253=AXIS2_PLACEMENT_3D('Plane Axis2P3D',#250,#251,#252) ;
#40=PRODUCT_DEFINITION_SHAPE(' ',' ',#14) ;
#31=APPROVAL_PERSON_ORGANIZATION(#25,#21,#19) ;
#25=PERSON_AND_ORGANIZATION(#22,#23) ;
#22=PERSON(' ',' ',' ',$,$,$) ;
#23=ORGANIZATION(' ',' ',' ') ;
#21=APPROVAL(#20,' ') ;
#20=APPROVAL_STATUS('not_yet_approved') ;
#19=APPROVAL_ROLE('APPROVER') ;
#13=DATE_AND_TIME(#11,#12) ;
#12=LOCAL_TIME(18,22,9.,#10) ;
#10=COORDINATED_UNIVERSAL_TIME_OFFSET(0,0,.AHEAD.) ;
#85=ORIENTED_EDGE('',*,*,#64,.F.) ;
#86=ORIENTED_EDGE('',*,*,#71,.F.) ;
#87=ORIENTED_EDGE('',*,*,#78,.T.) ;
#88=ORIENTED_EDGE('',*,*,#83,.T.) ;
#102=ORIENTED_EDGE('',*,*,#95,.F.) ;
#103=ORIENTED_EDGE('',*,*,#83,.F.) ;
#104=ORIENTED_EDGE('',*,*,#100,.T.) ;
#105=ORIENTED_EDGE('',*,*,#71,.T.) ;
#128=ORIENTED_EDGE('',*,*,#121,.T.) ;
#129=ORIENTED_EDGE('',*,*,#126,.T.) ;
#132=ORIENTED_EDGE('',*,*,#100,.F.) ;
#133=ORIENTED_EDGE('',*,*,#78,.F.) ;
#161=ORIENTED_EDGE('',*,*,#147,.F.) ;
#162=ORIENTED_EDGE('',*,*,#154,.T.) ;
#163=ORIENTED_EDGE('',*,*,#159,.T.) ;
#164=ORIENTED_EDGE('',*,*,#121,.F.) ;
#173=ORIENTED_EDGE('',*,*,#159,.F.) ;
#174=ORIENTED_EDGE('',*,*,#171,.T.) ;
#175=ORIENTED_EDGE('',*,*,#147,.T.) ;
#176=ORIENTED_EDGE('',*,*,#126,.F.) ;
#199=ORIENTED_EDGE('',*,*,#192,.T.) ;
#200=ORIENTED_EDGE('',*,*,#197,.T.) ;
#203=ORIENTED_EDGE('',*,*,#154,.F.) ;
#204=ORIENTED_EDGE('',*,*,#171,.F.) ;
#232=ORIENTED_EDGE('',*,*,#218,.F.) ;
#233=ORIENTED_EDGE('',*,*,#225,.T.) ;
#234=ORIENTED_EDGE('',*,*,#230,.T.) ;
#235=ORIENTED_EDGE('',*,*,#192,.F.) ;
#244=ORIENTED_EDGE('',*,*,#230,.F.) ;
#245=ORIENTED_EDGE('',*,*,#242,.T.) ;
#246=ORIENTED_EDGE('',*,*,#218,.T.) ;
#247=ORIENTED_EDGE('',*,*,#197,.F.) ;
#256=ORIENTED_EDGE('',*,*,#242,.F.) ;
#257=ORIENTED_EDGE('',*,*,#225,.F.) ;
#260=ORIENTED_EDGE('',*,*,#64,.T.) ;
#261=ORIENTED_EDGE('',*,*,#95,.T.) ;
#134=FACE_BOUND('',#131,.T.) ;
#205=FACE_BOUND('',#202,.T.) ;
#262=FACE_BOUND('',#259,.T.) ;
#50=CLOSED_SHELL('Closed Shell',(#90,#107,#135,#166,#178,#206,#237,#249,#263)) ;
#67=VECTOR('Line Direction',#66,1.) ;
#81=VECTOR('Line Direction',#80,1.) ;
#143=VECTOR('Line Direction',#142,1.) ;
#157=VECTOR('Line Direction',#156,1.) ;
#214=VECTOR('Line Direction',#213,1.) ;
#228=VECTOR('Line Direction',#227,1.) ;
#265=ADVANCED_BREP_SHAPE_REPRESENTATION('NONE',(#264),#45) ;
#48=SHAPE_REPRESENTATION(' ',(#47),#45) ;
#90=ADVANCED_FACE('\X2\96F64EF651E04F554F53\X0\',(#89),#55,.F.) ;
#107=ADVANCED_FACE('\X2\96F64EF651E04F554F53\X0\',(#106),#55,.F.) ;
#135=ADVANCED_FACE('\X2\96F64EF651E04F554F53\X0\',(#130,#134),#112,.T.) ;
#166=ADVANCED_FACE('\X2\96F64EF651E04F554F53\X0\',(#165),#140,.F.) ;
#178=ADVANCED_FACE('\X2\96F64EF651E04F554F53\X0\',(#177),#140,.F.) ;
#206=ADVANCED_FACE('\X2\96F64EF651E04F554F53\X0\',(#201,#205),#183,.T.) ;
#237=ADVANCED_FACE('\X2\96F64EF651E04F554F53\X0\',(#236),#211,.T.) ;
#249=ADVANCED_FACE('\X2\96F64EF651E04F554F53\X0\',(#248),#211,.T.) ;
#263=ADVANCED_FACE('\X2\96F64EF651E04F554F53\X0\',(#258,#262),#254,.F.) ;
#4=APPLICATION_PROTOCOL_DEFINITION('international standard','config_control_design',1994,#1) ;
#32=APPROVAL_DATE_TIME(#13,#21) ;
#264=MANIFOLD_SOLID_BREP('\X2\96F64EF651E04F554F53\X0\',#50) ;
#11=CALENDAR_DATE(2025,17,12) ;
#30=CC_DESIGN_APPROVAL(#21,(#16,#6,#14)) ;
#18=CC_DESIGN_DATE_AND_TIME_ASSIGNMENT(#13,#17,(#16)) ;
#29=CC_DESIGN_DATE_AND_TIME_ASSIGNMENT(#13,#28,(#14)) ;
#17=DATE_TIME_ROLE('classification_date') ;
#28=DATE_TIME_ROLE('creation_date') ;
#27=CC_DESIGN_PERSON_AND_ORGANIZATION_ASSIGNMENT(#25,#26,(#16)) ;
#33=CC_DESIGN_PERSON_AND_ORGANIZATION_ASSIGNMENT(#25,#34,(#6)) ;
#35=CC_DESIGN_PERSON_AND_ORGANIZATION_ASSIGNMENT(#25,#36,(#6,#14)) ;
#37=CC_DESIGN_PERSON_AND_ORGANIZATION_ASSIGNMENT(#25,#38,(#5)) ;
#26=PERSON_AND_ORGANIZATION_ROLE('classification_officer') ;
#34=PERSON_AND_ORGANIZATION_ROLE('design_supplier') ;
#36=PERSON_AND_ORGANIZATION_ROLE('creator') ;
#38=PERSON_AND_ORGANIZATION_ROLE('design_owner') ;
#39=CC_DESIGN_SECURITY_CLASSIFICATION(#16,(#6)) ;
#59=CIRCLE('generated circle',#58,45.) ;
#75=CIRCLE('generated circle',#74,45.) ;
#94=CIRCLE('generated circle',#93,45.) ;
#99=CIRCLE('generated circle',#98,45.) ;
#116=CIRCLE('generated circle',#115,48.) ;
#125=CIRCLE('generated circle',#124,48.) ;
#151=CIRCLE('generated circle',#150,48.) ;
#170=CIRCLE('generated circle',#169,48.) ;
#187=CIRCLE('generated circle',#186,57.5) ;
#196=CIRCLE('generated circle',#195,57.5) ;
#222=CIRCLE('generated circle',#221,57.5) ;
#241=CIRCLE('generated circle',#240,57.5) ;
#266=SHAPE_REPRESENTATION_RELATIONSHIP(' ',' ',#48,#265) ;
#55=CYLINDRICAL_SURFACE('generated cylinder',#54,45.) ;
#140=CYLINDRICAL_SURFACE('generated cylinder',#139,48.) ;
#211=CYLINDRICAL_SURFACE('generated cylinder',#210,57.5) ;
#3=DESIGN_CONTEXT(' ',#1,'design') ;
#64=EDGE_CURVE('',#61,#63,#59,.T.) ;
#71=EDGE_CURVE('',#70,#61,#68,.F.) ;
#78=EDGE_CURVE('',#70,#77,#75,.T.) ;
#83=EDGE_CURVE('',#77,#63,#82,.F.) ;
#95=EDGE_CURVE('',#63,#61,#94,.T.) ;
#100=EDGE_CURVE('',#77,#70,#99,.T.) ;
#121=EDGE_CURVE('',#118,#120,#116,.T.) ;
#126=EDGE_CURVE('',#120,#118,#125,.T.) ;
#147=EDGE_CURVE('',#146,#118,#144,.F.) ;
#154=EDGE_CURVE('',#146,#153,#151,.T.) ;
#159=EDGE_CURVE('',#153,#120,#158,.F.) ;
#171=EDGE_CURVE('',#153,#146,#170,.T.) ;
#192=EDGE_CURVE('',#189,#191,#187,.T.) ;
#197=EDGE_CURVE('',#191,#189,#196,.T.) ;
#218=EDGE_CURVE('',#217,#189,#215,.T.) ;
#225=EDGE_CURVE('',#217,#224,#222,.T.) ;
#230=EDGE_CURVE('',#224,#191,#229,.T.) ;
#242=EDGE_CURVE('',#224,#217,#241,.T.) ;
#84=EDGE_LOOP('',(#85,#86,#87,#88)) ;
#101=EDGE_LOOP('',(#102,#103,#104,#105)) ;
#127=EDGE_LOOP('',(#128,#129)) ;
#131=EDGE_LOOP('',(#132,#133)) ;
#160=EDGE_LOOP('',(#161,#162,#163,#164)) ;
#172=EDGE_LOOP('',(#173,#174,#175,#176)) ;
#198=EDGE_LOOP('',(#199,#200)) ;
#202=EDGE_LOOP('',(#203,#204)) ;
#231=EDGE_LOOP('',(#232,#233,#234,#235)) ;
#243=EDGE_LOOP('',(#244,#245,#246,#247)) ;
#255=EDGE_LOOP('',(#256,#257)) ;
#259=EDGE_LOOP('',(#260,#261)) ;
#89=FACE_OUTER_BOUND('',#84,.T.) ;
#106=FACE_OUTER_BOUND('',#101,.T.) ;
#130=FACE_OUTER_BOUND('',#127,.T.) ;
#165=FACE_OUTER_BOUND('',#160,.T.) ;
#177=FACE_OUTER_BOUND('',#172,.T.) ;
#201=FACE_OUTER_BOUND('',#198,.T.) ;
#236=FACE_OUTER_BOUND('',#231,.T.) ;
#248=FACE_OUTER_BOUND('',#243,.T.) ;
#258=FACE_OUTER_BOUND('',#255,.T.) ;
#44=UNCERTAINTY_MEASURE_WITH_UNIT(LENGTH_MEASURE(0.005),#41,'distance_accuracy_value','CONFUSED CURVE UNCERTAINTY') ;
#68=LINE('Line',#65,#67) ;
#82=LINE('Line',#79,#81) ;
#144=LINE('Line',#141,#143) ;
#158=LINE('Line',#155,#157) ;
#215=LINE('Line',#212,#214) ;
#229=LINE('Line',#226,#228) ;
#2=MECHANICAL_CONTEXT(' ',#1,'mechanical') ;
#24=PERSONAL_ADDRESS(' ',' ',' ',' ',' ',' ',' ',' ',' ',' ',' ',' ',(#22),' ') ;
#112=PLANE('',#111) ;
#183=PLANE('',#182) ;
#254=PLANE('',#253) ;
#7=PRODUCT_CATEGORY('part',$) ;
#9=PRODUCT_CATEGORY_RELATIONSHIP(' ',' ',#7,#8) ;
#6=PRODUCT_DEFINITION_FORMATION_WITH_SPECIFIED_SOURCE('',' ',#5,.NOT_KNOWN.) ;
#8=PRODUCT_RELATED_PRODUCT_CATEGORY('detail',$,(#5)) ;
#49=SHAPE_DEFINITION_REPRESENTATION(#40,#48) ;
#61=VERTEX_POINT('',#60) ;
#63=VERTEX_POINT('',#62) ;
#70=VERTEX_POINT('',#69) ;
#77=VERTEX_POINT('',#76) ;
#118=VERTEX_POINT('',#117) ;
#120=VERTEX_POINT('',#119) ;
#146=VERTEX_POINT('',#145) ;
#153=VERTEX_POINT('',#152) ;
#189=VERTEX_POINT('',#188) ;
#191=VERTEX_POINT('',#190) ;
#217=VERTEX_POINT('',#216) ;
#224=VERTEX_POINT('',#223) ;
#41=(LENGTH_UNIT()NAMED_UNIT(*)SI_UNIT(.MILLI.,.METRE.)) ;
#42=(NAMED_UNIT(*)PLANE_ANGLE_UNIT()SI_UNIT($,.RADIAN.)) ;
#43=(NAMED_UNIT(*)SI_UNIT($,.STERADIAN.)SOLID_ANGLE_UNIT()) ;
#45=(GEOMETRIC_REPRESENTATION_CONTEXT(3)GLOBAL_UNCERTAINTY_ASSIGNED_CONTEXT((#44))GLOBAL_UNIT_ASSIGNED_CONTEXT((#41,#42,#43))REPRESENTATION_CONTEXT(' ',' ')) ;
ENDSEC;
END-ISO-10303-21;
