ISO-10303-21;
HEADER;
FILE_DESCRIPTION(('CATIA V5 STEP Exchange'),'2;1');

FILE_NAME('G:\\GaaPro\\luo\\5.\X2\5F855F0053D1987976EE\X0\\\3D\X2\4EA754C156FE\X0\\\COMBO-4R2.stp','2025-12-17T10:18:54+00:00',('none'),('none'),'CATIA Version 5-6 Release 2018','CATIA V5 STEP AP203','none');

FILE_SCHEMA(('CONFIG_CONTROL_DESIGN'));

ENDSEC;
DATA;
#5=PRODUCT('Part1','','',(#2)) ;
#1=APPLICATION_CONTEXT('configuration controlled 3D design of mechanical parts and assemblies') ;
#14=PRODUCT_DEFINITION('',' ',#6,#3) ;
#16=SECURITY_CLASSIFICATION(' ',' ',#15) ;
#15=SECURITY_CLASSIFICATION_LEVEL('unclassified') ;
#46=CARTESIAN_POINT(' ',(0.,0.,0.)) ;
#51=CARTESIAN_POINT('Axis2P3D Location',(0.,0.,4.)) ;
#56=CARTESIAN_POINT('Axis2P3D Location',(-55.,0.,4.)) ;
#60=CARTESIAN_POINT('Vertex',(-55.,-57.5,4.)) ;
#62=CARTESIAN_POINT('Vertex',(-55.,57.5,4.)) ;
#65=CARTESIAN_POINT('Line Origine',(-7.1054273576E-015,-57.5,4.)) ;
#69=CARTESIAN_POINT('Vertex',(55.,-57.5,4.)) ;
#72=CARTESIAN_POINT('Axis2P3D Location',(55.,0.,4.)) ;
#76=CARTESIAN_POINT('Vertex',(55.,57.5,4.)) ;
#79=CARTESIAN_POINT('Line Origine',(-7.1054273576E-015,57.5,4.)) ;
#90=CARTESIAN_POINT('Axis2P3D Location',(-55.,0.,4.)) ;
#94=CARTESIAN_POINT('Vertex',(-7.,0.,4.)) ;
#96=CARTESIAN_POINT('Vertex',(-103.,5.87830463591E-015,4.)) ;
#99=CARTESIAN_POINT('Axis2P3D Location',(-55.,0.,4.)) ;
#108=CARTESIAN_POINT('Axis2P3D Location',(55.,0.,4.)) ;
#112=CARTESIAN_POINT('Vertex',(7.,5.87830463591E-015,4.)) ;
#114=CARTESIAN_POINT('Vertex',(103.,-1.17566092718E-014,4.)) ;
#117=CARTESIAN_POINT('Axis2P3D Location',(55.,0.,4.)) ;
#127=CARTESIAN_POINT('Axis2P3D Location',(112.5,-57.5,0.)) ;
#132=CARTESIAN_POINT('Line Origine',(-55.,-57.5,2.)) ;
#136=CARTESIAN_POINT('Vertex',(-55.,-57.5,0.)) ;
#139=CARTESIAN_POINT('Line Origine',(-7.1054273576E-015,-57.5,0.)) ;
#143=CARTESIAN_POINT('Vertex',(55.,-57.5,0.)) ;
#146=CARTESIAN_POINT('Line Origine',(55.,-57.5,2.)) ;
#158=CARTESIAN_POINT('Axis2P3D Location',(0.,0.,0.)) ;
#163=CARTESIAN_POINT('Line Origine',(-7.1054273576E-015,57.5,0.)) ;
#167=CARTESIAN_POINT('Vertex',(55.,57.5,0.)) ;
#169=CARTESIAN_POINT('Vertex',(-55.,57.5,0.)) ;
#172=CARTESIAN_POINT('Axis2P3D Location',(55.,0.,0.)) ;
#177=CARTESIAN_POINT('Axis2P3D Location',(-55.,0.,0.)) ;
#188=CARTESIAN_POINT('Axis2P3D Location',(-55.,0.,0.)) ;
#192=CARTESIAN_POINT('Vertex',(-10.,0.,0.)) ;
#194=CARTESIAN_POINT('Vertex',(-100.,5.51091059616E-015,0.)) ;
#197=CARTESIAN_POINT('Axis2P3D Location',(-55.,0.,0.)) ;
#206=CARTESIAN_POINT('Axis2P3D Location',(55.,0.,0.)) ;
#210=CARTESIAN_POINT('Vertex',(10.,5.51091059616E-015,0.)) ;
#212=CARTESIAN_POINT('Vertex',(100.,-1.10218211923E-014,0.)) ;
#215=CARTESIAN_POINT('Axis2P3D Location',(55.,0.,0.)) ;
#225=CARTESIAN_POINT('Axis2P3D Location',(-112.5,57.5,0.)) ;
#230=CARTESIAN_POINT('Line Origine',(55.,57.5,2.)) ;
#235=CARTESIAN_POINT('Line Origine',(-55.,57.5,2.)) ;
#247=CARTESIAN_POINT('Axis2P3D Location',(-55.,0.,2.)) ;
#252=CARTESIAN_POINT('Axis2P3D Location',(-55.,0.,1.)) ;
#256=CARTESIAN_POINT('Vertex',(-100.,5.51091059616E-015,1.)) ;
#258=CARTESIAN_POINT('Vertex',(-10.,0.,1.)) ;
#261=CARTESIAN_POINT('Line Origine',(-10.,-1.10218211923E-014,2.)) ;
#266=CARTESIAN_POINT('Line Origine',(-100.,5.51091059616E-015,2.)) ;
#278=CARTESIAN_POINT('Axis2P3D Location',(-55.,0.,1.)) ;
#290=CARTESIAN_POINT('Axis2P3D Location',(55.,0.,2.)) ;
#295=CARTESIAN_POINT('Axis2P3D Location',(55.,0.,1.)) ;
#299=CARTESIAN_POINT('Vertex',(100.,-1.10218211923E-014,1.)) ;
#301=CARTESIAN_POINT('Vertex',(10.,5.51091059616E-015,1.)) ;
#304=CARTESIAN_POINT('Line Origine',(10.,1.65327317885E-014,2.)) ;
#309=CARTESIAN_POINT('Line Origine',(100.,-1.10218211923E-014,2.)) ;
#321=CARTESIAN_POINT('Axis2P3D Location',(55.,0.,1.)) ;
#333=CARTESIAN_POINT('Axis2P3D Location',(0.,0.,1.)) ;
#338=CARTESIAN_POINT('Axis2P3D Location',(-55.,0.,1.)) ;
#342=CARTESIAN_POINT('Vertex',(-7.,0.,1.)) ;
#344=CARTESIAN_POINT('Vertex',(-103.,5.87830463591E-015,1.)) ;
#347=CARTESIAN_POINT('Axis2P3D Location',(-55.,0.,1.)) ;
#361=CARTESIAN_POINT('Axis2P3D Location',(55.,0.,1.)) ;
#365=CARTESIAN_POINT('Vertex',(7.,5.87830463591E-015,1.)) ;
#367=CARTESIAN_POINT('Vertex',(103.,-1.17566092718E-014,1.)) ;
#370=CARTESIAN_POINT('Axis2P3D Location',(55.,0.,1.)) ;
#384=CARTESIAN_POINT('Axis2P3D Location',(55.,0.,2.5)) ;
#389=CARTESIAN_POINT('Line Origine',(103.,-1.17566092718E-014,2.5)) ;
#394=CARTESIAN_POINT('Line Origine',(7.,1.76349139077E-014,2.5)) ;
#413=CARTESIAN_POINT('Axis2P3D Location',(-55.,0.,2.5)) ;
#418=CARTESIAN_POINT('Line Origine',(-103.,5.87830463591E-015,2.5)) ;
#423=CARTESIAN_POINT('Line Origine',(-7.,-1.17566092718E-014,2.5)) ;
#442=CARTESIAN_POINT('Axis2P3D Location',(-55.,0.,1.33999999993)) ;
#454=CARTESIAN_POINT('Axis2P3D Location',(55.,0.,1.33999999993)) ;
#52=DIRECTION('Axis2P3D Direction',(0.,0.,1.)) ;
#53=DIRECTION('Axis2P3D XDirection',(1.,0.,0.)) ;
#57=DIRECTION('Axis2P3D Direction',(0.,0.,1.)) ;
#66=DIRECTION('Vector Direction',(-1.,0.,0.)) ;
#73=DIRECTION('Axis2P3D Direction',(0.,0.,1.)) ;
#80=DIRECTION('Vector Direction',(1.,0.,0.)) ;
#91=DIRECTION('Axis2P3D Direction',(0.,0.,1.)) ;
#100=DIRECTION('Axis2P3D Direction',(0.,0.,1.)) ;
#109=DIRECTION('Axis2P3D Direction',(0.,0.,1.)) ;
#118=DIRECTION('Axis2P3D Direction',(0.,0.,1.)) ;
#128=DIRECTION('Axis2P3D Direction',(0.,1.,-0.)) ;
#129=DIRECTION('Axis2P3D XDirection',(-1.,0.,0.)) ;
#133=DIRECTION('Vector Direction',(0.,0.,-1.)) ;
#140=DIRECTION('Vector Direction',(-1.,0.,0.)) ;
#147=DIRECTION('Vector Direction',(0.,0.,-1.)) ;
#159=DIRECTION('Axis2P3D Direction',(0.,0.,1.)) ;
#160=DIRECTION('Axis2P3D XDirection',(1.,0.,0.)) ;
#164=DIRECTION('Vector Direction',(1.,0.,0.)) ;
#173=DIRECTION('Axis2P3D Direction',(0.,0.,1.)) ;
#178=DIRECTION('Axis2P3D Direction',(0.,0.,1.)) ;
#189=DIRECTION('Axis2P3D Direction',(0.,0.,1.)) ;
#198=DIRECTION('Axis2P3D Direction',(0.,0.,1.)) ;
#207=DIRECTION('Axis2P3D Direction',(0.,0.,1.)) ;
#216=DIRECTION('Axis2P3D Direction',(0.,0.,1.)) ;
#226=DIRECTION('Axis2P3D Direction',(0.,-1.,0.)) ;
#227=DIRECTION('Axis2P3D XDirection',(1.,0.,0.)) ;
#231=DIRECTION('Vector Direction',(0.,0.,-1.)) ;
#236=DIRECTION('Vector Direction',(0.,0.,-1.)) ;
#248=DIRECTION('Axis2P3D Direction',(0.,0.,1.)) ;
#249=DIRECTION('Axis2P3D XDirection',(1.,0.,0.)) ;
#253=DIRECTION('Axis2P3D Direction',(0.,0.,1.)) ;
#262=DIRECTION('Vector Direction',(0.,0.,1.)) ;
#267=DIRECTION('Vector Direction',(0.,0.,1.)) ;
#279=DIRECTION('Axis2P3D Direction',(0.,0.,1.)) ;
#291=DIRECTION('Axis2P3D Direction',(0.,0.,1.)) ;
#292=DIRECTION('Axis2P3D XDirection',(-1.,1.22464679915E-016,0.)) ;
#296=DIRECTION('Axis2P3D Direction',(0.,0.,1.)) ;
#305=DIRECTION('Vector Direction',(0.,0.,1.)) ;
#310=DIRECTION('Vector Direction',(0.,0.,1.)) ;
#322=DIRECTION('Axis2P3D Direction',(0.,0.,1.)) ;
#334=DIRECTION('Axis2P3D Direction',(0.,0.,1.)) ;
#335=DIRECTION('Axis2P3D XDirection',(1.,0.,0.)) ;
#339=DIRECTION('Axis2P3D Direction',(0.,0.,1.)) ;
#348=DIRECTION('Axis2P3D Direction',(0.,0.,1.)) ;
#362=DIRECTION('Axis2P3D Direction',(0.,0.,1.)) ;
#371=DIRECTION('Axis2P3D Direction',(0.,0.,1.)) ;
#385=DIRECTION('Axis2P3D Direction',(0.,0.,1.)) ;
#386=DIRECTION('Axis2P3D XDirection',(-1.,1.22464679915E-016,0.)) ;
#390=DIRECTION('Vector Direction',(0.,0.,1.)) ;
#395=DIRECTION('Vector Direction',(0.,0.,1.)) ;
#414=DIRECTION('Axis2P3D Direction',(0.,0.,1.)) ;
#415=DIRECTION('Axis2P3D XDirection',(1.,0.,0.)) ;
#419=DIRECTION('Vector Direction',(0.,0.,1.)) ;
#424=DIRECTION('Vector Direction',(0.,0.,1.)) ;
#443=DIRECTION('Axis2P3D Direction',(0.,0.,1.)) ;
#444=DIRECTION('Axis2P3D XDirection',(1.17145536458E-015,1.,0.)) ;
#455=DIRECTION('Axis2P3D Direction',(0.,0.,1.)) ;
#456=DIRECTION('Axis2P3D XDirection',(-1.07187543957E-015,-1.,-0.)) ;
#47=AXIS2_PLACEMENT_3D(' ',#46,$,$) ;
#54=AXIS2_PLACEMENT_3D('Plane Axis2P3D',#51,#52,#53) ;
#58=AXIS2_PLACEMENT_3D('Circle Axis2P3D',#56,#57,$) ;
#74=AXIS2_PLACEMENT_3D('Circle Axis2P3D',#72,#73,$) ;
#92=AXIS2_PLACEMENT_3D('Circle Axis2P3D',#90,#91,$) ;
#101=AXIS2_PLACEMENT_3D('Circle Axis2P3D',#99,#100,$) ;
#110=AXIS2_PLACEMENT_3D('Circle Axis2P3D',#108,#109,$) ;
#119=AXIS2_PLACEMENT_3D('Circle Axis2P3D',#117,#118,$) ;
#130=AXIS2_PLACEMENT_3D('Plane Axis2P3D',#127,#128,#129) ;
#161=AXIS2_PLACEMENT_3D('Plane Axis2P3D',#158,#159,#160) ;
#174=AXIS2_PLACEMENT_3D('Circle Axis2P3D',#172,#173,$) ;
#179=AXIS2_PLACEMENT_3D('Circle Axis2P3D',#177,#178,$) ;
#190=AXIS2_PLACEMENT_3D('Circle Axis2P3D',#188,#189,$) ;
#199=AXIS2_PLACEMENT_3D('Circle Axis2P3D',#197,#198,$) ;
#208=AXIS2_PLACEMENT_3D('Circle Axis2P3D',#206,#207,$) ;
#217=AXIS2_PLACEMENT_3D('Circle Axis2P3D',#215,#216,$) ;
#228=AXIS2_PLACEMENT_3D('Plane Axis2P3D',#225,#226,#227) ;
#250=AXIS2_PLACEMENT_3D('Cylinder Axis2P3D',#247,#248,#249) ;
#254=AXIS2_PLACEMENT_3D('Circle Axis2P3D',#252,#253,$) ;
#280=AXIS2_PLACEMENT_3D('Circle Axis2P3D',#278,#279,$) ;
#293=AXIS2_PLACEMENT_3D('Cylinder Axis2P3D',#290,#291,#292) ;
#297=AXIS2_PLACEMENT_3D('Circle Axis2P3D',#295,#296,$) ;
#323=AXIS2_PLACEMENT_3D('Circle Axis2P3D',#321,#322,$) ;
#336=AXIS2_PLACEMENT_3D('Plane Axis2P3D',#333,#334,#335) ;
#340=AXIS2_PLACEMENT_3D('Circle Axis2P3D',#338,#339,$) ;
#349=AXIS2_PLACEMENT_3D('Circle Axis2P3D',#347,#348,$) ;
#363=AXIS2_PLACEMENT_3D('Circle Axis2P3D',#361,#362,$) ;
#372=AXIS2_PLACEMENT_3D('Circle Axis2P3D',#370,#371,$) ;
#387=AXIS2_PLACEMENT_3D('Cylinder Axis2P3D',#384,#385,#386) ;
#416=AXIS2_PLACEMENT_3D('Cylinder Axis2P3D',#413,#414,#415) ;
#445=AXIS2_PLACEMENT_3D('Cylinder Axis2P3D',#442,#443,#444) ;
#457=AXIS2_PLACEMENT_3D('Cylinder Axis2P3D',#454,#455,#456) ;
#40=PRODUCT_DEFINITION_SHAPE(' ',' ',#14) ;
#31=APPROVAL_PERSON_ORGANIZATION(#25,#21,#19) ;
#25=PERSON_AND_ORGANIZATION(#22,#23) ;
#22=PERSON(' ',' ',' ',$,$,$) ;
#23=ORGANIZATION(' ',' ',' ') ;
#21=APPROVAL(#20,' ') ;
#20=APPROVAL_STATUS('not_yet_approved') ;
#19=APPROVAL_ROLE('APPROVER') ;
#13=DATE_AND_TIME(#11,#12) ;
#12=LOCAL_TIME(18,18,54.,#10) ;
#10=COORDINATED_UNIVERSAL_TIME_OFFSET(0,0,.AHEAD.) ;
#85=ORIENTED_EDGE('',*,*,#64,.F.) ;
#86=ORIENTED_EDGE('',*,*,#71,.T.) ;
#87=ORIENTED_EDGE('',*,*,#78,.F.) ;
#88=ORIENTED_EDGE('',*,*,#83,.T.) ;
#105=ORIENTED_EDGE('',*,*,#98,.F.) ;
#106=ORIENTED_EDGE('',*,*,#103,.F.) ;
#123=ORIENTED_EDGE('',*,*,#116,.F.) ;
#124=ORIENTED_EDGE('',*,*,#121,.F.) ;
#152=ORIENTED_EDGE('',*,*,#71,.F.) ;
#153=ORIENTED_EDGE('',*,*,#138,.T.) ;
#154=ORIENTED_EDGE('',*,*,#145,.T.) ;
#155=ORIENTED_EDGE('',*,*,#150,.F.) ;
#183=ORIENTED_EDGE('',*,*,#171,.F.) ;
#184=ORIENTED_EDGE('',*,*,#176,.F.) ;
#185=ORIENTED_EDGE('',*,*,#145,.F.) ;
#186=ORIENTED_EDGE('',*,*,#181,.F.) ;
#203=ORIENTED_EDGE('',*,*,#196,.T.) ;
#204=ORIENTED_EDGE('',*,*,#201,.T.) ;
#221=ORIENTED_EDGE('',*,*,#214,.T.) ;
#222=ORIENTED_EDGE('',*,*,#219,.T.) ;
#241=ORIENTED_EDGE('',*,*,#83,.F.) ;
#242=ORIENTED_EDGE('',*,*,#234,.T.) ;
#243=ORIENTED_EDGE('',*,*,#171,.T.) ;
#244=ORIENTED_EDGE('',*,*,#239,.F.) ;
#272=ORIENTED_EDGE('',*,*,#260,.T.) ;
#273=ORIENTED_EDGE('',*,*,#265,.F.) ;
#274=ORIENTED_EDGE('',*,*,#201,.F.) ;
#275=ORIENTED_EDGE('',*,*,#270,.T.) ;
#284=ORIENTED_EDGE('',*,*,#282,.T.) ;
#285=ORIENTED_EDGE('',*,*,#270,.F.) ;
#286=ORIENTED_EDGE('',*,*,#196,.F.) ;
#287=ORIENTED_EDGE('',*,*,#265,.T.) ;
#315=ORIENTED_EDGE('',*,*,#303,.T.) ;
#316=ORIENTED_EDGE('',*,*,#308,.F.) ;
#317=ORIENTED_EDGE('',*,*,#219,.F.) ;
#318=ORIENTED_EDGE('',*,*,#313,.T.) ;
#327=ORIENTED_EDGE('',*,*,#325,.T.) ;
#328=ORIENTED_EDGE('',*,*,#313,.F.) ;
#329=ORIENTED_EDGE('',*,*,#214,.F.) ;
#330=ORIENTED_EDGE('',*,*,#308,.T.) ;
#353=ORIENTED_EDGE('',*,*,#346,.T.) ;
#354=ORIENTED_EDGE('',*,*,#351,.T.) ;
#357=ORIENTED_EDGE('',*,*,#260,.F.) ;
#358=ORIENTED_EDGE('',*,*,#282,.F.) ;
#376=ORIENTED_EDGE('',*,*,#369,.T.) ;
#377=ORIENTED_EDGE('',*,*,#374,.T.) ;
#380=ORIENTED_EDGE('',*,*,#303,.F.) ;
#381=ORIENTED_EDGE('',*,*,#325,.F.) ;
#400=ORIENTED_EDGE('',*,*,#393,.F.) ;
#401=ORIENTED_EDGE('',*,*,#121,.T.) ;
#402=ORIENTED_EDGE('',*,*,#398,.T.) ;
#403=ORIENTED_EDGE('',*,*,#374,.F.) ;
#407=ORIENTED_EDGE('',*,*,#398,.F.) ;
#408=ORIENTED_EDGE('',*,*,#116,.T.) ;
#409=ORIENTED_EDGE('',*,*,#393,.T.) ;
#410=ORIENTED_EDGE('',*,*,#369,.F.) ;
#429=ORIENTED_EDGE('',*,*,#422,.F.) ;
#430=ORIENTED_EDGE('',*,*,#103,.T.) ;
#431=ORIENTED_EDGE('',*,*,#427,.T.) ;
#432=ORIENTED_EDGE('',*,*,#351,.F.) ;
#436=ORIENTED_EDGE('',*,*,#427,.F.) ;
#437=ORIENTED_EDGE('',*,*,#98,.T.) ;
#438=ORIENTED_EDGE('',*,*,#422,.T.) ;
#439=ORIENTED_EDGE('',*,*,#346,.F.) ;
#448=ORIENTED_EDGE('',*,*,#181,.T.) ;
#449=ORIENTED_EDGE('',*,*,#138,.F.) ;
#450=ORIENTED_EDGE('',*,*,#64,.T.) ;
#451=ORIENTED_EDGE('',*,*,#239,.T.) ;
#460=ORIENTED_EDGE('',*,*,#176,.T.) ;
#461=ORIENTED_EDGE('',*,*,#234,.F.) ;
#462=ORIENTED_EDGE('',*,*,#78,.T.) ;
#463=ORIENTED_EDGE('',*,*,#150,.T.) ;
#107=FACE_BOUND('',#104,.T.) ;
#125=FACE_BOUND('',#122,.T.) ;
#205=FACE_BOUND('',#202,.T.) ;
#223=FACE_BOUND('',#220,.T.) ;
#359=FACE_BOUND('',#356,.T.) ;
#382=FACE_BOUND('',#379,.T.) ;
#50=CLOSED_SHELL('Closed Shell',(#126,#157,#224,#246,#277,#289,#320,#332,#360,#383,#405,#412,#434,#441,#453,#465)) ;
#67=VECTOR('Line Direction',#66,1.) ;
#81=VECTOR('Line Direction',#80,1.) ;
#134=VECTOR('Line Direction',#133,1.) ;
#141=VECTOR('Line Direction',#140,1.) ;
#148=VECTOR('Line Direction',#147,1.) ;
#165=VECTOR('Line Direction',#164,1.) ;
#232=VECTOR('Line Direction',#231,1.) ;
#237=VECTOR('Line Direction',#236,1.) ;
#263=VECTOR('Line Direction',#262,1.) ;
#268=VECTOR('Line Direction',#267,1.) ;
#306=VECTOR('Line Direction',#305,1.) ;
#311=VECTOR('Line Direction',#310,1.) ;
#391=VECTOR('Line Direction',#390,1.) ;
#396=VECTOR('Line Direction',#395,1.) ;
#420=VECTOR('Line Direction',#419,1.) ;
#425=VECTOR('Line Direction',#424,1.) ;
#467=ADVANCED_BREP_SHAPE_REPRESENTATION('NONE',(#466),#45) ;
#48=SHAPE_REPRESENTATION(' ',(#47),#45) ;
#126=ADVANCED_FACE('\X2\96F64EF651E04F554F53\X0\',(#89,#107,#125),#55,.T.) ;
#157=ADVANCED_FACE('\X2\96F64EF651E04F554F53\X0\',(#156),#131,.F.) ;
#224=ADVANCED_FACE('\X2\96F64EF651E04F554F53\X0\',(#187,#205,#223),#162,.F.) ;
#246=ADVANCED_FACE('\X2\96F64EF651E04F554F53\X0\',(#245),#229,.F.) ;
#277=ADVANCED_FACE('\X2\96F64EF651E04F554F53\X0\',(#276),#251,.F.) ;
#289=ADVANCED_FACE('\X2\96F64EF651E04F554F53\X0\',(#288),#251,.F.) ;
#320=ADVANCED_FACE('\X2\96F64EF651E04F554F53\X0\',(#319),#294,.F.) ;
#332=ADVANCED_FACE('\X2\96F64EF651E04F554F53\X0\',(#331),#294,.F.) ;
#360=ADVANCED_FACE('\X2\96F64EF651E04F554F53\X0\',(#355,#359),#337,.T.) ;
#383=ADVANCED_FACE('\X2\96F64EF651E04F554F53\X0\',(#378,#382),#337,.T.) ;
#405=ADVANCED_FACE('\X2\96F64EF651E04F554F53\X0\',(#404),#388,.F.) ;
#412=ADVANCED_FACE('\X2\96F64EF651E04F554F53\X0\',(#411),#388,.F.) ;
#434=ADVANCED_FACE('\X2\96F64EF651E04F554F53\X0\',(#433),#417,.F.) ;
#441=ADVANCED_FACE('\X2\96F64EF651E04F554F53\X0\',(#440),#417,.F.) ;
#453=ADVANCED_FACE('\X2\96F64EF651E04F554F53\X0\',(#452),#446,.T.) ;
#465=ADVANCED_FACE('\X2\96F64EF651E04F554F53\X0\',(#464),#458,.T.) ;
#4=APPLICATION_PROTOCOL_DEFINITION('international standard','config_control_design',1994,#1) ;
#32=APPROVAL_DATE_TIME(#13,#21) ;
#466=MANIFOLD_SOLID_BREP('\X2\96F64EF651E04F554F53\X0\',#50) ;
#11=CALENDAR_DATE(2025,17,12) ;
#30=CC_DESIGN_APPROVAL(#21,(#16,#6,#14)) ;
#18=CC_DESIGN_DATE_AND_TIME_ASSIGNMENT(#13,#17,(#16)) ;
#29=CC_DESIGN_DATE_AND_TIME_ASSIGNMENT(#13,#28,(#14)) ;
#17=DATE_TIME_ROLE('classification_date') ;
#28=DATE_TIME_ROLE('creation_date') ;
#27=CC_DESIGN_PERSON_AND_ORGANIZATION_ASSIGNMENT(#25,#26,(#16)) ;
#33=CC_DESIGN_PERSON_AND_ORGANIZATION_ASSIGNMENT(#25,#34,(#6)) ;
#35=CC_DESIGN_PERSON_AND_ORGANIZATION_ASSIGNMENT(#25,#36,(#6,#14)) ;
#37=CC_DESIGN_PERSON_AND_ORGANIZATION_ASSIGNMENT(#25,#38,(#5)) ;
#26=PERSON_AND_ORGANIZATION_ROLE('classification_officer') ;
#34=PERSON_AND_ORGANIZATION_ROLE('design_supplier') ;
#36=PERSON_AND_ORGANIZATION_ROLE('creator') ;
#38=PERSON_AND_ORGANIZATION_ROLE('design_owner') ;
#39=CC_DESIGN_SECURITY_CLASSIFICATION(#16,(#6)) ;
#59=CIRCLE('generated circle',#58,57.5) ;
#75=CIRCLE('generated circle',#74,57.5) ;
#93=CIRCLE('generated circle',#92,48.) ;
#102=CIRCLE('generated circle',#101,48.) ;
#111=CIRCLE('generated circle',#110,48.) ;
#120=CIRCLE('generated circle',#119,48.) ;
#175=CIRCLE('generated circle',#174,57.5) ;
#180=CIRCLE('generated circle',#179,57.5) ;
#191=CIRCLE('generated circle',#190,45.) ;
#200=CIRCLE('generated circle',#199,45.) ;
#209=CIRCLE('generated circle',#208,45.) ;
#218=CIRCLE('generated circle',#217,45.) ;
#255=CIRCLE('generated circle',#254,45.) ;
#281=CIRCLE('generated circle',#280,45.) ;
#298=CIRCLE('generated circle',#297,45.) ;
#324=CIRCLE('generated circle',#323,45.) ;
#341=CIRCLE('generated circle',#340,48.) ;
#350=CIRCLE('generated circle',#349,48.) ;
#364=CIRCLE('generated circle',#363,48.) ;
#373=CIRCLE('generated circle',#372,48.) ;
#468=SHAPE_REPRESENTATION_RELATIONSHIP(' ',' ',#48,#467) ;
#251=CYLINDRICAL_SURFACE('generated cylinder',#250,45.) ;
#294=CYLINDRICAL_SURFACE('generated cylinder',#293,45.) ;
#388=CYLINDRICAL_SURFACE('generated cylinder',#387,48.) ;
#417=CYLINDRICAL_SURFACE('generated cylinder',#416,48.) ;
#446=CYLINDRICAL_SURFACE('generated cylinder',#445,57.5) ;
#458=CYLINDRICAL_SURFACE('generated cylinder',#457,57.5) ;
#3=DESIGN_CONTEXT(' ',#1,'design') ;
#64=EDGE_CURVE('',#61,#63,#59,.F.) ;
#71=EDGE_CURVE('',#61,#70,#68,.F.) ;
#78=EDGE_CURVE('',#77,#70,#75,.F.) ;
#83=EDGE_CURVE('',#77,#63,#82,.F.) ;
#98=EDGE_CURVE('',#95,#97,#93,.T.) ;
#103=EDGE_CURVE('',#97,#95,#102,.T.) ;
#116=EDGE_CURVE('',#113,#115,#111,.T.) ;
#121=EDGE_CURVE('',#115,#113,#120,.T.) ;
#138=EDGE_CURVE('',#61,#137,#135,.T.) ;
#145=EDGE_CURVE('',#137,#144,#142,.F.) ;
#150=EDGE_CURVE('',#70,#144,#149,.T.) ;
#171=EDGE_CURVE('',#168,#170,#166,.F.) ;
#176=EDGE_CURVE('',#144,#168,#175,.T.) ;
#181=EDGE_CURVE('',#170,#137,#180,.T.) ;
#196=EDGE_CURVE('',#193,#195,#191,.T.) ;
#201=EDGE_CURVE('',#195,#193,#200,.T.) ;
#214=EDGE_CURVE('',#211,#213,#209,.T.) ;
#219=EDGE_CURVE('',#213,#211,#218,.T.) ;
#234=EDGE_CURVE('',#77,#168,#233,.T.) ;
#239=EDGE_CURVE('',#63,#170,#238,.T.) ;
#260=EDGE_CURVE('',#257,#259,#255,.T.) ;
#265=EDGE_CURVE('',#193,#259,#264,.T.) ;
#270=EDGE_CURVE('',#195,#257,#269,.T.) ;
#282=EDGE_CURVE('',#259,#257,#281,.T.) ;
#303=EDGE_CURVE('',#300,#302,#298,.T.) ;
#308=EDGE_CURVE('',#211,#302,#307,.T.) ;
#313=EDGE_CURVE('',#213,#300,#312,.T.) ;
#325=EDGE_CURVE('',#302,#300,#324,.T.) ;
#346=EDGE_CURVE('',#343,#345,#341,.T.) ;
#351=EDGE_CURVE('',#345,#343,#350,.T.) ;
#369=EDGE_CURVE('',#366,#368,#364,.T.) ;
#374=EDGE_CURVE('',#368,#366,#373,.T.) ;
#393=EDGE_CURVE('',#115,#368,#392,.F.) ;
#398=EDGE_CURVE('',#113,#366,#397,.F.) ;
#422=EDGE_CURVE('',#97,#345,#421,.F.) ;
#427=EDGE_CURVE('',#95,#343,#426,.F.) ;
#84=EDGE_LOOP('',(#85,#86,#87,#88)) ;
#104=EDGE_LOOP('',(#105,#106)) ;
#122=EDGE_LOOP('',(#123,#124)) ;
#151=EDGE_LOOP('',(#152,#153,#154,#155)) ;
#182=EDGE_LOOP('',(#183,#184,#185,#186)) ;
#202=EDGE_LOOP('',(#203,#204)) ;
#220=EDGE_LOOP('',(#221,#222)) ;
#240=EDGE_LOOP('',(#241,#242,#243,#244)) ;
#271=EDGE_LOOP('',(#272,#273,#274,#275)) ;
#283=EDGE_LOOP('',(#284,#285,#286,#287)) ;
#314=EDGE_LOOP('',(#315,#316,#317,#318)) ;
#326=EDGE_LOOP('',(#327,#328,#329,#330)) ;
#352=EDGE_LOOP('',(#353,#354)) ;
#356=EDGE_LOOP('',(#357,#358)) ;
#375=EDGE_LOOP('',(#376,#377)) ;
#379=EDGE_LOOP('',(#380,#381)) ;
#399=EDGE_LOOP('',(#400,#401,#402,#403)) ;
#406=EDGE_LOOP('',(#407,#408,#409,#410)) ;
#428=EDGE_LOOP('',(#429,#430,#431,#432)) ;
#435=EDGE_LOOP('',(#436,#437,#438,#439)) ;
#447=EDGE_LOOP('',(#448,#449,#450,#451)) ;
#459=EDGE_LOOP('',(#460,#461,#462,#463)) ;
#89=FACE_OUTER_BOUND('',#84,.T.) ;
#156=FACE_OUTER_BOUND('',#151,.T.) ;
#187=FACE_OUTER_BOUND('',#182,.T.) ;
#245=FACE_OUTER_BOUND('',#240,.T.) ;
#276=FACE_OUTER_BOUND('',#271,.T.) ;
#288=FACE_OUTER_BOUND('',#283,.T.) ;
#319=FACE_OUTER_BOUND('',#314,.T.) ;
#331=FACE_OUTER_BOUND('',#326,.T.) ;
#355=FACE_OUTER_BOUND('',#352,.T.) ;
#378=FACE_OUTER_BOUND('',#375,.T.) ;
#404=FACE_OUTER_BOUND('',#399,.T.) ;
#411=FACE_OUTER_BOUND('',#406,.T.) ;
#433=FACE_OUTER_BOUND('',#428,.T.) ;
#440=FACE_OUTER_BOUND('',#435,.T.) ;
#452=FACE_OUTER_BOUND('',#447,.T.) ;
#464=FACE_OUTER_BOUND('',#459,.T.) ;
#44=UNCERTAINTY_MEASURE_WITH_UNIT(LENGTH_MEASURE(0.005),#41,'distance_accuracy_value','CONFUSED CURVE UNCERTAINTY') ;
#68=LINE('Line',#65,#67) ;
#82=LINE('Line',#79,#81) ;
#135=LINE('Line',#132,#134) ;
#142=LINE('Line',#139,#141) ;
#149=LINE('Line',#146,#148) ;
#166=LINE('Line',#163,#165) ;
#233=LINE('Line',#230,#232) ;
#238=LINE('Line',#235,#237) ;
#264=LINE('Line',#261,#263) ;
#269=LINE('Line',#266,#268) ;
#307=LINE('Line',#304,#306) ;
#312=LINE('Line',#309,#311) ;
#392=LINE('Line',#389,#391) ;
#397=LINE('Line',#394,#396) ;
#421=LINE('Line',#418,#420) ;
#426=LINE('Line',#423,#425) ;
#2=MECHANICAL_CONTEXT(' ',#1,'mechanical') ;
#24=PERSONAL_ADDRESS(' ',' ',' ',' ',' ',' ',' ',' ',' ',' ',' ',' ',(#22),' ') ;
#55=PLANE('',#54) ;
#131=PLANE('',#130) ;
#162=PLANE('',#161) ;
#229=PLANE('',#228) ;
#337=PLANE('',#336) ;
#7=PRODUCT_CATEGORY('part',$) ;
#9=PRODUCT_CATEGORY_RELATIONSHIP(' ',' ',#7,#8) ;
#6=PRODUCT_DEFINITION_FORMATION_WITH_SPECIFIED_SOURCE('',' ',#5,.NOT_KNOWN.) ;
#8=PRODUCT_RELATED_PRODUCT_CATEGORY('detail',$,(#5)) ;
#49=SHAPE_DEFINITION_REPRESENTATION(#40,#48) ;
#61=VERTEX_POINT('',#60) ;
#63=VERTEX_POINT('',#62) ;
#70=VERTEX_POINT('',#69) ;
#77=VERTEX_POINT('',#76) ;
#95=VERTEX_POINT('',#94) ;
#97=VERTEX_POINT('',#96) ;
#113=VERTEX_POINT('',#112) ;
#115=VERTEX_POINT('',#114) ;
#137=VERTEX_POINT('',#136) ;
#144=VERTEX_POINT('',#143) ;
#168=VERTEX_POINT('',#167) ;
#170=VERTEX_POINT('',#169) ;
#193=VERTEX_POINT('',#192) ;
#195=VERTEX_POINT('',#194) ;
#211=VERTEX_POINT('',#210) ;
#213=VERTEX_POINT('',#212) ;
#257=VERTEX_POINT('',#256) ;
#259=VERTEX_POINT('',#258) ;
#300=VERTEX_POINT('',#299) ;
#302=VERTEX_POINT('',#301) ;
#343=VERTEX_POINT('',#342) ;
#345=VERTEX_POINT('',#344) ;
#366=VERTEX_POINT('',#365) ;
#368=VERTEX_POINT('',#367) ;
#41=(LENGTH_UNIT()NAMED_UNIT(*)SI_UNIT(.MILLI.,.METRE.)) ;
#42=(NAMED_UNIT(*)PLANE_ANGLE_UNIT()SI_UNIT($,.RADIAN.)) ;
#43=(NAMED_UNIT(*)SI_UNIT($,.STERADIAN.)SOLID_ANGLE_UNIT()) ;
#45=(GEOMETRIC_REPRESENTATION_CONTEXT(3)GLOBAL_UNCERTAINTY_ASSIGNED_CONTEXT((#44))GLOBAL_UNIT_ASSIGNED_CONTEXT((#41,#42,#43))REPRESENTATION_CONTEXT(' ',' ')) ;
ENDSEC;
END-ISO-10303-21;
