ISO-10303-21;
HEADER;
FILE_DESCRIPTION(('CATIA V5 STEP Exchange'),'2;1');

FILE_NAME('C:\\Users\\Administrator\\Desktop\\MINI-COMBO-R2-BL.stp','2025-12-18T09:09:45+00:00',('none'),('none'),'CATIA Version 5-6 Release 2018','CATIA V5 STEP AP203','none');

FILE_SCHEMA(('CONFIG_CONTROL_DESIGN'));

ENDSEC;
DATA;
#5=PRODUCT('Part2.1','','',(#2)) ;
#1=APPLICATION_CONTEXT('configuration controlled 3D design of mechanical parts and assemblies') ;
#14=PRODUCT_DEFINITION('',' ',#6,#3) ;
#16=SECURITY_CLASSIFICATION(' ',' ',#15) ;
#15=SECURITY_CLASSIFICATION_LEVEL('unclassified') ;
#46=CARTESIAN_POINT(' ',(0.,0.,0.)) ;
#51=CARTESIAN_POINT('Axis2P3D Location',(0.,0.,0.)) ;
#56=CARTESIAN_POINT('Line Origine',(7.1054273576E-015,42.5,0.)) ;
#60=CARTESIAN_POINT('Vertex',(42.5,42.5,0.)) ;
#62=CARTESIAN_POINT('Vertex',(-42.5,42.5,0.)) ;
#65=CARTESIAN_POINT('Axis2P3D Location',(42.5,0.,0.)) ;
#69=CARTESIAN_POINT('Vertex',(42.5,-42.5,0.)) ;
#72=CARTESIAN_POINT('Line Origine',(-7.1054273576E-015,-42.5,0.)) ;
#76=CARTESIAN_POINT('Vertex',(-42.5,-42.5,0.)) ;
#79=CARTESIAN_POINT('Axis2P3D Location',(-42.5,0.,0.)) ;
#90=CARTESIAN_POINT('Axis2P3D Location',(-42.5,0.,0.)) ;
#94=CARTESIAN_POINT('Vertex',(-12.5,0.,0.)) ;
#96=CARTESIAN_POINT('Vertex',(-72.5,1.69966166929E-014,0.)) ;
#99=CARTESIAN_POINT('Axis2P3D Location',(-42.5,0.,0.)) ;
#108=CARTESIAN_POINT('Axis2P3D Location',(42.5,0.,0.)) ;
#112=CARTESIAN_POINT('Vertex',(12.5,1.69966166929E-014,0.)) ;
#114=CARTESIAN_POINT('Vertex',(72.5,-3.39932333859E-014,0.)) ;
#117=CARTESIAN_POINT('Axis2P3D Location',(42.5,0.,0.)) ;
#127=CARTESIAN_POINT('Axis2P3D Location',(0.,0.,4.)) ;
#132=CARTESIAN_POINT('Axis2P3D Location',(-42.5,0.,4.)) ;
#136=CARTESIAN_POINT('Vertex',(-42.5,-42.5,4.)) ;
#138=CARTESIAN_POINT('Vertex',(-42.5,42.5,4.)) ;
#141=CARTESIAN_POINT('Line Origine',(-7.1054273576E-015,-42.5,4.)) ;
#145=CARTESIAN_POINT('Vertex',(42.5,-42.5,4.)) ;
#148=CARTESIAN_POINT('Axis2P3D Location',(42.5,0.,4.)) ;
#152=CARTESIAN_POINT('Vertex',(42.5,42.5,4.)) ;
#155=CARTESIAN_POINT('Line Origine',(7.1054273576E-015,42.5,4.)) ;
#166=CARTESIAN_POINT('Axis2P3D Location',(-42.5,0.,4.)) ;
#170=CARTESIAN_POINT('Vertex',(-7.6,0.,4.)) ;
#172=CARTESIAN_POINT('Vertex',(-77.4,4.27401732902E-015,4.)) ;
#175=CARTESIAN_POINT('Axis2P3D Location',(-42.5,0.,4.)) ;
#184=CARTESIAN_POINT('Axis2P3D Location',(42.5,0.,4.)) ;
#188=CARTESIAN_POINT('Vertex',(7.6,4.27401732902E-015,4.)) ;
#190=CARTESIAN_POINT('Vertex',(77.4,-8.54803465805E-015,4.)) ;
#193=CARTESIAN_POINT('Axis2P3D Location',(42.5,0.,4.)) ;
#203=CARTESIAN_POINT('Axis2P3D Location',(-42.5,0.,2.)) ;
#208=CARTESIAN_POINT('Axis2P3D Location',(-42.5,0.,2.15)) ;
#212=CARTESIAN_POINT('Vertex',(-72.5,1.69966166929E-014,2.15)) ;
#214=CARTESIAN_POINT('Vertex',(-12.5,0.,2.15)) ;
#217=CARTESIAN_POINT('Line Origine',(-12.5,-3.39932333859E-014,2.)) ;
#222=CARTESIAN_POINT('Line Origine',(-72.5,1.69966166929E-014,2.)) ;
#234=CARTESIAN_POINT('Axis2P3D Location',(-42.5,0.,2.15)) ;
#246=CARTESIAN_POINT('Axis2P3D Location',(42.5,0.,2.)) ;
#251=CARTESIAN_POINT('Axis2P3D Location',(42.5,0.,2.15)) ;
#255=CARTESIAN_POINT('Vertex',(72.5,-3.39932333859E-014,2.15)) ;
#257=CARTESIAN_POINT('Vertex',(12.5,1.69966166929E-014,2.15)) ;
#260=CARTESIAN_POINT('Line Origine',(12.5,6.43125263743E-014,2.)) ;
#265=CARTESIAN_POINT('Line Origine',(72.5,-3.39932333859E-014,2.)) ;
#277=CARTESIAN_POINT('Axis2P3D Location',(42.5,0.,2.15)) ;
#289=CARTESIAN_POINT('Axis2P3D Location',(0.,0.,2.15)) ;
#294=CARTESIAN_POINT('Axis2P3D Location',(-42.5,0.,2.15)) ;
#298=CARTESIAN_POINT('Vertex',(-7.6,0.,2.15)) ;
#300=CARTESIAN_POINT('Vertex',(-77.4,4.27401732902E-015,2.15)) ;
#303=CARTESIAN_POINT('Axis2P3D Location',(-42.5,0.,2.15)) ;
#317=CARTESIAN_POINT('Axis2P3D Location',(42.5,0.,2.15)) ;
#321=CARTESIAN_POINT('Vertex',(7.6,4.27401732902E-015,2.15)) ;
#323=CARTESIAN_POINT('Vertex',(77.4,-8.54803465805E-015,2.15)) ;
#326=CARTESIAN_POINT('Axis2P3D Location',(42.5,0.,2.15)) ;
#340=CARTESIAN_POINT('Axis2P3D Location',(42.5,0.,3.075)) ;
#345=CARTESIAN_POINT('Line Origine',(77.4,-8.54803465805E-015,3.075)) ;
#350=CARTESIAN_POINT('Line Origine',(7.6,1.28220519871E-014,3.075)) ;
#369=CARTESIAN_POINT('Axis2P3D Location',(-42.5,0.,3.075)) ;
#374=CARTESIAN_POINT('Line Origine',(-77.4,4.27401732902E-015,3.075)) ;
#379=CARTESIAN_POINT('Line Origine',(-7.6,-8.54803465805E-015,3.075)) ;
#398=CARTESIAN_POINT('Axis2P3D Location',(85.,-42.5,0.)) ;
#403=CARTESIAN_POINT('Line Origine',(-42.5,-42.5,2.)) ;
#408=CARTESIAN_POINT('Line Origine',(42.5,-42.5,2.)) ;
#420=CARTESIAN_POINT('Axis2P3D Location',(-85.,42.5,0.)) ;
#425=CARTESIAN_POINT('Line Origine',(42.5,42.5,2.)) ;
#430=CARTESIAN_POINT('Line Origine',(-42.5,42.5,2.)) ;
#442=CARTESIAN_POINT('Axis2P3D Location',(-42.5,0.,1.3399999992)) ;
#454=CARTESIAN_POINT('Axis2P3D Location',(42.5,0.,1.3399999992)) ;
#52=DIRECTION('Axis2P3D Direction',(0.,0.,1.)) ;
#53=DIRECTION('Axis2P3D XDirection',(1.,0.,0.)) ;
#57=DIRECTION('Vector Direction',(1.,0.,0.)) ;
#66=DIRECTION('Axis2P3D Direction',(0.,0.,1.)) ;
#73=DIRECTION('Vector Direction',(-1.,0.,0.)) ;
#80=DIRECTION('Axis2P3D Direction',(0.,0.,1.)) ;
#91=DIRECTION('Axis2P3D Direction',(0.,0.,1.)) ;
#100=DIRECTION('Axis2P3D Direction',(0.,0.,1.)) ;
#109=DIRECTION('Axis2P3D Direction',(0.,0.,1.)) ;
#118=DIRECTION('Axis2P3D Direction',(0.,0.,1.)) ;
#128=DIRECTION('Axis2P3D Direction',(0.,0.,1.)) ;
#129=DIRECTION('Axis2P3D XDirection',(1.,0.,0.)) ;
#133=DIRECTION('Axis2P3D Direction',(0.,0.,1.)) ;
#142=DIRECTION('Vector Direction',(-1.,0.,0.)) ;
#149=DIRECTION('Axis2P3D Direction',(0.,0.,1.)) ;
#156=DIRECTION('Vector Direction',(1.,0.,0.)) ;
#167=DIRECTION('Axis2P3D Direction',(0.,0.,1.)) ;
#176=DIRECTION('Axis2P3D Direction',(0.,0.,1.)) ;
#185=DIRECTION('Axis2P3D Direction',(0.,0.,1.)) ;
#194=DIRECTION('Axis2P3D Direction',(0.,0.,1.)) ;
#204=DIRECTION('Axis2P3D Direction',(0.,0.,1.)) ;
#205=DIRECTION('Axis2P3D XDirection',(1.,0.,0.)) ;
#209=DIRECTION('Axis2P3D Direction',(0.,0.,1.)) ;
#218=DIRECTION('Vector Direction',(0.,0.,1.)) ;
#223=DIRECTION('Vector Direction',(0.,0.,1.)) ;
#235=DIRECTION('Axis2P3D Direction',(0.,0.,1.)) ;
#247=DIRECTION('Axis2P3D Direction',(0.,0.,1.)) ;
#248=DIRECTION('Axis2P3D XDirection',(-1.,5.66553889765E-016,0.)) ;
#252=DIRECTION('Axis2P3D Direction',(0.,0.,1.)) ;
#261=DIRECTION('Vector Direction',(0.,0.,1.)) ;
#266=DIRECTION('Vector Direction',(0.,0.,1.)) ;
#278=DIRECTION('Axis2P3D Direction',(0.,0.,1.)) ;
#290=DIRECTION('Axis2P3D Direction',(0.,0.,1.)) ;
#291=DIRECTION('Axis2P3D XDirection',(1.,0.,0.)) ;
#295=DIRECTION('Axis2P3D Direction',(0.,0.,1.)) ;
#304=DIRECTION('Axis2P3D Direction',(0.,0.,1.)) ;
#318=DIRECTION('Axis2P3D Direction',(0.,0.,1.)) ;
#327=DIRECTION('Axis2P3D Direction',(0.,0.,1.)) ;
#341=DIRECTION('Axis2P3D Direction',(0.,0.,1.)) ;
#342=DIRECTION('Axis2P3D XDirection',(-1.,1.22464679915E-016,0.)) ;
#346=DIRECTION('Vector Direction',(0.,0.,1.)) ;
#351=DIRECTION('Vector Direction',(0.,0.,1.)) ;
#370=DIRECTION('Axis2P3D Direction',(0.,0.,1.)) ;
#371=DIRECTION('Axis2P3D XDirection',(1.,0.,0.)) ;
#375=DIRECTION('Vector Direction',(0.,0.,1.)) ;
#380=DIRECTION('Vector Direction',(0.,0.,1.)) ;
#399=DIRECTION('Axis2P3D Direction',(0.,1.,-0.)) ;
#400=DIRECTION('Axis2P3D XDirection',(-1.,0.,0.)) ;
#404=DIRECTION('Vector Direction',(0.,0.,1.)) ;
#409=DIRECTION('Vector Direction',(0.,0.,-1.)) ;
#421=DIRECTION('Axis2P3D Direction',(0.,-1.,0.)) ;
#422=DIRECTION('Axis2P3D XDirection',(1.,0.,0.)) ;
#426=DIRECTION('Vector Direction',(0.,0.,-1.)) ;
#431=DIRECTION('Vector Direction',(0.,0.,1.)) ;
#443=DIRECTION('Axis2P3D Direction',(0.,0.,1.)) ;
#444=DIRECTION('Axis2P3D XDirection',(9.49410759657E-016,1.,0.)) ;
#455=DIRECTION('Axis2P3D Direction',(0.,0.,1.)) ;
#456=DIRECTION('Axis2P3D XDirection',(-1.83697019872E-016,-1.,-0.)) ;
#47=AXIS2_PLACEMENT_3D(' ',#46,$,$) ;
#54=AXIS2_PLACEMENT_3D('Plane Axis2P3D',#51,#52,#53) ;
#67=AXIS2_PLACEMENT_3D('Circle Axis2P3D',#65,#66,$) ;
#81=AXIS2_PLACEMENT_3D('Circle Axis2P3D',#79,#80,$) ;
#92=AXIS2_PLACEMENT_3D('Circle Axis2P3D',#90,#91,$) ;
#101=AXIS2_PLACEMENT_3D('Circle Axis2P3D',#99,#100,$) ;
#110=AXIS2_PLACEMENT_3D('Circle Axis2P3D',#108,#109,$) ;
#119=AXIS2_PLACEMENT_3D('Circle Axis2P3D',#117,#118,$) ;
#130=AXIS2_PLACEMENT_3D('Plane Axis2P3D',#127,#128,#129) ;
#134=AXIS2_PLACEMENT_3D('Circle Axis2P3D',#132,#133,$) ;
#150=AXIS2_PLACEMENT_3D('Circle Axis2P3D',#148,#149,$) ;
#168=AXIS2_PLACEMENT_3D('Circle Axis2P3D',#166,#167,$) ;
#177=AXIS2_PLACEMENT_3D('Circle Axis2P3D',#175,#176,$) ;
#186=AXIS2_PLACEMENT_3D('Circle Axis2P3D',#184,#185,$) ;
#195=AXIS2_PLACEMENT_3D('Circle Axis2P3D',#193,#194,$) ;
#206=AXIS2_PLACEMENT_3D('Cylinder Axis2P3D',#203,#204,#205) ;
#210=AXIS2_PLACEMENT_3D('Circle Axis2P3D',#208,#209,$) ;
#236=AXIS2_PLACEMENT_3D('Circle Axis2P3D',#234,#235,$) ;
#249=AXIS2_PLACEMENT_3D('Cylinder Axis2P3D',#246,#247,#248) ;
#253=AXIS2_PLACEMENT_3D('Circle Axis2P3D',#251,#252,$) ;
#279=AXIS2_PLACEMENT_3D('Circle Axis2P3D',#277,#278,$) ;
#292=AXIS2_PLACEMENT_3D('Plane Axis2P3D',#289,#290,#291) ;
#296=AXIS2_PLACEMENT_3D('Circle Axis2P3D',#294,#295,$) ;
#305=AXIS2_PLACEMENT_3D('Circle Axis2P3D',#303,#304,$) ;
#319=AXIS2_PLACEMENT_3D('Circle Axis2P3D',#317,#318,$) ;
#328=AXIS2_PLACEMENT_3D('Circle Axis2P3D',#326,#327,$) ;
#343=AXIS2_PLACEMENT_3D('Cylinder Axis2P3D',#340,#341,#342) ;
#372=AXIS2_PLACEMENT_3D('Cylinder Axis2P3D',#369,#370,#371) ;
#401=AXIS2_PLACEMENT_3D('Plane Axis2P3D',#398,#399,#400) ;
#423=AXIS2_PLACEMENT_3D('Plane Axis2P3D',#420,#421,#422) ;
#445=AXIS2_PLACEMENT_3D('Cylinder Axis2P3D',#442,#443,#444) ;
#457=AXIS2_PLACEMENT_3D('Cylinder Axis2P3D',#454,#455,#456) ;
#40=PRODUCT_DEFINITION_SHAPE(' ',' ',#14) ;
#31=APPROVAL_PERSON_ORGANIZATION(#25,#21,#19) ;
#25=PERSON_AND_ORGANIZATION(#22,#23) ;
#22=PERSON(' ',' ',' ',$,$,$) ;
#23=ORGANIZATION(' ',' ',' ') ;
#21=APPROVAL(#20,' ') ;
#20=APPROVAL_STATUS('not_yet_approved') ;
#19=APPROVAL_ROLE('APPROVER') ;
#13=DATE_AND_TIME(#11,#12) ;
#12=LOCAL_TIME(17,9,45.,#10) ;
#10=COORDINATED_UNIVERSAL_TIME_OFFSET(0,0,.AHEAD.) ;
#85=ORIENTED_EDGE('',*,*,#64,.F.) ;
#86=ORIENTED_EDGE('',*,*,#71,.F.) ;
#87=ORIENTED_EDGE('',*,*,#78,.F.) ;
#88=ORIENTED_EDGE('',*,*,#83,.F.) ;
#105=ORIENTED_EDGE('',*,*,#98,.T.) ;
#106=ORIENTED_EDGE('',*,*,#103,.T.) ;
#123=ORIENTED_EDGE('',*,*,#116,.T.) ;
#124=ORIENTED_EDGE('',*,*,#121,.T.) ;
#161=ORIENTED_EDGE('',*,*,#140,.F.) ;
#162=ORIENTED_EDGE('',*,*,#147,.T.) ;
#163=ORIENTED_EDGE('',*,*,#154,.F.) ;
#164=ORIENTED_EDGE('',*,*,#159,.T.) ;
#181=ORIENTED_EDGE('',*,*,#174,.F.) ;
#182=ORIENTED_EDGE('',*,*,#179,.F.) ;
#199=ORIENTED_EDGE('',*,*,#192,.F.) ;
#200=ORIENTED_EDGE('',*,*,#197,.F.) ;
#228=ORIENTED_EDGE('',*,*,#216,.T.) ;
#229=ORIENTED_EDGE('',*,*,#221,.F.) ;
#230=ORIENTED_EDGE('',*,*,#103,.F.) ;
#231=ORIENTED_EDGE('',*,*,#226,.T.) ;
#240=ORIENTED_EDGE('',*,*,#238,.T.) ;
#241=ORIENTED_EDGE('',*,*,#226,.F.) ;
#242=ORIENTED_EDGE('',*,*,#98,.F.) ;
#243=ORIENTED_EDGE('',*,*,#221,.T.) ;
#271=ORIENTED_EDGE('',*,*,#259,.T.) ;
#272=ORIENTED_EDGE('',*,*,#264,.F.) ;
#273=ORIENTED_EDGE('',*,*,#121,.F.) ;
#274=ORIENTED_EDGE('',*,*,#269,.T.) ;
#283=ORIENTED_EDGE('',*,*,#281,.T.) ;
#284=ORIENTED_EDGE('',*,*,#269,.F.) ;
#285=ORIENTED_EDGE('',*,*,#116,.F.) ;
#286=ORIENTED_EDGE('',*,*,#264,.T.) ;
#309=ORIENTED_EDGE('',*,*,#302,.T.) ;
#310=ORIENTED_EDGE('',*,*,#307,.T.) ;
#313=ORIENTED_EDGE('',*,*,#216,.F.) ;
#314=ORIENTED_EDGE('',*,*,#238,.F.) ;
#332=ORIENTED_EDGE('',*,*,#325,.T.) ;
#333=ORIENTED_EDGE('',*,*,#330,.T.) ;
#336=ORIENTED_EDGE('',*,*,#259,.F.) ;
#337=ORIENTED_EDGE('',*,*,#281,.F.) ;
#356=ORIENTED_EDGE('',*,*,#349,.F.) ;
#357=ORIENTED_EDGE('',*,*,#197,.T.) ;
#358=ORIENTED_EDGE('',*,*,#354,.T.) ;
#359=ORIENTED_EDGE('',*,*,#330,.F.) ;
#363=ORIENTED_EDGE('',*,*,#354,.F.) ;
#364=ORIENTED_EDGE('',*,*,#192,.T.) ;
#365=ORIENTED_EDGE('',*,*,#349,.T.) ;
#366=ORIENTED_EDGE('',*,*,#325,.F.) ;
#385=ORIENTED_EDGE('',*,*,#378,.F.) ;
#386=ORIENTED_EDGE('',*,*,#179,.T.) ;
#387=ORIENTED_EDGE('',*,*,#383,.T.) ;
#388=ORIENTED_EDGE('',*,*,#307,.F.) ;
#392=ORIENTED_EDGE('',*,*,#383,.F.) ;
#393=ORIENTED_EDGE('',*,*,#174,.T.) ;
#394=ORIENTED_EDGE('',*,*,#378,.T.) ;
#395=ORIENTED_EDGE('',*,*,#302,.F.) ;
#414=ORIENTED_EDGE('',*,*,#147,.F.) ;
#415=ORIENTED_EDGE('',*,*,#407,.T.) ;
#416=ORIENTED_EDGE('',*,*,#78,.T.) ;
#417=ORIENTED_EDGE('',*,*,#412,.F.) ;
#436=ORIENTED_EDGE('',*,*,#159,.F.) ;
#437=ORIENTED_EDGE('',*,*,#429,.T.) ;
#438=ORIENTED_EDGE('',*,*,#64,.T.) ;
#439=ORIENTED_EDGE('',*,*,#434,.F.) ;
#448=ORIENTED_EDGE('',*,*,#140,.T.) ;
#449=ORIENTED_EDGE('',*,*,#434,.T.) ;
#450=ORIENTED_EDGE('',*,*,#83,.T.) ;
#451=ORIENTED_EDGE('',*,*,#407,.F.) ;
#460=ORIENTED_EDGE('',*,*,#71,.T.) ;
#461=ORIENTED_EDGE('',*,*,#429,.F.) ;
#462=ORIENTED_EDGE('',*,*,#154,.T.) ;
#463=ORIENTED_EDGE('',*,*,#412,.T.) ;
#107=FACE_BOUND('',#104,.T.) ;
#125=FACE_BOUND('',#122,.T.) ;
#183=FACE_BOUND('',#180,.T.) ;
#201=FACE_BOUND('',#198,.T.) ;
#315=FACE_BOUND('',#312,.T.) ;
#338=FACE_BOUND('',#335,.T.) ;
#50=CLOSED_SHELL('Closed Shell',(#126,#202,#233,#245,#276,#288,#316,#339,#361,#368,#390,#397,#419,#441,#453,#465)) ;
#58=VECTOR('Line Direction',#57,1.) ;
#74=VECTOR('Line Direction',#73,1.) ;
#143=VECTOR('Line Direction',#142,1.) ;
#157=VECTOR('Line Direction',#156,1.) ;
#219=VECTOR('Line Direction',#218,1.) ;
#224=VECTOR('Line Direction',#223,1.) ;
#262=VECTOR('Line Direction',#261,1.) ;
#267=VECTOR('Line Direction',#266,1.) ;
#347=VECTOR('Line Direction',#346,1.) ;
#352=VECTOR('Line Direction',#351,1.) ;
#376=VECTOR('Line Direction',#375,1.) ;
#381=VECTOR('Line Direction',#380,1.) ;
#405=VECTOR('Line Direction',#404,1.) ;
#410=VECTOR('Line Direction',#409,1.) ;
#427=VECTOR('Line Direction',#426,1.) ;
#432=VECTOR('Line Direction',#431,1.) ;
#467=ADVANCED_BREP_SHAPE_REPRESENTATION('NONE',(#466),#45) ;
#48=SHAPE_REPRESENTATION(' ',(#47),#45) ;
#126=ADVANCED_FACE('\X2\96F64EF651E04F554F53\X0\',(#89,#107,#125),#55,.F.) ;
#202=ADVANCED_FACE('\X2\96F64EF651E04F554F53\X0\',(#165,#183,#201),#131,.T.) ;
#233=ADVANCED_FACE('\X2\96F64EF651E04F554F53\X0\',(#232),#207,.F.) ;
#245=ADVANCED_FACE('\X2\96F64EF651E04F554F53\X0\',(#244),#207,.F.) ;
#276=ADVANCED_FACE('\X2\96F64EF651E04F554F53\X0\',(#275),#250,.F.) ;
#288=ADVANCED_FACE('\X2\96F64EF651E04F554F53\X0\',(#287),#250,.F.) ;
#316=ADVANCED_FACE('\X2\96F64EF651E04F554F53\X0\',(#311,#315),#293,.T.) ;
#339=ADVANCED_FACE('\X2\96F64EF651E04F554F53\X0\',(#334,#338),#293,.T.) ;
#361=ADVANCED_FACE('\X2\96F64EF651E04F554F53\X0\',(#360),#344,.F.) ;
#368=ADVANCED_FACE('\X2\96F64EF651E04F554F53\X0\',(#367),#344,.F.) ;
#390=ADVANCED_FACE('\X2\96F64EF651E04F554F53\X0\',(#389),#373,.F.) ;
#397=ADVANCED_FACE('\X2\96F64EF651E04F554F53\X0\',(#396),#373,.F.) ;
#419=ADVANCED_FACE('\X2\96F64EF651E04F554F53\X0\',(#418),#402,.F.) ;
#441=ADVANCED_FACE('\X2\96F64EF651E04F554F53\X0\',(#440),#424,.F.) ;
#453=ADVANCED_FACE('\X2\96F64EF651E04F554F53\X0\',(#452),#446,.T.) ;
#465=ADVANCED_FACE('\X2\96F64EF651E04F554F53\X0\',(#464),#458,.T.) ;
#4=APPLICATION_PROTOCOL_DEFINITION('international standard','config_control_design',1994,#1) ;
#32=APPROVAL_DATE_TIME(#13,#21) ;
#466=MANIFOLD_SOLID_BREP('\X2\96F64EF651E04F554F53\X0\',#50) ;
#11=CALENDAR_DATE(2025,18,12) ;
#30=CC_DESIGN_APPROVAL(#21,(#16,#6,#14)) ;
#18=CC_DESIGN_DATE_AND_TIME_ASSIGNMENT(#13,#17,(#16)) ;
#29=CC_DESIGN_DATE_AND_TIME_ASSIGNMENT(#13,#28,(#14)) ;
#17=DATE_TIME_ROLE('classification_date') ;
#28=DATE_TIME_ROLE('creation_date') ;
#27=CC_DESIGN_PERSON_AND_ORGANIZATION_ASSIGNMENT(#25,#26,(#16)) ;
#33=CC_DESIGN_PERSON_AND_ORGANIZATION_ASSIGNMENT(#25,#34,(#6)) ;
#35=CC_DESIGN_PERSON_AND_ORGANIZATION_ASSIGNMENT(#25,#36,(#6,#14)) ;
#37=CC_DESIGN_PERSON_AND_ORGANIZATION_ASSIGNMENT(#25,#38,(#5)) ;
#26=PERSON_AND_ORGANIZATION_ROLE('classification_officer') ;
#34=PERSON_AND_ORGANIZATION_ROLE('design_supplier') ;
#36=PERSON_AND_ORGANIZATION_ROLE('creator') ;
#38=PERSON_AND_ORGANIZATION_ROLE('design_owner') ;
#39=CC_DESIGN_SECURITY_CLASSIFICATION(#16,(#6)) ;
#68=CIRCLE('generated circle',#67,42.5) ;
#82=CIRCLE('generated circle',#81,42.5) ;
#93=CIRCLE('generated circle',#92,30.) ;
#102=CIRCLE('generated circle',#101,30.) ;
#111=CIRCLE('generated circle',#110,30.) ;
#120=CIRCLE('generated circle',#119,30.) ;
#135=CIRCLE('generated circle',#134,42.5) ;
#151=CIRCLE('generated circle',#150,42.5) ;
#169=CIRCLE('generated circle',#168,34.9) ;
#178=CIRCLE('generated circle',#177,34.9) ;
#187=CIRCLE('generated circle',#186,34.9) ;
#196=CIRCLE('generated circle',#195,34.9) ;
#211=CIRCLE('generated circle',#210,30.) ;
#237=CIRCLE('generated circle',#236,30.) ;
#254=CIRCLE('generated circle',#253,30.) ;
#280=CIRCLE('generated circle',#279,30.) ;
#297=CIRCLE('generated circle',#296,34.9) ;
#306=CIRCLE('generated circle',#305,34.9) ;
#320=CIRCLE('generated circle',#319,34.9) ;
#329=CIRCLE('generated circle',#328,34.9) ;
#468=SHAPE_REPRESENTATION_RELATIONSHIP(' ',' ',#48,#467) ;
#207=CYLINDRICAL_SURFACE('generated cylinder',#206,30.) ;
#250=CYLINDRICAL_SURFACE('generated cylinder',#249,30.) ;
#344=CYLINDRICAL_SURFACE('generated cylinder',#343,34.9) ;
#373=CYLINDRICAL_SURFACE('generated cylinder',#372,34.9) ;
#446=CYLINDRICAL_SURFACE('generated cylinder',#445,42.5) ;
#458=CYLINDRICAL_SURFACE('generated cylinder',#457,42.5) ;
#3=DESIGN_CONTEXT(' ',#1,'design') ;
#64=EDGE_CURVE('',#61,#63,#59,.F.) ;
#71=EDGE_CURVE('',#70,#61,#68,.T.) ;
#78=EDGE_CURVE('',#77,#70,#75,.F.) ;
#83=EDGE_CURVE('',#63,#77,#82,.T.) ;
#98=EDGE_CURVE('',#95,#97,#93,.T.) ;
#103=EDGE_CURVE('',#97,#95,#102,.T.) ;
#116=EDGE_CURVE('',#113,#115,#111,.T.) ;
#121=EDGE_CURVE('',#115,#113,#120,.T.) ;
#140=EDGE_CURVE('',#137,#139,#135,.F.) ;
#147=EDGE_CURVE('',#137,#146,#144,.F.) ;
#154=EDGE_CURVE('',#153,#146,#151,.F.) ;
#159=EDGE_CURVE('',#153,#139,#158,.F.) ;
#174=EDGE_CURVE('',#171,#173,#169,.T.) ;
#179=EDGE_CURVE('',#173,#171,#178,.T.) ;
#192=EDGE_CURVE('',#189,#191,#187,.T.) ;
#197=EDGE_CURVE('',#191,#189,#196,.T.) ;
#216=EDGE_CURVE('',#213,#215,#211,.T.) ;
#221=EDGE_CURVE('',#95,#215,#220,.T.) ;
#226=EDGE_CURVE('',#97,#213,#225,.T.) ;
#238=EDGE_CURVE('',#215,#213,#237,.T.) ;
#259=EDGE_CURVE('',#256,#258,#254,.T.) ;
#264=EDGE_CURVE('',#113,#258,#263,.T.) ;
#269=EDGE_CURVE('',#115,#256,#268,.T.) ;
#281=EDGE_CURVE('',#258,#256,#280,.T.) ;
#302=EDGE_CURVE('',#299,#301,#297,.T.) ;
#307=EDGE_CURVE('',#301,#299,#306,.T.) ;
#325=EDGE_CURVE('',#322,#324,#320,.T.) ;
#330=EDGE_CURVE('',#324,#322,#329,.T.) ;
#349=EDGE_CURVE('',#191,#324,#348,.F.) ;
#354=EDGE_CURVE('',#189,#322,#353,.F.) ;
#378=EDGE_CURVE('',#173,#301,#377,.F.) ;
#383=EDGE_CURVE('',#171,#299,#382,.F.) ;
#407=EDGE_CURVE('',#137,#77,#406,.F.) ;
#412=EDGE_CURVE('',#146,#70,#411,.T.) ;
#429=EDGE_CURVE('',#153,#61,#428,.T.) ;
#434=EDGE_CURVE('',#139,#63,#433,.F.) ;
#84=EDGE_LOOP('',(#85,#86,#87,#88)) ;
#104=EDGE_LOOP('',(#105,#106)) ;
#122=EDGE_LOOP('',(#123,#124)) ;
#160=EDGE_LOOP('',(#161,#162,#163,#164)) ;
#180=EDGE_LOOP('',(#181,#182)) ;
#198=EDGE_LOOP('',(#199,#200)) ;
#227=EDGE_LOOP('',(#228,#229,#230,#231)) ;
#239=EDGE_LOOP('',(#240,#241,#242,#243)) ;
#270=EDGE_LOOP('',(#271,#272,#273,#274)) ;
#282=EDGE_LOOP('',(#283,#284,#285,#286)) ;
#308=EDGE_LOOP('',(#309,#310)) ;
#312=EDGE_LOOP('',(#313,#314)) ;
#331=EDGE_LOOP('',(#332,#333)) ;
#335=EDGE_LOOP('',(#336,#337)) ;
#355=EDGE_LOOP('',(#356,#357,#358,#359)) ;
#362=EDGE_LOOP('',(#363,#364,#365,#366)) ;
#384=EDGE_LOOP('',(#385,#386,#387,#388)) ;
#391=EDGE_LOOP('',(#392,#393,#394,#395)) ;
#413=EDGE_LOOP('',(#414,#415,#416,#417)) ;
#435=EDGE_LOOP('',(#436,#437,#438,#439)) ;
#447=EDGE_LOOP('',(#448,#449,#450,#451)) ;
#459=EDGE_LOOP('',(#460,#461,#462,#463)) ;
#89=FACE_OUTER_BOUND('',#84,.T.) ;
#165=FACE_OUTER_BOUND('',#160,.T.) ;
#232=FACE_OUTER_BOUND('',#227,.T.) ;
#244=FACE_OUTER_BOUND('',#239,.T.) ;
#275=FACE_OUTER_BOUND('',#270,.T.) ;
#287=FACE_OUTER_BOUND('',#282,.T.) ;
#311=FACE_OUTER_BOUND('',#308,.T.) ;
#334=FACE_OUTER_BOUND('',#331,.T.) ;
#360=FACE_OUTER_BOUND('',#355,.T.) ;
#367=FACE_OUTER_BOUND('',#362,.T.) ;
#389=FACE_OUTER_BOUND('',#384,.T.) ;
#396=FACE_OUTER_BOUND('',#391,.T.) ;
#418=FACE_OUTER_BOUND('',#413,.T.) ;
#440=FACE_OUTER_BOUND('',#435,.T.) ;
#452=FACE_OUTER_BOUND('',#447,.T.) ;
#464=FACE_OUTER_BOUND('',#459,.T.) ;
#44=UNCERTAINTY_MEASURE_WITH_UNIT(LENGTH_MEASURE(0.005),#41,'distance_accuracy_value','CONFUSED CURVE UNCERTAINTY') ;
#59=LINE('Line',#56,#58) ;
#75=LINE('Line',#72,#74) ;
#144=LINE('Line',#141,#143) ;
#158=LINE('Line',#155,#157) ;
#220=LINE('Line',#217,#219) ;
#225=LINE('Line',#222,#224) ;
#263=LINE('Line',#260,#262) ;
#268=LINE('Line',#265,#267) ;
#348=LINE('Line',#345,#347) ;
#353=LINE('Line',#350,#352) ;
#377=LINE('Line',#374,#376) ;
#382=LINE('Line',#379,#381) ;
#406=LINE('Line',#403,#405) ;
#411=LINE('Line',#408,#410) ;
#428=LINE('Line',#425,#427) ;
#433=LINE('Line',#430,#432) ;
#2=MECHANICAL_CONTEXT(' ',#1,'mechanical') ;
#24=PERSONAL_ADDRESS(' ',' ',' ',' ',' ',' ',' ',' ',' ',' ',' ',' ',(#22),' ') ;
#55=PLANE('',#54) ;
#131=PLANE('',#130) ;
#293=PLANE('',#292) ;
#402=PLANE('',#401) ;
#424=PLANE('',#423) ;
#7=PRODUCT_CATEGORY('part',$) ;
#9=PRODUCT_CATEGORY_RELATIONSHIP(' ',' ',#7,#8) ;
#6=PRODUCT_DEFINITION_FORMATION_WITH_SPECIFIED_SOURCE('',' ',#5,.NOT_KNOWN.) ;
#8=PRODUCT_RELATED_PRODUCT_CATEGORY('detail',$,(#5)) ;
#49=SHAPE_DEFINITION_REPRESENTATION(#40,#48) ;
#61=VERTEX_POINT('',#60) ;
#63=VERTEX_POINT('',#62) ;
#70=VERTEX_POINT('',#69) ;
#77=VERTEX_POINT('',#76) ;
#95=VERTEX_POINT('',#94) ;
#97=VERTEX_POINT('',#96) ;
#113=VERTEX_POINT('',#112) ;
#115=VERTEX_POINT('',#114) ;
#137=VERTEX_POINT('',#136) ;
#139=VERTEX_POINT('',#138) ;
#146=VERTEX_POINT('',#145) ;
#153=VERTEX_POINT('',#152) ;
#171=VERTEX_POINT('',#170) ;
#173=VERTEX_POINT('',#172) ;
#189=VERTEX_POINT('',#188) ;
#191=VERTEX_POINT('',#190) ;
#213=VERTEX_POINT('',#212) ;
#215=VERTEX_POINT('',#214) ;
#256=VERTEX_POINT('',#255) ;
#258=VERTEX_POINT('',#257) ;
#299=VERTEX_POINT('',#298) ;
#301=VERTEX_POINT('',#300) ;
#322=VERTEX_POINT('',#321) ;
#324=VERTEX_POINT('',#323) ;
#41=(LENGTH_UNIT()NAMED_UNIT(*)SI_UNIT(.MILLI.,.METRE.)) ;
#42=(NAMED_UNIT(*)PLANE_ANGLE_UNIT()SI_UNIT($,.RADIAN.)) ;
#43=(NAMED_UNIT(*)SI_UNIT($,.STERADIAN.)SOLID_ANGLE_UNIT()) ;
#45=(GEOMETRIC_REPRESENTATION_CONTEXT(3)GLOBAL_UNCERTAINTY_ASSIGNED_CONTEXT((#44))GLOBAL_UNIT_ASSIGNED_CONTEXT((#41,#42,#43))REPRESENTATION_CONTEXT(' ',' ')) ;
ENDSEC;
END-ISO-10303-21;
