ISO-10303-21;
HEADER;
FILE_DESCRIPTION(('CATIA V5 STEP Exchange'),'2;1');

FILE_NAME('G:\\GaaPro\\luo\\5.\X2\5F855F0053D1987976EE\X0\\\3D\X2\4EA754C156FE\X0\\\COMBO-1S2.stp','2025-12-17T10:23:14+00:00',('none'),('none'),'CATIA Version 5-6 Release 2018','CATIA V5 STEP AP203','none');

FILE_SCHEMA(('CONFIG_CONTROL_DESIGN'));

ENDSEC;
DATA;
#5=PRODUCT('Part1','','',(#2)) ;
#1=APPLICATION_CONTEXT('configuration controlled 3D design of mechanical parts and assemblies') ;
#14=PRODUCT_DEFINITION('',' ',#6,#3) ;
#16=SECURITY_CLASSIFICATION(' ',' ',#15) ;
#15=SECURITY_CLASSIFICATION_LEVEL('unclassified') ;
#46=CARTESIAN_POINT(' ',(0.,0.,0.)) ;
#51=CARTESIAN_POINT('Axis2P3D Location',(-127.5,65.,0.)) ;
#56=CARTESIAN_POINT('Line Origine',(127.5,65.,2.)) ;
#60=CARTESIAN_POINT('Vertex',(127.5,65.,0.)) ;
#62=CARTESIAN_POINT('Vertex',(127.5,65.,4.)) ;
#65=CARTESIAN_POINT('Line Origine',(0.,65.,0.)) ;
#69=CARTESIAN_POINT('Vertex',(-127.5,65.,0.)) ;
#72=CARTESIAN_POINT('Line Origine',(-127.5,65.,2.)) ;
#76=CARTESIAN_POINT('Vertex',(-127.5,65.,4.)) ;
#79=CARTESIAN_POINT('Line Origine',(0.,65.,4.)) ;
#91=CARTESIAN_POINT('Axis2P3D Location',(-127.5,-65.,0.)) ;
#96=CARTESIAN_POINT('Line Origine',(-127.5,0.,0.)) ;
#100=CARTESIAN_POINT('Vertex',(-127.5,-65.,0.)) ;
#103=CARTESIAN_POINT('Line Origine',(-127.5,-65.,2.)) ;
#107=CARTESIAN_POINT('Vertex',(-127.5,-65.,4.)) ;
#110=CARTESIAN_POINT('Line Origine',(-127.5,0.,4.)) ;
#122=CARTESIAN_POINT('Axis2P3D Location',(127.5,-65.,0.)) ;
#127=CARTESIAN_POINT('Line Origine',(0.,-65.,0.)) ;
#131=CARTESIAN_POINT('Vertex',(127.5,-65.,0.)) ;
#134=CARTESIAN_POINT('Line Origine',(127.5,-65.,2.)) ;
#138=CARTESIAN_POINT('Vertex',(127.5,-65.,4.)) ;
#141=CARTESIAN_POINT('Line Origine',(0.,-65.,4.)) ;
#153=CARTESIAN_POINT('Axis2P3D Location',(127.5,65.,0.)) ;
#158=CARTESIAN_POINT('Line Origine',(127.5,0.,0.)) ;
#163=CARTESIAN_POINT('Line Origine',(127.5,0.,4.)) ;
#175=CARTESIAN_POINT('Axis2P3D Location',(0.,0.,0.)) ;
#186=CARTESIAN_POINT('Axis2P3D Location',(-62.5,0.,0.)) ;
#190=CARTESIAN_POINT('Vertex',(-9.6,0.,0.)) ;
#192=CARTESIAN_POINT('Vertex',(-115.4,6.47838156749E-015,0.)) ;
#195=CARTESIAN_POINT('Axis2P3D Location',(-62.5,0.,0.)) ;
#204=CARTESIAN_POINT('Axis2P3D Location',(62.5,0.,0.)) ;
#208=CARTESIAN_POINT('Vertex',(9.6,-1.70139376336E-014,0.)) ;
#210=CARTESIAN_POINT('Vertex',(115.4,-1.2956763135E-014,0.)) ;
#213=CARTESIAN_POINT('Axis2P3D Location',(62.5,0.,0.)) ;
#223=CARTESIAN_POINT('Axis2P3D Location',(0.,0.,4.)) ;
#234=CARTESIAN_POINT('Axis2P3D Location',(62.5,0.,4.)) ;
#238=CARTESIAN_POINT('Vertex',(118.,0.,4.)) ;
#240=CARTESIAN_POINT('Vertex',(7.,6.79678973527E-015,4.)) ;
#243=CARTESIAN_POINT('Axis2P3D Location',(62.5,0.,4.)) ;
#252=CARTESIAN_POINT('Axis2P3D Location',(-62.5,0.,4.)) ;
#256=CARTESIAN_POINT('Vertex',(-118.,6.79678973527E-015,4.)) ;
#258=CARTESIAN_POINT('Vertex',(-7.,-1.35935794705E-014,4.)) ;
#261=CARTESIAN_POINT('Axis2P3D Location',(-62.5,0.,4.)) ;
#271=CARTESIAN_POINT('Axis2P3D Location',(62.5,0.,2.)) ;
#276=CARTESIAN_POINT('Axis2P3D Location',(62.5,0.,1.)) ;
#280=CARTESIAN_POINT('Vertex',(9.6,6.47838156749E-015,1.)) ;
#282=CARTESIAN_POINT('Vertex',(115.4,3.40278752672E-014,1.)) ;
#285=CARTESIAN_POINT('Line Origine',(115.4,3.40278752672E-014,2.)) ;
#290=CARTESIAN_POINT('Line Origine',(9.6,6.47838156749E-015,2.)) ;
#302=CARTESIAN_POINT('Axis2P3D Location',(62.5,0.,1.)) ;
#314=CARTESIAN_POINT('Axis2P3D Location',(-62.5,0.,2.)) ;
#319=CARTESIAN_POINT('Axis2P3D Location',(-62.5,0.,1.)) ;
#323=CARTESIAN_POINT('Vertex',(-9.6,0.,1.)) ;
#325=CARTESIAN_POINT('Vertex',(-115.4,6.47838156749E-015,1.)) ;
#328=CARTESIAN_POINT('Line Origine',(-115.4,6.47838156749E-015,2.)) ;
#333=CARTESIAN_POINT('Line Origine',(-9.6,0.,2.)) ;
#345=CARTESIAN_POINT('Axis2P3D Location',(-62.5,0.,1.)) ;
#357=CARTESIAN_POINT('Axis2P3D Location',(62.5,0.,2.5)) ;
#362=CARTESIAN_POINT('Line Origine',(118.,0.,2.5)) ;
#366=CARTESIAN_POINT('Vertex',(118.,0.,1.)) ;
#369=CARTESIAN_POINT('Line Origine',(7.,6.79678973527E-015,2.5)) ;
#373=CARTESIAN_POINT('Vertex',(7.,6.79678973527E-015,1.)) ;
#376=CARTESIAN_POINT('Axis2P3D Location',(62.5,0.,1.)) ;
#388=CARTESIAN_POINT('Axis2P3D Location',(62.5,0.,1.)) ;
#400=CARTESIAN_POINT('Axis2P3D Location',(0.,0.,1.)) ;
#414=CARTESIAN_POINT('Axis2P3D Location',(-62.5,0.,2.5)) ;
#419=CARTESIAN_POINT('Line Origine',(-118.,6.79678973527E-015,2.5)) ;
#423=CARTESIAN_POINT('Vertex',(-118.,6.79678973527E-015,1.)) ;
#426=CARTESIAN_POINT('Line Origine',(-7.,-1.35935794705E-014,2.5)) ;
#430=CARTESIAN_POINT('Vertex',(-7.,-1.35935794705E-014,1.)) ;
#433=CARTESIAN_POINT('Axis2P3D Location',(-62.5,0.,1.)) ;
#445=CARTESIAN_POINT('Axis2P3D Location',(-62.5,0.,1.)) ;
#52=DIRECTION('Axis2P3D Direction',(0.,-1.,0.)) ;
#53=DIRECTION('Axis2P3D XDirection',(1.,0.,0.)) ;
#57=DIRECTION('Vector Direction',(0.,0.,1.)) ;
#66=DIRECTION('Vector Direction',(1.,0.,0.)) ;
#73=DIRECTION('Vector Direction',(0.,0.,1.)) ;
#80=DIRECTION('Vector Direction',(1.,0.,0.)) ;
#92=DIRECTION('Axis2P3D Direction',(1.,0.,0.)) ;
#93=DIRECTION('Axis2P3D XDirection',(0.,1.,0.)) ;
#97=DIRECTION('Vector Direction',(0.,1.,0.)) ;
#104=DIRECTION('Vector Direction',(0.,0.,1.)) ;
#111=DIRECTION('Vector Direction',(0.,1.,0.)) ;
#123=DIRECTION('Axis2P3D Direction',(0.,1.,-0.)) ;
#124=DIRECTION('Axis2P3D XDirection',(-1.,0.,0.)) ;
#128=DIRECTION('Vector Direction',(-1.,0.,0.)) ;
#135=DIRECTION('Vector Direction',(0.,0.,1.)) ;
#142=DIRECTION('Vector Direction',(-1.,0.,0.)) ;
#154=DIRECTION('Axis2P3D Direction',(-1.,0.,0.)) ;
#155=DIRECTION('Axis2P3D XDirection',(0.,-1.,0.)) ;
#159=DIRECTION('Vector Direction',(0.,-1.,0.)) ;
#164=DIRECTION('Vector Direction',(0.,-1.,0.)) ;
#176=DIRECTION('Axis2P3D Direction',(0.,0.,1.)) ;
#177=DIRECTION('Axis2P3D XDirection',(1.,0.,0.)) ;
#187=DIRECTION('Axis2P3D Direction',(0.,0.,1.)) ;
#196=DIRECTION('Axis2P3D Direction',(0.,0.,1.)) ;
#205=DIRECTION('Axis2P3D Direction',(0.,0.,1.)) ;
#214=DIRECTION('Axis2P3D Direction',(0.,0.,1.)) ;
#224=DIRECTION('Axis2P3D Direction',(0.,0.,1.)) ;
#225=DIRECTION('Axis2P3D XDirection',(1.,0.,0.)) ;
#235=DIRECTION('Axis2P3D Direction',(0.,0.,1.)) ;
#244=DIRECTION('Axis2P3D Direction',(0.,0.,1.)) ;
#253=DIRECTION('Axis2P3D Direction',(0.,0.,1.)) ;
#262=DIRECTION('Axis2P3D Direction',(0.,0.,1.)) ;
#272=DIRECTION('Axis2P3D Direction',(0.,0.,1.)) ;
#273=DIRECTION('Axis2P3D XDirection',(-1.,1.22464679915E-016,0.)) ;
#277=DIRECTION('Axis2P3D Direction',(0.,0.,1.)) ;
#286=DIRECTION('Vector Direction',(0.,0.,1.)) ;
#291=DIRECTION('Vector Direction',(0.,0.,1.)) ;
#303=DIRECTION('Axis2P3D Direction',(0.,0.,1.)) ;
#315=DIRECTION('Axis2P3D Direction',(0.,0.,1.)) ;
#316=DIRECTION('Axis2P3D XDirection',(1.,0.,0.)) ;
#320=DIRECTION('Axis2P3D Direction',(0.,0.,1.)) ;
#329=DIRECTION('Vector Direction',(0.,0.,1.)) ;
#334=DIRECTION('Vector Direction',(0.,0.,1.)) ;
#346=DIRECTION('Axis2P3D Direction',(0.,0.,1.)) ;
#358=DIRECTION('Axis2P3D Direction',(0.,0.,1.)) ;
#359=DIRECTION('Axis2P3D XDirection',(1.,0.,0.)) ;
#363=DIRECTION('Vector Direction',(0.,0.,1.)) ;
#370=DIRECTION('Vector Direction',(0.,0.,1.)) ;
#377=DIRECTION('Axis2P3D Direction',(0.,0.,1.)) ;
#389=DIRECTION('Axis2P3D Direction',(0.,0.,1.)) ;
#401=DIRECTION('Axis2P3D Direction',(0.,0.,1.)) ;
#402=DIRECTION('Axis2P3D XDirection',(1.,0.,0.)) ;
#415=DIRECTION('Axis2P3D Direction',(0.,0.,1.)) ;
#416=DIRECTION('Axis2P3D XDirection',(-1.,1.22464679915E-016,0.)) ;
#420=DIRECTION('Vector Direction',(0.,0.,1.)) ;
#427=DIRECTION('Vector Direction',(0.,0.,1.)) ;
#434=DIRECTION('Axis2P3D Direction',(0.,0.,1.)) ;
#446=DIRECTION('Axis2P3D Direction',(0.,0.,1.)) ;
#47=AXIS2_PLACEMENT_3D(' ',#46,$,$) ;
#54=AXIS2_PLACEMENT_3D('Plane Axis2P3D',#51,#52,#53) ;
#94=AXIS2_PLACEMENT_3D('Plane Axis2P3D',#91,#92,#93) ;
#125=AXIS2_PLACEMENT_3D('Plane Axis2P3D',#122,#123,#124) ;
#156=AXIS2_PLACEMENT_3D('Plane Axis2P3D',#153,#154,#155) ;
#178=AXIS2_PLACEMENT_3D('Plane Axis2P3D',#175,#176,#177) ;
#188=AXIS2_PLACEMENT_3D('Circle Axis2P3D',#186,#187,$) ;
#197=AXIS2_PLACEMENT_3D('Circle Axis2P3D',#195,#196,$) ;
#206=AXIS2_PLACEMENT_3D('Circle Axis2P3D',#204,#205,$) ;
#215=AXIS2_PLACEMENT_3D('Circle Axis2P3D',#213,#214,$) ;
#226=AXIS2_PLACEMENT_3D('Plane Axis2P3D',#223,#224,#225) ;
#236=AXIS2_PLACEMENT_3D('Circle Axis2P3D',#234,#235,$) ;
#245=AXIS2_PLACEMENT_3D('Circle Axis2P3D',#243,#244,$) ;
#254=AXIS2_PLACEMENT_3D('Circle Axis2P3D',#252,#253,$) ;
#263=AXIS2_PLACEMENT_3D('Circle Axis2P3D',#261,#262,$) ;
#274=AXIS2_PLACEMENT_3D('Cylinder Axis2P3D',#271,#272,#273) ;
#278=AXIS2_PLACEMENT_3D('Circle Axis2P3D',#276,#277,$) ;
#304=AXIS2_PLACEMENT_3D('Circle Axis2P3D',#302,#303,$) ;
#317=AXIS2_PLACEMENT_3D('Cylinder Axis2P3D',#314,#315,#316) ;
#321=AXIS2_PLACEMENT_3D('Circle Axis2P3D',#319,#320,$) ;
#347=AXIS2_PLACEMENT_3D('Circle Axis2P3D',#345,#346,$) ;
#360=AXIS2_PLACEMENT_3D('Cylinder Axis2P3D',#357,#358,#359) ;
#378=AXIS2_PLACEMENT_3D('Circle Axis2P3D',#376,#377,$) ;
#390=AXIS2_PLACEMENT_3D('Circle Axis2P3D',#388,#389,$) ;
#403=AXIS2_PLACEMENT_3D('Plane Axis2P3D',#400,#401,#402) ;
#417=AXIS2_PLACEMENT_3D('Cylinder Axis2P3D',#414,#415,#416) ;
#435=AXIS2_PLACEMENT_3D('Circle Axis2P3D',#433,#434,$) ;
#447=AXIS2_PLACEMENT_3D('Circle Axis2P3D',#445,#446,$) ;
#40=PRODUCT_DEFINITION_SHAPE(' ',' ',#14) ;
#31=APPROVAL_PERSON_ORGANIZATION(#25,#21,#19) ;
#25=PERSON_AND_ORGANIZATION(#22,#23) ;
#22=PERSON(' ',' ',' ',$,$,$) ;
#23=ORGANIZATION(' ',' ',' ') ;
#21=APPROVAL(#20,' ') ;
#20=APPROVAL_STATUS('not_yet_approved') ;
#19=APPROVAL_ROLE('APPROVER') ;
#13=DATE_AND_TIME(#11,#12) ;
#12=LOCAL_TIME(18,23,14.,#10) ;
#10=COORDINATED_UNIVERSAL_TIME_OFFSET(0,0,.AHEAD.) ;
#85=ORIENTED_EDGE('',*,*,#64,.F.) ;
#86=ORIENTED_EDGE('',*,*,#71,.T.) ;
#87=ORIENTED_EDGE('',*,*,#78,.T.) ;
#88=ORIENTED_EDGE('',*,*,#83,.F.) ;
#116=ORIENTED_EDGE('',*,*,#78,.F.) ;
#117=ORIENTED_EDGE('',*,*,#102,.T.) ;
#118=ORIENTED_EDGE('',*,*,#109,.T.) ;
#119=ORIENTED_EDGE('',*,*,#114,.F.) ;
#147=ORIENTED_EDGE('',*,*,#109,.F.) ;
#148=ORIENTED_EDGE('',*,*,#133,.T.) ;
#149=ORIENTED_EDGE('',*,*,#140,.T.) ;
#150=ORIENTED_EDGE('',*,*,#145,.F.) ;
#169=ORIENTED_EDGE('',*,*,#140,.F.) ;
#170=ORIENTED_EDGE('',*,*,#162,.T.) ;
#171=ORIENTED_EDGE('',*,*,#64,.T.) ;
#172=ORIENTED_EDGE('',*,*,#167,.F.) ;
#181=ORIENTED_EDGE('',*,*,#162,.F.) ;
#182=ORIENTED_EDGE('',*,*,#133,.F.) ;
#183=ORIENTED_EDGE('',*,*,#102,.F.) ;
#184=ORIENTED_EDGE('',*,*,#71,.F.) ;
#201=ORIENTED_EDGE('',*,*,#194,.T.) ;
#202=ORIENTED_EDGE('',*,*,#199,.T.) ;
#219=ORIENTED_EDGE('',*,*,#212,.T.) ;
#220=ORIENTED_EDGE('',*,*,#217,.T.) ;
#229=ORIENTED_EDGE('',*,*,#83,.T.) ;
#230=ORIENTED_EDGE('',*,*,#114,.T.) ;
#231=ORIENTED_EDGE('',*,*,#145,.T.) ;
#232=ORIENTED_EDGE('',*,*,#167,.T.) ;
#249=ORIENTED_EDGE('',*,*,#242,.F.) ;
#250=ORIENTED_EDGE('',*,*,#247,.F.) ;
#267=ORIENTED_EDGE('',*,*,#260,.F.) ;
#268=ORIENTED_EDGE('',*,*,#265,.F.) ;
#296=ORIENTED_EDGE('',*,*,#284,.T.) ;
#297=ORIENTED_EDGE('',*,*,#289,.F.) ;
#298=ORIENTED_EDGE('',*,*,#212,.F.) ;
#299=ORIENTED_EDGE('',*,*,#294,.T.) ;
#308=ORIENTED_EDGE('',*,*,#306,.T.) ;
#309=ORIENTED_EDGE('',*,*,#294,.F.) ;
#310=ORIENTED_EDGE('',*,*,#217,.F.) ;
#311=ORIENTED_EDGE('',*,*,#289,.T.) ;
#339=ORIENTED_EDGE('',*,*,#327,.T.) ;
#340=ORIENTED_EDGE('',*,*,#332,.F.) ;
#341=ORIENTED_EDGE('',*,*,#194,.F.) ;
#342=ORIENTED_EDGE('',*,*,#337,.T.) ;
#351=ORIENTED_EDGE('',*,*,#349,.T.) ;
#352=ORIENTED_EDGE('',*,*,#337,.F.) ;
#353=ORIENTED_EDGE('',*,*,#199,.F.) ;
#354=ORIENTED_EDGE('',*,*,#332,.T.) ;
#382=ORIENTED_EDGE('',*,*,#368,.F.) ;
#383=ORIENTED_EDGE('',*,*,#242,.T.) ;
#384=ORIENTED_EDGE('',*,*,#375,.T.) ;
#385=ORIENTED_EDGE('',*,*,#380,.F.) ;
#394=ORIENTED_EDGE('',*,*,#375,.F.) ;
#395=ORIENTED_EDGE('',*,*,#247,.T.) ;
#396=ORIENTED_EDGE('',*,*,#368,.T.) ;
#397=ORIENTED_EDGE('',*,*,#392,.F.) ;
#406=ORIENTED_EDGE('',*,*,#380,.T.) ;
#407=ORIENTED_EDGE('',*,*,#392,.T.) ;
#410=ORIENTED_EDGE('',*,*,#306,.F.) ;
#411=ORIENTED_EDGE('',*,*,#284,.F.) ;
#439=ORIENTED_EDGE('',*,*,#425,.F.) ;
#440=ORIENTED_EDGE('',*,*,#260,.T.) ;
#441=ORIENTED_EDGE('',*,*,#432,.T.) ;
#442=ORIENTED_EDGE('',*,*,#437,.F.) ;
#451=ORIENTED_EDGE('',*,*,#432,.F.) ;
#452=ORIENTED_EDGE('',*,*,#265,.T.) ;
#453=ORIENTED_EDGE('',*,*,#425,.T.) ;
#454=ORIENTED_EDGE('',*,*,#449,.F.) ;
#458=ORIENTED_EDGE('',*,*,#437,.T.) ;
#459=ORIENTED_EDGE('',*,*,#449,.T.) ;
#462=ORIENTED_EDGE('',*,*,#349,.F.) ;
#463=ORIENTED_EDGE('',*,*,#327,.F.) ;
#203=FACE_BOUND('',#200,.T.) ;
#221=FACE_BOUND('',#218,.T.) ;
#251=FACE_BOUND('',#248,.T.) ;
#269=FACE_BOUND('',#266,.T.) ;
#412=FACE_BOUND('',#409,.T.) ;
#464=FACE_BOUND('',#461,.T.) ;
#50=CLOSED_SHELL('Closed Shell',(#90,#121,#152,#174,#222,#270,#301,#313,#344,#356,#387,#399,#413,#444,#456,#465)) ;
#58=VECTOR('Line Direction',#57,1.) ;
#67=VECTOR('Line Direction',#66,1.) ;
#74=VECTOR('Line Direction',#73,1.) ;
#81=VECTOR('Line Direction',#80,1.) ;
#98=VECTOR('Line Direction',#97,1.) ;
#105=VECTOR('Line Direction',#104,1.) ;
#112=VECTOR('Line Direction',#111,1.) ;
#129=VECTOR('Line Direction',#128,1.) ;
#136=VECTOR('Line Direction',#135,1.) ;
#143=VECTOR('Line Direction',#142,1.) ;
#160=VECTOR('Line Direction',#159,1.) ;
#165=VECTOR('Line Direction',#164,1.) ;
#287=VECTOR('Line Direction',#286,1.) ;
#292=VECTOR('Line Direction',#291,1.) ;
#330=VECTOR('Line Direction',#329,1.) ;
#335=VECTOR('Line Direction',#334,1.) ;
#364=VECTOR('Line Direction',#363,1.) ;
#371=VECTOR('Line Direction',#370,1.) ;
#421=VECTOR('Line Direction',#420,1.) ;
#428=VECTOR('Line Direction',#427,1.) ;
#467=ADVANCED_BREP_SHAPE_REPRESENTATION('NONE',(#466),#45) ;
#48=SHAPE_REPRESENTATION(' ',(#47),#45) ;
#90=ADVANCED_FACE('\X2\96F64EF651E04F554F53\X0\',(#89),#55,.F.) ;
#121=ADVANCED_FACE('\X2\96F64EF651E04F554F53\X0\',(#120),#95,.F.) ;
#152=ADVANCED_FACE('\X2\96F64EF651E04F554F53\X0\',(#151),#126,.F.) ;
#174=ADVANCED_FACE('\X2\96F64EF651E04F554F53\X0\',(#173),#157,.F.) ;
#222=ADVANCED_FACE('\X2\96F64EF651E04F554F53\X0\',(#185,#203,#221),#179,.F.) ;
#270=ADVANCED_FACE('\X2\96F64EF651E04F554F53\X0\',(#233,#251,#269),#227,.T.) ;
#301=ADVANCED_FACE('\X2\96F64EF651E04F554F53\X0\',(#300),#275,.F.) ;
#313=ADVANCED_FACE('\X2\96F64EF651E04F554F53\X0\',(#312),#275,.F.) ;
#344=ADVANCED_FACE('\X2\96F64EF651E04F554F53\X0\',(#343),#318,.F.) ;
#356=ADVANCED_FACE('\X2\96F64EF651E04F554F53\X0\',(#355),#318,.F.) ;
#387=ADVANCED_FACE('\X2\96F64EF651E04F554F53\X0\',(#386),#361,.F.) ;
#399=ADVANCED_FACE('\X2\96F64EF651E04F554F53\X0\',(#398),#361,.F.) ;
#413=ADVANCED_FACE('\X2\96F64EF651E04F554F53\X0\',(#408,#412),#404,.T.) ;
#444=ADVANCED_FACE('\X2\96F64EF651E04F554F53\X0\',(#443),#418,.F.) ;
#456=ADVANCED_FACE('\X2\96F64EF651E04F554F53\X0\',(#455),#418,.F.) ;
#465=ADVANCED_FACE('\X2\96F64EF651E04F554F53\X0\',(#460,#464),#404,.T.) ;
#4=APPLICATION_PROTOCOL_DEFINITION('international standard','config_control_design',1994,#1) ;
#32=APPROVAL_DATE_TIME(#13,#21) ;
#466=MANIFOLD_SOLID_BREP('\X2\96F64EF651E04F554F53\X0\',#50) ;
#11=CALENDAR_DATE(2025,17,12) ;
#30=CC_DESIGN_APPROVAL(#21,(#16,#6,#14)) ;
#18=CC_DESIGN_DATE_AND_TIME_ASSIGNMENT(#13,#17,(#16)) ;
#29=CC_DESIGN_DATE_AND_TIME_ASSIGNMENT(#13,#28,(#14)) ;
#17=DATE_TIME_ROLE('classification_date') ;
#28=DATE_TIME_ROLE('creation_date') ;
#27=CC_DESIGN_PERSON_AND_ORGANIZATION_ASSIGNMENT(#25,#26,(#16)) ;
#33=CC_DESIGN_PERSON_AND_ORGANIZATION_ASSIGNMENT(#25,#34,(#6)) ;
#35=CC_DESIGN_PERSON_AND_ORGANIZATION_ASSIGNMENT(#25,#36,(#6,#14)) ;
#37=CC_DESIGN_PERSON_AND_ORGANIZATION_ASSIGNMENT(#25,#38,(#5)) ;
#26=PERSON_AND_ORGANIZATION_ROLE('classification_officer') ;
#34=PERSON_AND_ORGANIZATION_ROLE('design_supplier') ;
#36=PERSON_AND_ORGANIZATION_ROLE('creator') ;
#38=PERSON_AND_ORGANIZATION_ROLE('design_owner') ;
#39=CC_DESIGN_SECURITY_CLASSIFICATION(#16,(#6)) ;
#189=CIRCLE('generated circle',#188,52.9) ;
#198=CIRCLE('generated circle',#197,52.9) ;
#207=CIRCLE('generated circle',#206,52.9) ;
#216=CIRCLE('generated circle',#215,52.9) ;
#237=CIRCLE('generated circle',#236,55.5) ;
#246=CIRCLE('generated circle',#245,55.5) ;
#255=CIRCLE('generated circle',#254,55.5) ;
#264=CIRCLE('generated circle',#263,55.5) ;
#279=CIRCLE('generated circle',#278,52.9) ;
#305=CIRCLE('generated circle',#304,52.9) ;
#322=CIRCLE('generated circle',#321,52.9) ;
#348=CIRCLE('generated circle',#347,52.9) ;
#379=CIRCLE('generated circle',#378,55.5) ;
#391=CIRCLE('generated circle',#390,55.5) ;
#436=CIRCLE('generated circle',#435,55.5) ;
#448=CIRCLE('generated circle',#447,55.5) ;
#468=SHAPE_REPRESENTATION_RELATIONSHIP(' ',' ',#48,#467) ;
#275=CYLINDRICAL_SURFACE('generated cylinder',#274,52.9) ;
#318=CYLINDRICAL_SURFACE('generated cylinder',#317,52.9) ;
#361=CYLINDRICAL_SURFACE('generated cylinder',#360,55.5) ;
#418=CYLINDRICAL_SURFACE('generated cylinder',#417,55.5) ;
#3=DESIGN_CONTEXT(' ',#1,'design') ;
#64=EDGE_CURVE('',#61,#63,#59,.T.) ;
#71=EDGE_CURVE('',#61,#70,#68,.F.) ;
#78=EDGE_CURVE('',#70,#77,#75,.T.) ;
#83=EDGE_CURVE('',#63,#77,#82,.F.) ;
#102=EDGE_CURVE('',#70,#101,#99,.F.) ;
#109=EDGE_CURVE('',#101,#108,#106,.T.) ;
#114=EDGE_CURVE('',#77,#108,#113,.F.) ;
#133=EDGE_CURVE('',#101,#132,#130,.F.) ;
#140=EDGE_CURVE('',#132,#139,#137,.T.) ;
#145=EDGE_CURVE('',#108,#139,#144,.F.) ;
#162=EDGE_CURVE('',#132,#61,#161,.F.) ;
#167=EDGE_CURVE('',#139,#63,#166,.F.) ;
#194=EDGE_CURVE('',#191,#193,#189,.T.) ;
#199=EDGE_CURVE('',#193,#191,#198,.T.) ;
#212=EDGE_CURVE('',#209,#211,#207,.T.) ;
#217=EDGE_CURVE('',#211,#209,#216,.T.) ;
#242=EDGE_CURVE('',#239,#241,#237,.T.) ;
#247=EDGE_CURVE('',#241,#239,#246,.T.) ;
#260=EDGE_CURVE('',#257,#259,#255,.T.) ;
#265=EDGE_CURVE('',#259,#257,#264,.T.) ;
#284=EDGE_CURVE('',#281,#283,#279,.T.) ;
#289=EDGE_CURVE('',#211,#283,#288,.T.) ;
#294=EDGE_CURVE('',#209,#281,#293,.T.) ;
#306=EDGE_CURVE('',#283,#281,#305,.T.) ;
#327=EDGE_CURVE('',#324,#326,#322,.T.) ;
#332=EDGE_CURVE('',#193,#326,#331,.T.) ;
#337=EDGE_CURVE('',#191,#324,#336,.T.) ;
#349=EDGE_CURVE('',#326,#324,#348,.T.) ;
#368=EDGE_CURVE('',#239,#367,#365,.F.) ;
#375=EDGE_CURVE('',#241,#374,#372,.F.) ;
#380=EDGE_CURVE('',#367,#374,#379,.T.) ;
#392=EDGE_CURVE('',#374,#367,#391,.T.) ;
#425=EDGE_CURVE('',#257,#424,#422,.F.) ;
#432=EDGE_CURVE('',#259,#431,#429,.F.) ;
#437=EDGE_CURVE('',#424,#431,#436,.T.) ;
#449=EDGE_CURVE('',#431,#424,#448,.T.) ;
#84=EDGE_LOOP('',(#85,#86,#87,#88)) ;
#115=EDGE_LOOP('',(#116,#117,#118,#119)) ;
#146=EDGE_LOOP('',(#147,#148,#149,#150)) ;
#168=EDGE_LOOP('',(#169,#170,#171,#172)) ;
#180=EDGE_LOOP('',(#181,#182,#183,#184)) ;
#200=EDGE_LOOP('',(#201,#202)) ;
#218=EDGE_LOOP('',(#219,#220)) ;
#228=EDGE_LOOP('',(#229,#230,#231,#232)) ;
#248=EDGE_LOOP('',(#249,#250)) ;
#266=EDGE_LOOP('',(#267,#268)) ;
#295=EDGE_LOOP('',(#296,#297,#298,#299)) ;
#307=EDGE_LOOP('',(#308,#309,#310,#311)) ;
#338=EDGE_LOOP('',(#339,#340,#341,#342)) ;
#350=EDGE_LOOP('',(#351,#352,#353,#354)) ;
#381=EDGE_LOOP('',(#382,#383,#384,#385)) ;
#393=EDGE_LOOP('',(#394,#395,#396,#397)) ;
#405=EDGE_LOOP('',(#406,#407)) ;
#409=EDGE_LOOP('',(#410,#411)) ;
#438=EDGE_LOOP('',(#439,#440,#441,#442)) ;
#450=EDGE_LOOP('',(#451,#452,#453,#454)) ;
#457=EDGE_LOOP('',(#458,#459)) ;
#461=EDGE_LOOP('',(#462,#463)) ;
#89=FACE_OUTER_BOUND('',#84,.T.) ;
#120=FACE_OUTER_BOUND('',#115,.T.) ;
#151=FACE_OUTER_BOUND('',#146,.T.) ;
#173=FACE_OUTER_BOUND('',#168,.T.) ;
#185=FACE_OUTER_BOUND('',#180,.T.) ;
#233=FACE_OUTER_BOUND('',#228,.T.) ;
#300=FACE_OUTER_BOUND('',#295,.T.) ;
#312=FACE_OUTER_BOUND('',#307,.T.) ;
#343=FACE_OUTER_BOUND('',#338,.T.) ;
#355=FACE_OUTER_BOUND('',#350,.T.) ;
#386=FACE_OUTER_BOUND('',#381,.T.) ;
#398=FACE_OUTER_BOUND('',#393,.T.) ;
#408=FACE_OUTER_BOUND('',#405,.T.) ;
#443=FACE_OUTER_BOUND('',#438,.T.) ;
#455=FACE_OUTER_BOUND('',#450,.T.) ;
#460=FACE_OUTER_BOUND('',#457,.T.) ;
#44=UNCERTAINTY_MEASURE_WITH_UNIT(LENGTH_MEASURE(0.005),#41,'distance_accuracy_value','CONFUSED CURVE UNCERTAINTY') ;
#59=LINE('Line',#56,#58) ;
#68=LINE('Line',#65,#67) ;
#75=LINE('Line',#72,#74) ;
#82=LINE('Line',#79,#81) ;
#99=LINE('Line',#96,#98) ;
#106=LINE('Line',#103,#105) ;
#113=LINE('Line',#110,#112) ;
#130=LINE('Line',#127,#129) ;
#137=LINE('Line',#134,#136) ;
#144=LINE('Line',#141,#143) ;
#161=LINE('Line',#158,#160) ;
#166=LINE('Line',#163,#165) ;
#288=LINE('Line',#285,#287) ;
#293=LINE('Line',#290,#292) ;
#331=LINE('Line',#328,#330) ;
#336=LINE('Line',#333,#335) ;
#365=LINE('Line',#362,#364) ;
#372=LINE('Line',#369,#371) ;
#422=LINE('Line',#419,#421) ;
#429=LINE('Line',#426,#428) ;
#2=MECHANICAL_CONTEXT(' ',#1,'mechanical') ;
#24=PERSONAL_ADDRESS(' ',' ',' ',' ',' ',' ',' ',' ',' ',' ',' ',' ',(#22),' ') ;
#55=PLANE('',#54) ;
#95=PLANE('',#94) ;
#126=PLANE('',#125) ;
#157=PLANE('',#156) ;
#179=PLANE('',#178) ;
#227=PLANE('',#226) ;
#404=PLANE('',#403) ;
#7=PRODUCT_CATEGORY('part',$) ;
#9=PRODUCT_CATEGORY_RELATIONSHIP(' ',' ',#7,#8) ;
#6=PRODUCT_DEFINITION_FORMATION_WITH_SPECIFIED_SOURCE('',' ',#5,.NOT_KNOWN.) ;
#8=PRODUCT_RELATED_PRODUCT_CATEGORY('detail',$,(#5)) ;
#49=SHAPE_DEFINITION_REPRESENTATION(#40,#48) ;
#61=VERTEX_POINT('',#60) ;
#63=VERTEX_POINT('',#62) ;
#70=VERTEX_POINT('',#69) ;
#77=VERTEX_POINT('',#76) ;
#101=VERTEX_POINT('',#100) ;
#108=VERTEX_POINT('',#107) ;
#132=VERTEX_POINT('',#131) ;
#139=VERTEX_POINT('',#138) ;
#191=VERTEX_POINT('',#190) ;
#193=VERTEX_POINT('',#192) ;
#209=VERTEX_POINT('',#208) ;
#211=VERTEX_POINT('',#210) ;
#239=VERTEX_POINT('',#238) ;
#241=VERTEX_POINT('',#240) ;
#257=VERTEX_POINT('',#256) ;
#259=VERTEX_POINT('',#258) ;
#281=VERTEX_POINT('',#280) ;
#283=VERTEX_POINT('',#282) ;
#324=VERTEX_POINT('',#323) ;
#326=VERTEX_POINT('',#325) ;
#367=VERTEX_POINT('',#366) ;
#374=VERTEX_POINT('',#373) ;
#424=VERTEX_POINT('',#423) ;
#431=VERTEX_POINT('',#430) ;
#41=(LENGTH_UNIT()NAMED_UNIT(*)SI_UNIT(.MILLI.,.METRE.)) ;
#42=(NAMED_UNIT(*)PLANE_ANGLE_UNIT()SI_UNIT($,.RADIAN.)) ;
#43=(NAMED_UNIT(*)SI_UNIT($,.STERADIAN.)SOLID_ANGLE_UNIT()) ;
#45=(GEOMETRIC_REPRESENTATION_CONTEXT(3)GLOBAL_UNCERTAINTY_ASSIGNED_CONTEXT((#44))GLOBAL_UNIT_ASSIGNED_CONTEXT((#41,#42,#43))REPRESENTATION_CONTEXT(' ',' ')) ;
ENDSEC;
END-ISO-10303-21;
